  0
SECTION
  2
HEADER
  9
$ACADVER
  1
AC1014
  9
$ACADMAINTVER
 70
     0
  9
$DWGCODEPAGE
  3
ANSI_932
  9
$INSBASE
 10
0.0
 20
0.0
 30
0.0
  9
$EXTMIN
 10
-7.784002
 20
116.049017
 30
0.0
  9
$EXTMAX
 10
162.980019
 20
172.075864
 30
0.0
  9
$LIMMIN
 10
0.0
 20
0.0
  9
$LIMMAX
 10
420.0
 20
297.0
  9
$ORTHOMODE
 70
     0
  9
$REGENMODE
 70
     1
  9
$FILLMODE
 70
     1
  9
$QTEXTMODE
 70
     0
  9
$MIRRTEXT
 70
     1
  9
$DRAGMODE
 70
     2
  9
$LTSCALE
 40
0.3
  9
$OSMODE
 70
    37
  9
$ATTMODE
 70
     1
  9
$TEXTSIZE
 40
10.0
  9
$TRACEWID
 40
1.0
  9
$TEXTSTYLE
  7
BIGFONT
  9
$CLAYER
  8
0
  9
$CELTYPE
  6
BYLAYER
  9
$CECOLOR
 62
   256
  9
$CELTSCALE
 40
1.0
  9
$DELOBJ
 70
     1
  9
$DISPSILH
 70
     0
  9
$DIMSCALE
 40
1.0
  9
$DIMASZ
 40
2.5
  9
$DIMEXO
 40
0.625
  9
$DIMDLI
 40
3.75
  9
$DIMRND
 40
0.0
  9
$DIMDLE
 40
0.0
  9
$DIMEXE
 40
1.25
  9
$DIMTP
 40
0.0
  9
$DIMTM
 40
0.0
  9
$DIMTXT
 40
2.5
  9
$DIMCEN
 40
0.5
  9
$DIMTSZ
 40
0.0
  9
$DIMTOL
 70
     0
  9
$DIMLIM
 70
     0
  9
$DIMTIH
 70
     0
  9
$DIMTOH
 70
     0
  9
$DIMSE1
 70
     0
  9
$DIMSE2
 70
     0
  9
$DIMTAD
 70
     3
  9
$DIMZIN
 70
     8
  9
$DIMBLK
  1

  9
$DIMASO
 70
     1
  9
$DIMSHO
 70
     1
  9
$DIMPOST
  1

  9
$DIMAPOST
  1

  9
$DIMALT
 70
     0
  9
$DIMALTD
 70
     4
  9
$DIMALTF
 40
0.0394
  9
$DIMLFAC
 40
1.0
  9
$DIMTOFL
 70
     1
  9
$DIMTVP
 40
0.0
  9
$DIMTIX
 70
     0
  9
$DIMSOXD
 70
     0
  9
$DIMSAH
 70
     0
  9
$DIMBLK1
  1

  9
$DIMBLK2
  1

  9
$DIMSTYLE
  2
STANDARD_WS
  9
$DIMCLRD
 70
     0
  9
$DIMCLRE
 70
     0
  9
$DIMCLRT
 70
   256
  9
$DIMTFAC
 40
1.0
  9
$DIMGAP
 40
1.2
  9
$DIMJUST
 70
     0
  9
$DIMSD1
 70
     0
  9
$DIMSD2
 70
     0
  9
$DIMTOLJ
 70
     1
  9
$DIMTZIN
 70
     0
  9
$DIMALTZ
 70
     0
  9
$DIMALTTZ
 70
     0
  9
$DIMFIT
 70
     3
  9
$DIMUPT
 70
     0
  9
$DIMUNIT
 70
     2
  9
$DIMDEC
 70
     4
  9
$DIMTDEC
 70
     4
  9
$DIMALTU
 70
     8
  9
$DIMALTTD
 70
     4
  9
$DIMTXSTY
  7
BIGFONT
  9
$DIMAUNIT
 70
     0
  9
$LUNITS
 70
     2
  9
$LUPREC
 70
     4
  9
$SKETCHINC
 40
1.0
  9
$FILLETRAD
 40
0.0
  9
$AUNITS
 70
     0
  9
$AUPREC
 70
     0
  9
$MENU
  1
acad
  9
$ELEVATION
 40
0.0
  9
$PELEVATION
 40
0.0
  9
$THICKNESS
 40
0.0
  9
$LIMCHECK
 70
     0
  9
$BLIPMODE
 70
     0
  9
$CHAMFERA
 40
0.5
  9
$CHAMFERB
 40
0.5
  9
$CHAMFERC
 40
20.0
  9
$CHAMFERD
 40
0.0
  9
$SKPOLY
 70
     0
  9
$TDCREATE
 40
2451225.415346065
  9
$TDUPDATE
 40
2453594.474726736
  9
$TDINDWG
 40
0.2131675694
  9
$TDUSRTIMER
 40
0.2131675694
  9
$USRTIMER
 70
     1
  9
$ANGBASE
 50
0.0
  9
$ANGDIR
 70
     0
  9
$PDMODE
 70
     0
  9
$PDSIZE
 40
0.0
  9
$PLINEWID
 40
0.0
  9
$COORDS
 70
     1
  9
$SPLFRAME
 70
     0
  9
$SPLINETYPE
 70
     6
  9
$SPLINESEGS
 70
     8
  9
$ATTDIA
 70
     0
  9
$ATTREQ
 70
     1
  9
$HANDLING
 70
     1
  9
$HANDSEED
  5
105D
  9
$SURFTAB1
 70
     6
  9
$SURFTAB2
 70
     6
  9
$SURFTYPE
 70
     6
  9
$SURFU
 70
     6
  9
$SURFV
 70
     6
  9
$UCSNAME
  2

  9
$UCSORG
 10
0.0
 20
0.0
 30
0.0
  9
$UCSXDIR
 10
1.0
 20
0.0
 30
0.0
  9
$UCSYDIR
 10
0.0
 20
1.0
 30
0.0
  9
$PUCSNAME
  2

  9
$PUCSORG
 10
0.0
 20
0.0
 30
0.0
  9
$PUCSXDIR
 10
1.0
 20
0.0
 30
0.0
  9
$PUCSYDIR
 10
0.0
 20
1.0
 30
0.0
  9
$USERI1
 70
     0
  9
$USERI2
 70
     0
  9
$USERI3
 70
     0
  9
$USERI4
 70
     0
  9
$USERI5
 70
     0
  9
$USERR1
 40
0.0
  9
$USERR2
 40
0.0
  9
$USERR3
 40
0.0
  9
$USERR4
 40
0.0
  9
$USERR5
 40
0.0
  9
$WORLDVIEW
 70
     1
  9
$SHADEDGE
 70
     3
  9
$SHADEDIF
 70
    70
  9
$TILEMODE
 70
     1
  9
$MAXACTVP
 70
    48
  9
$PINSBASE
 10
0.0
 20
0.0
 30
0.0
  9
$PLIMCHECK
 70
     0
  9
$PEXTMIN
 10
1.000000E+20
 20
1.000000E+20
 30
1.000000E+20
  9
$PEXTMAX
 10
-1.000000E+20
 20
-1.000000E+20
 30
-1.000000E+20
  9
$PLIMMIN
 10
0.0
 20
0.0
  9
$PLIMMAX
 10
420.0
 20
297.0
  9
$UNITMODE
 70
     0
  9
$VISRETAIN
 70
     1
  9
$PLINEGEN
 70
     0
  9
$PSLTSCALE
 70
     0
  9
$TREEDEPTH
 70
  3020
  9
$PICKSTYLE
 70
     1
  9
$CMLSTYLE
  2
STANDARD
  9
$CMLJUST
 70
     0
  9
$CMLSCALE
 40
20.0
  9
$PROXYGRAPHICS
 70
     1
  9
$MEASUREMENT
 70
     0
  0
ENDSEC
  0
SECTION
  2
CLASSES
  0
CLASS
  1
DICTIONARYVAR
  2
AcDbDictionaryVar
  3
"AutoCAD"
 90
        0
280
     0
281
     0
  0
CLASS
  1
HATCH
  2
AcDbHatch
  3
"ACAD_SEDONA"
 90
        0
280
     0
281
     1
  0
CLASS
  1
LWPOLYLINE
  2
AcDbPolyline
  3
"AutoCAD"
 90
        0
280
     0
281
     1
  0
CLASS
  1
ACDBDICTIONARYWDFLT
  2
AcDbDictionaryWithDefault
  3
AutoCAD 2000
 90
        0
280
     0
281
     0
  0
CLASS
  1
ACDBPLACEHOLDER
  2
AcDbPlaceHolder
  3
AutoCAD 2000
 90
        0
280
     0
281
     0
  0
CLASS
  1
LAYOUT
  2
AcDbLayout
  3
AutoCAD 2000
 90
        0
280
     0
281
     0
  0
CLASS
  1
LONG_TRANSACTION
  2
AcDbLongTransaction
  3
AutoCAD 2000
 90
        0
280
     0
281
     0
  0
CLASS
  1
LWPOLYLINE
  2
AcDbPolyline
  3
"AutoCAD"
 90
        0
280
     0
281
     1
  0
CLASS
  1
HATCH
  2
AcDbHatch
  3
"ACAD_SEDONA"
 90
        0
280
     0
281
     1
  0
CLASS
  1
XRECORD
  2
AcDbXrecord
  3
"<Built In>"
 90
        0
280
     0
281
     0
  0
ENDSEC
  0
SECTION
  2
TABLES
  0
TABLE
  2
VPORT
  5
8
100
AcDbSymbolTable
 70
     2
  0
VPORT
  5
105C
100
AcDbSymbolTableRecord
100
AcDbViewportTableRecord
  2
*ACTIVE
 70
     0
 10
0.0
 20
0.0
 11
1.0
 21
1.0
 12
206.107999
 22
148.5
 13
0.0
 23
0.0
 14
10.0
 24
10.0
 15
10.0
 25
10.0
 16
0.0
 26
0.0
 36
1.0
 17
0.0
 27
0.0
 37
0.0
 40
299.661649
 41
1.434944
 42
50.0
 43
0.0
 44
0.0
 50
0.0
 51
0.0
 71
     0
 72
   100
 73
     1
 74
     0
 75
     0
 76
     0
 77
     0
 78
     0
  0
ENDTAB
  0
TABLE
  2
LTYPE
  5
5
100
AcDbSymbolTable
 70
     3
  0
LTYPE
  5
12
100
AcDbSymbolTableRecord
100
AcDbLinetypeTableRecord
  2
BYBLOCK
 70
     0
  3

 72
    65
 73
     0
 40
0.0
  0
LTYPE
  5
13
100
AcDbSymbolTableRecord
100
AcDbLinetypeTableRecord
  2
BYLAYER
 70
     0
  3

 72
    65
 73
     0
 40
0.0
  0
LTYPE
  5
14
100
AcDbSymbolTableRecord
100
AcDbLinetypeTableRecord
  2
CONTINUOUS
 70
     0
  3
Solid line
 72
    65
 73
     0
 40
0.0
  0
LTYPE
  5
11A
100
AcDbSymbolTableRecord
100
AcDbLinetypeTableRecord
  2
CENTER
 70
     0
  3
Center ____ _ ____ _ ____ _ ____ _ ____ _ ____
 72
    65
 73
     4
 40
50.8
 49
31.75
 74
     0
 49
-6.35
 74
     0
 49
6.35
 74
     0
 49
-6.35
 74
     0
  0
LTYPE
  5
11B
100
AcDbSymbolTableRecord
100
AcDbLinetypeTableRecord
  2
HIDDEN
 70
     0
  3
Hidden __ __ __ __ __ __ __ __ __ __ __ __ __ _
 72
    65
 73
     2
 40
9.525
 49
6.35
 74
     0
 49
-3.175
 74
     0
  0
ENDTAB
  0
TABLE
  2
LAYER
  5
2
100
AcDbSymbolTable
 70
     6
  0
LAYER
  5
E
100
AcDbSymbolTableRecord
100
AcDbLayerTableRecord
  2
0
 70
     0
 62
     7
  6
CONTINUOUS
  0
LAYER
  5
37
100
AcDbSymbolTableRecord
100
AcDbLayerTableRecord
  2
図枠
 70
     0
 62
     7
  6
CONTINUOUS
  0
LAYER
  5
38
100
AcDbSymbolTableRecord
100
AcDbLayerTableRecord
  2
図枠部品表
 70
     0
 62
     7
  6
CONTINUOUS
  0
LAYER
  5
215
100
AcDbSymbolTableRecord
100
AcDbLayerTableRecord
  2
CENTER
 70
     0
 62
     2
  6
CENTER
  0
LAYER
  5
216
100
AcDbSymbolTableRecord
100
AcDbLayerTableRecord
  2
DIM
 70
     0
 62
     4
  6
CONTINUOUS
  0
LAYER
  5
21F
100
AcDbSymbolTableRecord
100
AcDbLayerTableRecord
  2
DEFPOINTS
 70
     0
 62
     7
  6
CONTINUOUS
  0
ENDTAB
  0
TABLE
  2
STYLE
  5
3
100
AcDbSymbolTable
 70
     3
  0
STYLE
  5
F
100
AcDbSymbolTableRecord
100
AcDbTextStyleTableRecord
  2
STANDARD
 70
     0
 40
0.0
 41
1.0
 50
0.0
 71
     0
 42
2.5
  3
txt
  4

  0
STYLE
  5
39
100
AcDbSymbolTableRecord
100
AcDbTextStyleTableRecord
  2
BIGFONT
 70
     0
 40
0.0
 41
1.0
 50
0.0
 71
     0
 42
10.0
  3
txt.shx
  4
bigfont.shx
  0
STYLE
  5
3B
100
AcDbSymbolTableRecord
100
AcDbTextStyleTableRecord
  2
KANJI
 70
     0
 40
0.0
 41
1.0
 50
0.0
 71
     0
 42
3.0
  3
TXT
  4
BIGFONT
  0
ENDTAB
  0
TABLE
  2
VIEW
  5
6
100
AcDbSymbolTable
 70
     0
  0
ENDTAB
  0
TABLE
  2
UCS
  5
7
100
AcDbSymbolTable
 70
     0
  0
ENDTAB
  0
TABLE
  2
APPID
  5
9
100
AcDbSymbolTable
 70
    34
  0
APPID
  5
10
100
AcDbSymbolTableRecord
100
AcDbRegAppTableRecord
  2
ACAD
 70
     0
  0
APPID
  5
24
100
AcDbSymbolTableRecord
100
AcDbRegAppTableRecord
  2
CONTENTTABDATA
 70
     0
  0
APPID
  5
25
100
AcDbSymbolTableRecord
100
AcDbRegAppTableRecord
  2
CONTENTCURRENTTAB
 70
     0
  0
APPID
  5
422
100
AcDbSymbolTableRecord
100
AcDbRegAppTableRecord
  2
CONTENTBLOCKDESCRIPTION
 70
     0
  0
APPID
  5
F47
100
AcDbSymbolTableRecord
100
AcDbRegAppTableRecord
  2
MCAD_NO_VIS
 70
     0
  0
APPID
  5
F48
100
AcDbSymbolTableRecord
100
AcDbRegAppTableRecord
  2
ACAD_TEMP_GRAPHIC
 70
     0
  0
APPID
  5
F49
100
AcDbSymbolTableRecord
100
AcDbRegAppTableRecord
  2
GEVID966397200
 70
     0
  0
APPID
  5
F4A
100
AcDbSymbolTableRecord
100
AcDbRegAppTableRecord
  2
GEVDC
 70
     0
  0
APPID
  5
F4B
100
AcDbSymbolTableRecord
100
AcDbRegAppTableRecord
  2
GEVCON
 70
     0
  0
APPID
  5
F4C
100
AcDbSymbolTableRecord
100
AcDbRegAppTableRecord
  2
GEVID966397201
 70
     0
  0
APPID
  5
F4D
100
AcDbSymbolTableRecord
100
AcDbRegAppTableRecord
  2
GEVID966397202
 70
     0
  0
APPID
  5
F4E
100
AcDbSymbolTableRecord
100
AcDbRegAppTableRecord
  2
GEVID966397203
 70
     0
  0
APPID
  5
F4F
100
AcDbSymbolTableRecord
100
AcDbRegAppTableRecord
  2
GEVID966397204
 70
     0
  0
APPID
  5
F50
100
AcDbSymbolTableRecord
100
AcDbRegAppTableRecord
  2
GEVID966397205
 70
     0
  0
APPID
  5
F51
100
AcDbSymbolTableRecord
100
AcDbRegAppTableRecord
  2
GEVID966397206
 70
     0
  0
APPID
  5
F52
100
AcDbSymbolTableRecord
100
AcDbRegAppTableRecord
  2
GENIUS_GENBH_13
 70
     0
  0
APPID
  5
F53
100
AcDbSymbolTableRecord
100
AcDbRegAppTableRecord
  2
GENIUS_GENODEF_13
 70
     0
  0
APPID
  5
F54
100
AcDbSymbolTableRecord
100
AcDbRegAppTableRecord
  2
GENIUS_GENOBJ-NBEHI-BHF_13
 70
     0
  0
APPID
  5
F55
100
AcDbSymbolTableRecord
100
AcDbRegAppTableRecord
  2
GENIUS_GENOENT_13
 70
     0
  0
APPID
  5
F56
100
AcDbSymbolTableRecord
100
AcDbRegAppTableRecord
  2
GENIUS_GENOREF_13
 70
     0
  0
APPID
  5
F57
100
AcDbSymbolTableRecord
100
AcDbRegAppTableRecord
  2
GENIUS_GENOLIS_13
 70
     0
  0
APPID
  5
F58
100
AcDbSymbolTableRecord
100
AcDbRegAppTableRecord
  2
GENIUS_GENOBJ-NBEHI-BHB_13
 70
     0
  0
APPID
  5
F59
100
AcDbSymbolTableRecord
100
AcDbRegAppTableRecord
  2
GEVID966397207
 70
     0
  0
APPID
  5
F5A
100
AcDbSymbolTableRecord
100
AcDbRegAppTableRecord
  2
GENIUS_GENOBJ-F-SCPASSM_13
 70
     0
  0
APPID
  5
F5B
100
AcDbSymbolTableRecord
100
AcDbRegAppTableRecord
  2
GENIUS_GENDTOL_13
 70
     0
  0
APPID
  5
F5C
100
AcDbSymbolTableRecord
100
AcDbRegAppTableRecord
  2
GEVID966521051
 70
     0
  0
APPID
  5
F5D
100
AcDbSymbolTableRecord
100
AcDbRegAppTableRecord
  2
GEVID966521052
 70
     0
  0
APPID
  5
F5E
100
AcDbSymbolTableRecord
100
AcDbRegAppTableRecord
  2
GEVID966521054
 70
     0
  0
APPID
  5
F5F
100
AcDbSymbolTableRecord
100
AcDbRegAppTableRecord
  2
GEVID966521055
 70
     0
  0
APPID
  5
F60
100
AcDbSymbolTableRecord
100
AcDbRegAppTableRecord
  2
GEVID966521056
 70
     0
  0
APPID
  5
F61
100
AcDbSymbolTableRecord
100
AcDbRegAppTableRecord
  2
GEVID966521057
 70
     0
  0
APPID
  5
F62
100
AcDbSymbolTableRecord
100
AcDbRegAppTableRecord
  2
GEVID966521058
 70
     0
  0
APPID
  5
F63
100
AcDbSymbolTableRecord
100
AcDbRegAppTableRecord
  2
GEVID966521059
 70
     0
  0
APPID
  5
1045
100
AcDbSymbolTableRecord
100
AcDbRegAppTableRecord
  2
ADE
 70
     0
  0
ENDTAB
  0
TABLE
  2
DIMSTYLE
  5
A
100
AcDbSymbolTable
 70
     1
  0
DIMSTYLE
105
35
100
AcDbSymbolTableRecord
100
AcDbDimStyleTableRecord
  2
STANDARD_WS
 70
     0
  3

  4

  5

  6

  7

 40
1.0
 41
2.5
 42
0.625
 43
3.75
 44
1.25
 45
0.0
 46
0.0
 47
0.0
 48
0.0
140
2.5
141
2.5
142
0.0
143
0.0394
144
1.0
145
0.0
146
1.0
147
0.625
 71
     0
 72
     0
 73
     0
 74
     0
 75
     0
 76
     0
 77
     1
 78
     8
170
     0
171
     4
172
     1
173
     0
174
     0
175
     0
176
     0
177
     0
178
     0
270
     2
271
     4
272
     4
273
     8
274
     4
340
F
275
     0
280
     0
281
     0
282
     0
283
     1
284
     0
285
     0
286
     0
287
     3
288
     0
  0
ENDTAB
  0
TABLE
  2
BLOCK_RECORD
  5
1
100
AcDbSymbolTable
 70
    12
  0
BLOCK_RECORD
  5
18
102
{ACAD_XDICTIONARY
360
104A
102
}
100
AcDbSymbolTableRecord
100
AcDbBlockTableRecord
  2
*MODEL_SPACE
  0
BLOCK_RECORD
  5
15
102
{ACAD_XDICTIONARY
360
1048
102
}
100
AcDbSymbolTableRecord
100
AcDbBlockTableRecord
  2
*PAPER_SPACE
  0
BLOCK_RECORD
  5
F2A
100
AcDbSymbolTableRecord
100
AcDbBlockTableRecord
  2
_OPEN30
  0
ENDTAB
  0
ENDSEC
  0
SECTION
  2
BLOCKS
  0
BLOCK
  5
19
100
AcDbEntity
  8
0
100
AcDbBlockBegin
  2
*MODEL_SPACE
 70
     2
 10
0.0
 20
0.0
 30
0.0
  3
*MODEL_SPACE
  1

  0
ENDBLK
  5
1A
100
AcDbEntity
  8
0
100
AcDbBlockEnd
  0
BLOCK
  5
16
100
AcDbEntity
 67
     1
  8
0
100
AcDbBlockBegin
  2
*PAPER_SPACE
 70
     0
 10
0.0
 20
0.0
 30
0.0
  3
*PAPER_SPACE
  1

  0
ENDBLK
  5
17
100
AcDbEntity
 67
     1
  8
0
100
AcDbBlockEnd
  0
BLOCK
  5
F2E
100
AcDbEntity
  8
0
100
AcDbBlockBegin
  2
_OPEN30
 70
     0
 10
0.0
 20
0.0
 30
0.0
  3
_OPEN30
  1

  0
LINE
  5
F2B
100
AcDbEntity
  8
0
 62
     0
100
AcDbLine
 10
-1.0
 20
0.267949
 30
0.0
 11
0.0
 21
0.0
 31
0.0
  0
LINE
  5
F2C
100
AcDbEntity
  8
0
 62
     0
100
AcDbLine
 10
0.0
 20
0.0
 30
0.0
 11
-1.0
 21
-0.267949
 31
0.0
  0
LINE
  5
F2D
100
AcDbEntity
  8
0
 62
     0
100
AcDbLine
 10
0.0
 20
0.0
 30
0.0
 11
-1.0
 21
0.0
 31
0.0
  0
ENDBLK
  5
F2F
100
AcDbEntity
  8
0
100
AcDbBlockEnd
  0
ENDSEC
  0
SECTION
  2
ENTITIES
  0
TEXT
  5
3E9
100
AcDbEntity
  8
図枠部品表
 62
     3
100
AcDbText
 10
403.65269
 20
422.521663
 30
0.0
 40
2.4325
  1

 41
0.8
  7
KANJI
 72
     1
 11
403.65269
 21
423.737913
 31
0.0
100
AcDbText
 73
     2
  0
TEXT
  5
A9F
100
AcDbEntity
  8
図枠
 62
     7
100
AcDbText
 10
162.933452
 20
10.11536
 30
0.0
 40
2.6
  1

  7
KANJI
 72
     1
 11
162.933452
 21
11.41536
 31
0.0
100
AcDbText
 73
     2
  0
LINE
  5
AFC
100
AcDbEntity
  8
CENTER
100
AcDbLine
 10
110.974202
 20
146.072955
 30
0.0
 11
162.980019
 21
146.072955
 31
0.0
  0
LINE
  5
AFD
100
AcDbEntity
  8
CENTER
100
AcDbLine
 10
136.97711
 20
116.049017
 30
0.0
 11
136.97711
 21
172.075864
 31
0.0
  0
ARC
  5
AFF
100
AcDbEntity
  8
0
100
AcDbCircle
 10
136.97711
 20
146.072955
 30
0.0
 40
10.0
100
AcDbArc
 50
94.301222
 51
265.698778
  0
ARC
  5
B01
100
AcDbEntity
  8
0
100
AcDbCircle
 10
136.97711
 20
146.072955
 30
0.0
 40
22.5
100
AcDbArc
 50
271.910213
 51
88.089787
  0
ARC
  5
B02
100
AcDbEntity
  8
0
100
AcDbCircle
 10
136.97711
 20
146.072955
 30
0.0
 40
22.0
100
AcDbArc
 50
271.953644
 51
88.046356
  0
ARC
  5
B03
100
AcDbEntity
  8
0
100
AcDbCircle
 10
136.97711
 20
146.072955
 30
0.0
 40
10.5
100
AcDbArc
 50
94.096044
 51
265.903956
  0
LINE
  5
B05
100
AcDbEntity
  8
0
100
AcDbLine
 10
137.72711
 20
168.560452
 30
0.0
 11
137.72711
 21
156.04479
 31
0.0
  0
LINE
  5
B07
100
AcDbEntity
  8
0
100
AcDbLine
 10
136.22711
 20
123.585459
 30
0.0
 11
136.22711
 21
136.10112
 31
0.0
  0
ARC
  5
B0A
100
AcDbEntity
  8
0
100
AcDbCircle
 10
136.97711
 20
146.072955
 30
0.0
 40
10.0
100
AcDbArc
 50
274.301222
 51
85.698778
  0
ARC
  5
B0B
100
AcDbEntity
  8
0
100
AcDbCircle
 10
136.97711
 20
146.072955
 30
0.0
 40
10.5
100
AcDbArc
 50
274.096044
 51
85.903956
  0
LINE
  5
B0C
100
AcDbEntity
  8
0
100
AcDbLine
 10
137.72711
 20
136.10112
 30
0.0
 11
137.72711
 21
123.585459
 31
0.0
  0
LINE
  5
B0D
100
AcDbEntity
  8
0
100
AcDbLine
 10
136.22711
 20
156.04479
 30
0.0
 11
136.22711
 21
168.560452
 31
0.0
  0
LINE
  5
B10
100
AcDbEntity
  8
CENTER
100
AcDbLine
 10
117.744841
 20
131.072955
 30
0.0
 11
156.20938
 21
131.072955
 31
0.0
  0
LINE
  5
B25
100
AcDbEntity
  8
CENTER
100
AcDbLine
 10
16.215998
 20
146.072955
 30
0.0
 11
-7.784002
 21
146.072955
 31
0.0
  0
LINE
  5
B27
100
AcDbEntity
  8
CENTER
100
AcDbLine
 10
70.009229
 20
140.322185
 30
0.0
 11
70.009229
 21
121.823725
 31
0.0
  0
LINE
  5
B2A
100
AcDbEntity
  8
0
100
AcDbLine
 10
77.009229
 20
168.572955
 30
0.0
 11
63.009229
 21
168.572955
 31
0.0
  0
LINE
  5
B2B
100
AcDbEntity
  8
0
100
AcDbLine
 10
77.009229
 20
123.572955
 30
0.0
 11
63.009229
 21
123.572955
 31
0.0
  0
LINE
  5
B2D
100
AcDbEntity
  8
0
100
AcDbLine
 10
62.509229
 20
168.072955
 30
0.0
 11
62.509229
 21
124.072955
 31
0.0
  0
LINE
  5
B2F
100
AcDbEntity
  8
0
100
AcDbLine
 10
77.509229
 20
124.072955
 30
0.0
 11
77.509229
 21
168.072955
 31
0.0
  0
LINE
  5
B30
100
AcDbEntity
  8
0
100
AcDbLine
 10
77.509229
 20
168.072955
 30
0.0
 11
77.009229
 21
168.572955
 31
0.0
  0
LINE
  5
B31
100
AcDbEntity
  8
0
100
AcDbLine
 10
63.009229
 20
168.572955
 30
0.0
 11
62.509229
 21
168.072955
 31
0.0
  0
LINE
  5
B34
100
AcDbEntity
  8
0
100
AcDbLine
 10
77.509229
 20
124.072955
 30
0.0
 11
77.009229
 21
123.572955
 31
0.0
  0
LINE
  5
B35
100
AcDbEntity
  8
0
100
AcDbLine
 10
62.509229
 20
124.072955
 30
0.0
 11
63.009229
 21
123.572955
 31
0.0
  0
LINE
  5
B36
100
AcDbEntity
  8
0
100
AcDbLine
 10
77.009229
 20
168.572955
 30
0.0
 11
77.009229
 21
123.572955
 31
0.0
  0
LINE
  5
B37
100
AcDbEntity
  8
0
100
AcDbLine
 10
63.009229
 20
168.572955
 30
0.0
 11
63.009229
 21
123.572955
 31
0.0
  0
LINE
  5
B3C
100
AcDbEntity
  8
CENTER
100
AcDbLine
 10
79.25846
 20
131.072955
 30
0.0
 11
60.759999
 21
131.072955
 31
0.0
  0
LINE
  5
B54
100
AcDbEntity
  8
0
  6
HIDDEN
100
AcDbLine
 10
77.009229
 20
156.072955
 30
0.0
 11
63.009229
 21
156.072955
 31
0.0
  0
LINE
  5
B56
100
AcDbEntity
  8
0
  6
HIDDEN
100
AcDbLine
 10
63.009229
 20
136.072955
 30
0.0
 11
77.009229
 21
136.072955
 31
0.0
  0
LINE
  5
B65
100
AcDbEntity
  8
0
100
AcDbLine
 10
63.009229
 20
156.072955
 30
0.0
 11
62.509229
 21
156.572955
 31
0.0
  0
LINE
  5
B66
100
AcDbEntity
  8
0
100
AcDbLine
 10
77.009229
 20
156.072955
 30
0.0
 11
77.509229
 21
156.572955
 31
0.0
  0
LINE
  5
B67
100
AcDbEntity
  8
0
100
AcDbLine
 10
63.009229
 20
136.072955
 30
0.0
 11
62.509229
 21
135.572955
 31
0.0
  0
LINE
  5
B68
100
AcDbEntity
  8
0
100
AcDbLine
 10
77.009229
 20
136.072955
 30
0.0
 11
77.509229
 21
135.572955
 31
0.0
  0
ARC
  5
DDA
100
AcDbEntity
  8
0
100
AcDbCircle
 10
136.97711
 20
146.072955
 30
0.0
 40
22.0
100
AcDbArc
 50
91.953644
 51
268.046356
  0
ARC
  5
DDB
100
AcDbEntity
  8
0
100
AcDbCircle
 10
136.97711
 20
146.072955
 30
0.0
 40
22.5
100
AcDbArc
 50
91.910213
 51
268.089787
  0
LINE
  5
DDC
100
AcDbEntity
  8
0
  6
HIDDEN
 62
     3
100
AcDbLine
 10
148.36366
 20
164.072955
 30
0.0
 11
150.47711
 21
164.072955
 31
0.0
  0
LINE
  5
DDF
100
AcDbEntity
  8
0
  6
HIDDEN
 62
     3
100
AcDbLine
 10
148.36366
 20
158.072955
 30
0.0
 11
156.009977
 21
158.072955
 31
0.0
  0
LINE
  5
DE0
100
AcDbEntity
  8
CENTER
100
AcDbLine
 10
117.744841
 20
161.072955
 30
0.0
 11
156.20938
 21
161.072955
 31
0.0
  0
LINE
  5
DE1
100
AcDbEntity
  8
0
  6
HIDDEN
100
AcDbLine
 10
116.35552
 20
155.072955
 30
0.0
 11
128.97711
 21
155.072955
 31
0.0
  0
LINE
  5
DE2
100
AcDbEntity
  8
0
  6
HIDDEN
100
AcDbLine
 10
128.97711
 20
167.102696
 30
0.0
 11
128.97711
 21
155.072955
 31
0.0
  0
LINE
  5
DE3
100
AcDbEntity
  8
0
  6
HIDDEN
100
AcDbLine
 10
128.97711
 20
164.572955
 30
0.0
 11
136.22711
 21
164.572955
 31
0.0
  0
LINE
  5
DE4
100
AcDbEntity
  8
0
  6
HIDDEN
100
AcDbLine
 10
128.97711
 20
157.572955
 30
0.0
 11
136.22711
 21
157.572955
 31
0.0
  0
LINE
  5
E2E
100
AcDbEntity
  8
CENTER
100
AcDbLine
 10
79.25846
 20
161.072955
 30
0.0
 11
60.759999
 21
161.072955
 31
0.0
  0
ARC
  5
E33
100
AcDbEntity
  8
0
100
AcDbCircle
 10
70.009229
 20
161.072955
 30
0.0
 40
6.0
100
AcDbArc
 50
180.0
 51
0.0
  0
LINE
  5
E34
100
AcDbEntity
  8
0
100
AcDbLine
 10
76.009229
 20
161.072955
 30
0.0
 11
76.009229
 21
167.102696
 31
0.0
  0
LINE
  5
E35
100
AcDbEntity
  8
CENTER
100
AcDbLine
 10
70.009229
 20
151.823725
 30
0.0
 11
70.009229
 21
170.322185
 31
0.0
  0
LINE
  5
E36
100
AcDbEntity
  8
0
100
AcDbLine
 10
76.009229
 20
167.102696
 30
0.0
 11
64.009229
 21
167.102696
 31
0.0
  0
LINE
  5
E37
100
AcDbEntity
  8
0
100
AcDbLine
 10
64.009229
 20
161.072955
 30
0.0
 11
64.009229
 21
167.102696
 31
0.0
  0
LINE
  5
F08
100
AcDbEntity
  8
0
100
AcDbLine
 10
10.39026
 20
124.072955
 30
0.0
 11
10.39026
 21
135.572955
 31
0.0
  0
LINE
  5
F09
100
AcDbEntity
  8
0
100
AcDbLine
 10
-4.60974
 20
168.072955
 30
0.0
 11
-4.60974
 21
156.572955
 31
0.0
  0
LINE
  5
F0A
100
AcDbEntity
  8
CENTER
100
AcDbLine
 10
12.139491
 20
131.072955
 30
0.0
 11
-6.35897
 21
131.072955
 31
0.0
  0
LINE
  5
F0D
100
AcDbEntity
  8
CENTER
100
AcDbLine
 10
2.89026
 20
140.322185
 30
0.0
 11
2.89026
 21
121.823725
 31
0.0
  0
LINE
  5
F0F
100
AcDbEntity
  8
0
100
AcDbLine
 10
9.89026
 20
123.572955
 30
0.0
 11
-4.10974
 21
123.572955
 31
0.0
  0
LINE
  5
F10
100
AcDbEntity
  8
0
100
AcDbLine
 10
-4.60974
 20
124.072955
 30
0.0
 11
-4.10974
 21
123.572955
 31
0.0
  0
LINE
  5
F11
100
AcDbEntity
  8
0
100
AcDbLine
 10
10.39026
 20
124.072955
 30
0.0
 11
9.89026
 21
123.572955
 31
0.0
  0
CIRCLE
  5
F13
100
AcDbEntity
  8
0
100
AcDbCircle
 10
2.89026
 20
131.072955
 30
0.0
 40
3.5
  0
CIRCLE
  5
F14
100
AcDbEntity
  8
0
100
AcDbCircle
 10
2.89026
 20
131.072955
 30
0.0
 40
3.5
  0
CIRCLE
  5
F15
100
AcDbEntity
  8
0
100
AcDbCircle
 10
2.89026
 20
131.072955
 30
0.0
 40
3.0
  0
CIRCLE
  5
F16
100
AcDbEntity
  8
0
 62
     3
100
AcDbCircle
 10
2.89026
 20
131.072955
 30
0.0
 40
2.4585
  0
LINE
  5
F17
100
AcDbEntity
  8
0
100
AcDbLine
 10
-4.10974
 20
136.072955
 30
0.0
 11
9.89026
 21
136.072955
 31
0.0
  0
LINE
  5
F18
100
AcDbEntity
  8
0
100
AcDbLine
 10
-4.10974
 20
136.072955
 30
0.0
 11
-4.60974
 21
135.572955
 31
0.0
  0
LINE
  5
F19
100
AcDbEntity
  8
0
100
AcDbLine
 10
9.89026
 20
136.072955
 30
0.0
 11
10.39026
 21
135.572955
 31
0.0
  0
LINE
  5
F1A
100
AcDbEntity
  8
CENTER
100
AcDbLine
 10
12.139491
 20
161.072955
 30
0.0
 11
-6.35897
 21
161.072955
 31
0.0
  0
CIRCLE
  5
F1B
100
AcDbEntity
  8
0
 62
     3
100
AcDbCircle
 10
2.89026
 20
161.072955
 30
0.0
 40
2.4585
  0
CIRCLE
  5
F1C
100
AcDbEntity
  8
0
100
AcDbCircle
 10
2.89026
 20
161.072955
 30
0.0
 40
3.0
  0
CIRCLE
  5
F1D
100
AcDbEntity
  8
0
100
AcDbCircle
 10
2.89026
 20
161.072955
 30
0.0
 40
3.5
  0
CIRCLE
  5
F1E
100
AcDbEntity
  8
0
100
AcDbCircle
 10
2.89026
 20
161.072955
 30
0.0
 40
3.5
  0
LINE
  5
F1F
100
AcDbEntity
  8
CENTER
100
AcDbLine
 10
2.89026
 20
151.823725
 30
0.0
 11
2.89026
 21
170.322185
 31
0.0
  0
LINE
  5
F21
100
AcDbEntity
  8
0
100
AcDbLine
 10
9.89026
 20
156.072955
 30
0.0
 11
-4.10974
 21
156.072955
 31
0.0
  0
LINE
  5
F22
100
AcDbEntity
  8
0
100
AcDbLine
 10
-4.10974
 20
156.072955
 30
0.0
 11
-4.60974
 21
156.572955
 31
0.0
  0
LINE
  5
F23
100
AcDbEntity
  8
0
100
AcDbLine
 10
9.89026
 20
156.072955
 30
0.0
 11
10.39026
 21
156.572955
 31
0.0
  0
LINE
  5
F25
100
AcDbEntity
  8
0
100
AcDbLine
 10
9.89026
 20
168.572955
 30
0.0
 11
-4.10974
 21
168.572955
 31
0.0
  0
LINE
  5
F27
100
AcDbEntity
  8
0
100
AcDbLine
 10
-4.10974
 20
168.572955
 30
0.0
 11
-4.60974
 21
168.072955
 31
0.0
  0
LINE
  5
F29
100
AcDbEntity
  8
0
100
AcDbLine
 10
10.39026
 20
168.072955
 30
0.0
 11
9.89026
 21
168.572955
 31
0.0
  0
POINT
  5
FA5
100
AcDbEntity
  8
0
 60
     1
100
AcDbPoint
 10
154.832801
 20
207.432329
 30
0.0
1001
GENIUS_GENOBJ-NBEHI-BHF_13
1002
{
1000
OWNER
1000
GENBEHI
1002
}
1001
GENIUS_GENOENT_13
1002
{
1000
MYREF
1005
FA5
1002
}
1002
{
1000
GRP
1005
0
1002
}
1001
GENIUS_GENOLIS_13
1002
{
1000
ENT
1005
0
1002
}
1001
GENIUS_GENBH_13
1002
{
1000
OIUMAP
1000
OIU
1002
}
1002
{
1000
FLAGS
1070
    32
1002
}
1002
{
1000
BGO
1005
FA6
1002
}
1001
GENIUS_GENODEF_13
1002
{
1000
HIER
1070
     1
1002
}
1002
{
1000
MANEDIT
1070
     1
1002
}
1002
{
1000
NOSEL
1070
     1
1002
}
1002
{
1000
BEHIND
1070
     0
1002
}
1002
{
1000
REACTOR
1002
}
  0
POINT
  5
FA6
100
AcDbEntity
  8
0
 60
     1
100
AcDbPoint
 10
154.832801
 20
207.432329
 30
0.0
1001
GENIUS_GENOBJ-NBEHI-BHB_13
1002
{
1000
OWNER
1000
GENBEHI
1002
}
1001
GENIUS_GENOENT_13
1002
{
1000
MYREF
1005
FA6
1002
}
1002
{
1000
GRP
1005
0
1002
}
1001
GENIUS_GENOLIS_13
1002
{
1000
ENT
1002
}
1001
GENIUS_GENODEF_13
1002
{
1000
HIER
1070
     1
1002
}
1002
{
1000
MANEDIT
1070
     0
1002
}
1002
{
1000
NOSEL
1070
     1
1002
}
1002
{
1000
BEHIND
1070
     0
1002
}
1002
{
1000
REACTOR
1002
}
1002
{
1000
OTHER
1070
     1
1002
}
1001
GENIUS_GENBH_13
1002
{
1000
FGO
1005
FA5
1002
}
  0
POINT
  5
FA7
100
AcDbEntity
  8
0
 60
     1
100
AcDbPoint
 10
154.832801
 20
207.432329
 30
0.0
1001
GENIUS_GENOBJ-NBEHI-BHF_13
1002
{
1000
OWNER
1000
GENBEHI
1002
}
1001
GENIUS_GENOENT_13
1002
{
1000
MYREF
1005
FA7
1002
}
1002
{
1000
GRP
1005
0
1002
}
1001
GENIUS_GENOLIS_13
1002
{
1000
ENT
1005
0
1002
}
1001
GENIUS_GENODEF_13
1002
{
1000
HIER
1070
     1
1002
}
1002
{
1000
MANEDIT
1070
     0
1002
}
1002
{
1000
NOSEL
1070
     1
1002
}
1002
{
1000
BEHIND
1070
     0
1002
}
1002
{
1000
REACTOR
1002
}
1001
GENIUS_GENBH_13
1002
{
1000
OIUMAP
1000
OIU
1002
}
1002
{
1000
FLAGS
1070
    32
1002
}
1002
{
1000
BGO
1005
FA8
1002
}
  0
POINT
  5
FA8
100
AcDbEntity
  8
0
 60
     1
100
AcDbPoint
 10
154.832801
 20
207.432329
 30
0.0
1001
GENIUS_GENOBJ-NBEHI-BHB_13
1002
{
1000
OWNER
1000
GENBEHI
1002
}
1001
GENIUS_GENOENT_13
1002
{
1000
MYREF
1005
FA8
1002
}
1002
{
1000
GRP
1005
0
1002
}
1001
GENIUS_GENOLIS_13
1002
{
1000
ENT
1002
}
1001
GENIUS_GENODEF_13
1002
{
1000
HIER
1070
     1
1002
}
1002
{
1000
MANEDIT
1070
     0
1002
}
1002
{
1000
NOSEL
1070
     1
1002
}
1002
{
1000
BEHIND
1070
     0
1002
}
1002
{
1000
REACTOR
1002
}
1002
{
1000
OTHER
1070
     1
1002
}
1001
GENIUS_GENBH_13
1002
{
1000
FGO
1005
FA7
1002
}
  0
POINT
  5
FA9
100
AcDbEntity
  8
0
 60
     1
100
AcDbPoint
 10
154.832801
 20
207.432329
 30
0.0
1001
GENIUS_GENOBJ-NBEHI-BHF_13
1002
{
1000
OWNER
1000
GENBEHI
1002
}
1001
GENIUS_GENOENT_13
1002
{
1000
MYREF
1005
FA9
1002
}
1002
{
1000
GRP
1005
0
1002
}
1001
GENIUS_GENOLIS_13
1002
{
1000
ENT
1005
0
1002
}
1001
GENIUS_GENBH_13
1002
{
1000
OIUMAP
1000
OIU
1002
}
1002
{
1000
FLAGS
1070
    32
1002
}
1002
{
1000
BGO
1005
FAA
1002
}
1001
GENIUS_GENODEF_13
1002
{
1000
HIER
1070
     1
1002
}
1002
{
1000
MANEDIT
1070
     1
1002
}
1002
{
1000
NOSEL
1070
     1
1002
}
1002
{
1000
BEHIND
1070
     0
1002
}
1002
{
1000
REACTOR
1002
}
  0
POINT
  5
FAA
100
AcDbEntity
  8
0
 60
     1
100
AcDbPoint
 10
154.832801
 20
207.432329
 30
0.0
1001
GENIUS_GENOBJ-NBEHI-BHB_13
1002
{
1000
OWNER
1000
GENBEHI
1002
}
1001
GENIUS_GENOENT_13
1002
{
1000
MYREF
1005
FAA
1002
}
1002
{
1000
GRP
1005
0
1002
}
1001
GENIUS_GENOLIS_13
1002
{
1000
ENT
1002
}
1001
GENIUS_GENODEF_13
1002
{
1000
HIER
1070
     1
1002
}
1002
{
1000
MANEDIT
1070
     0
1002
}
1002
{
1000
NOSEL
1070
     1
1002
}
1002
{
1000
BEHIND
1070
     0
1002
}
1002
{
1000
REACTOR
1002
}
1002
{
1000
OTHER
1070
     1
1002
}
1001
GENIUS_GENBH_13
1002
{
1000
FGO
1005
FA9
1002
}
  0
POINT
  5
FAB
100
AcDbEntity
  8
0
 60
     1
100
AcDbPoint
 10
154.832801
 20
207.432329
 30
0.0
1001
GENIUS_GENOBJ-F-SCPASSM_13
1002
{
1000
OWNER
1000
GEF
1002
}
1001
GENIUS_GENOENT_13
1002
{
1000
MYREF
1005
FAB
1002
}
1002
{
1000
GRP
1005
0
1002
}
1001
GENIUS_GENOLIS_13
1002
{
1000
ENT
1005
0
1005
0
1002
}
1001
GENIUS_GENODEF_13
1002
{
1000
HIER
1070
   200
1002
}
1002
{
1000
MANEDIT
1070
     1
1002
}
1002
{
1000
NOSEL
1070
     0
1002
}
1002
{
1000
BEHIND
1070
     0
1002
}
1002
{
1000
REACTOR
1002
}
  0
POINT
  5
FAC
100
AcDbEntity
  8
0
 60
     1
100
AcDbPoint
 10
154.832801
 20
207.432329
 30
0.0
1001
GENIUS_GENOBJ-NBEHI-BHF_13
1002
{
1000
OWNER
1000
GENBEHI
1002
}
1001
GENIUS_GENOENT_13
1002
{
1000
MYREF
1005
FAC
1002
}
1002
{
1000
GRP
1005
0
1002
}
1001
GENIUS_GENOLIS_13
1002
{
1000
ENT
1005
0
1002
}
1001
GENIUS_GENODEF_13
1002
{
1000
HIER
1070
     1
1002
}
1002
{
1000
MANEDIT
1070
     0
1002
}
1002
{
1000
NOSEL
1070
     1
1002
}
1002
{
1000
BEHIND
1070
     0
1002
}
1002
{
1000
REACTOR
1002
}
1001
GENIUS_GENBH_13
1002
{
1000
OIUMAP
1000
OIU
1002
}
1002
{
1000
FLAGS
1070
    32
1002
}
1002
{
1000
BGO
1005
FAD
1002
}
  0
POINT
  5
FAD
100
AcDbEntity
  8
0
 60
     1
100
AcDbPoint
 10
154.832801
 20
207.432329
 30
0.0
1001
GENIUS_GENOBJ-NBEHI-BHB_13
1002
{
1000
OWNER
1000
GENBEHI
1002
}
1001
GENIUS_GENOENT_13
1002
{
1000
MYREF
1005
FAD
1002
}
1002
{
1000
GRP
1005
0
1002
}
1001
GENIUS_GENOLIS_13
1002
{
1000
ENT
1002
}
1001
GENIUS_GENODEF_13
1002
{
1000
HIER
1070
     1
1002
}
1002
{
1000
MANEDIT
1070
     0
1002
}
1002
{
1000
NOSEL
1070
     1
1002
}
1002
{
1000
BEHIND
1070
     0
1002
}
1002
{
1000
REACTOR
1002
}
1002
{
1000
OTHER
1070
     1
1002
}
1001
GENIUS_GENBH_13
1002
{
1000
FGO
1005
FAC
1002
}
  0
POINT
  5
FAE
100
AcDbEntity
  8
0
 60
     1
100
AcDbPoint
 10
154.832801
 20
207.432329
 30
0.0
1001
GENIUS_GENOBJ-NBEHI-BHF_13
1002
{
1000
OWNER
1000
GENBEHI
1002
}
1001
GENIUS_GENOENT_13
1002
{
1000
MYREF
1005
FAE
1002
}
1002
{
1000
GRP
1005
0
1002
}
1001
GENIUS_GENOLIS_13
1002
{
1000
ENT
1005
0
1002
}
1001
GENIUS_GENBH_13
1002
{
1000
OIUMAP
1000
OIU
1002
}
1002
{
1000
FLAGS
1070
    32
1002
}
1002
{
1000
BGO
1005
FAF
1002
}
1001
GENIUS_GENODEF_13
1002
{
1000
HIER
1070
     1
1002
}
1002
{
1000
MANEDIT
1070
     1
1002
}
1002
{
1000
NOSEL
1070
     1
1002
}
1002
{
1000
BEHIND
1070
     0
1002
}
1002
{
1000
REACTOR
1002
}
  0
POINT
  5
FAF
100
AcDbEntity
  8
0
 60
     1
100
AcDbPoint
 10
154.832801
 20
207.432329
 30
0.0
1001
GENIUS_GENOBJ-NBEHI-BHB_13
1002
{
1000
OWNER
1000
GENBEHI
1002
}
1001
GENIUS_GENOENT_13
1002
{
1000
MYREF
1005
FAF
1002
}
1002
{
1000
GRP
1005
0
1002
}
1001
GENIUS_GENOLIS_13
1002
{
1000
ENT
1005
0
1002
}
1001
GENIUS_GENODEF_13
1002
{
1000
HIER
1070
     1
1002
}
1002
{
1000
MANEDIT
1070
     0
1002
}
1002
{
1000
NOSEL
1070
     1
1002
}
1002
{
1000
BEHIND
1070
     0
1002
}
1002
{
1000
REACTOR
1002
}
1002
{
1000
OTHER
1070
     1
1002
}
1001
GENIUS_GENBH_13
1002
{
1000
FGO
1005
FAE
1002
}
  0
POINT
  5
FB0
100
AcDbEntity
  8
0
 60
     1
100
AcDbPoint
 10
154.832801
 20
207.432329
 30
0.0
1001
GENIUS_GENOBJ-F-SCPASSM_13
1002
{
1000
OWNER
1000
GEF
1002
}
1001
GENIUS_GENOENT_13
1002
{
1000
MYREF
1005
FB0
1002
}
1002
{
1000
GRP
1005
0
1002
}
1001
GENIUS_GENOLIS_13
1002
{
1000
ENT
1005
0
1005
0
1002
}
1001
GENIUS_GENODEF_13
1002
{
1000
HIER
1070
   200
1002
}
1002
{
1000
MANEDIT
1070
     1
1002
}
1002
{
1000
NOSEL
1070
     0
1002
}
1002
{
1000
BEHIND
1070
     0
1002
}
1002
{
1000
REACTOR
1002
}
  0
POINT
  5
FB1
100
AcDbEntity
  8
0
 60
     1
100
AcDbPoint
 10
154.832801
 20
207.432329
 30
0.0
1001
GENIUS_GENOBJ-NBEHI-BHF_13
1002
{
1000
OWNER
1000
GENBEHI
1002
}
1001
GENIUS_GENOENT_13
1002
{
1000
MYREF
1005
FB1
1002
}
1002
{
1000
GRP
1005
0
1002
}
1001
GENIUS_GENOLIS_13
1002
{
1000
ENT
1005
0
1002
}
1001
GENIUS_GENODEF_13
1002
{
1000
HIER
1070
     1
1002
}
1002
{
1000
MANEDIT
1070
     0
1002
}
1002
{
1000
NOSEL
1070
     1
1002
}
1002
{
1000
BEHIND
1070
     0
1002
}
1002
{
1000
REACTOR
1002
}
1001
GENIUS_GENBH_13
1002
{
1000
OIUMAP
1000
OIU
1002
}
1002
{
1000
FLAGS
1070
    32
1002
}
1002
{
1000
BGO
1005
FB2
1002
}
  0
POINT
  5
FB2
100
AcDbEntity
  8
0
 60
     1
100
AcDbPoint
 10
154.832801
 20
207.432329
 30
0.0
1001
GENIUS_GENOBJ-NBEHI-BHB_13
1002
{
1000
OWNER
1000
GENBEHI
1002
}
1001
GENIUS_GENOENT_13
1002
{
1000
MYREF
1005
FB2
1002
}
1002
{
1000
GRP
1005
0
1002
}
1001
GENIUS_GENOLIS_13
1002
{
1000
ENT
1002
}
1001
GENIUS_GENODEF_13
1002
{
1000
HIER
1070
     1
1002
}
1002
{
1000
MANEDIT
1070
     0
1002
}
1002
{
1000
NOSEL
1070
     1
1002
}
1002
{
1000
BEHIND
1070
     0
1002
}
1002
{
1000
REACTOR
1002
}
1002
{
1000
OTHER
1070
     1
1002
}
1001
GENIUS_GENBH_13
1002
{
1000
FGO
1005
FB1
1002
}
  0
POINT
  5
FB3
100
AcDbEntity
  8
0
 60
     1
100
AcDbPoint
 10
154.832801
 20
207.432329
 30
0.0
1001
GENIUS_GENOBJ-NBEHI-BHF_13
1002
{
1000
OWNER
1000
GENBEHI
1002
}
1001
GENIUS_GENOENT_13
1002
{
1000
MYREF
1005
FB3
1002
}
1002
{
1000
GRP
1005
0
1002
}
1001
GENIUS_GENOLIS_13
1002
{
1000
ENT
1005
0
1002
}
1001
GENIUS_GENBH_13
1002
{
1000
OIUMAP
1000
OIU
1002
}
1002
{
1000
FLAGS
1070
    32
1002
}
1002
{
1000
BGO
1005
FB4
1002
}
1001
GENIUS_GENODEF_13
1002
{
1000
HIER
1070
     1
1002
}
1002
{
1000
MANEDIT
1070
     1
1002
}
1002
{
1000
NOSEL
1070
     1
1002
}
1002
{
1000
BEHIND
1070
     0
1002
}
1002
{
1000
REACTOR
1002
}
  0
POINT
  5
FB4
100
AcDbEntity
  8
0
 60
     1
100
AcDbPoint
 10
154.832801
 20
207.432329
 30
0.0
1001
GENIUS_GENOBJ-NBEHI-BHB_13
1002
{
1000
OWNER
1000
GENBEHI
1002
}
1001
GENIUS_GENOENT_13
1002
{
1000
MYREF
1005
FB4
1002
}
1002
{
1000
GRP
1005
0
1002
}
1001
GENIUS_GENOLIS_13
1002
{
1000
ENT
1005
0
1002
}
1001
GENIUS_GENODEF_13
1002
{
1000
HIER
1070
     1
1002
}
1002
{
1000
MANEDIT
1070
     0
1002
}
1002
{
1000
NOSEL
1070
     1
1002
}
1002
{
1000
BEHIND
1070
     0
1002
}
1002
{
1000
REACTOR
1002
}
1002
{
1000
OTHER
1070
     1
1002
}
1001
GENIUS_GENBH_13
1002
{
1000
FGO
1005
FB3
1002
}
  0
POINT
  5
FB5
100
AcDbEntity
  8
0
 60
     1
100
AcDbPoint
 10
154.832801
 20
207.432329
 30
0.0
1001
GENIUS_GENOBJ-F-SCPASSM_13
1002
{
1000
OWNER
1000
GEF
1002
}
1001
GENIUS_GENOENT_13
1002
{
1000
MYREF
1005
FB5
1002
}
1002
{
1000
GRP
1005
0
1002
}
1001
GENIUS_GENOLIS_13
1002
{
1000
ENT
1005
0
1005
0
1002
}
1001
GENIUS_GENODEF_13
1002
{
1000
HIER
1070
   200
1002
}
1002
{
1000
MANEDIT
1070
     1
1002
}
1002
{
1000
NOSEL
1070
     0
1002
}
1002
{
1000
BEHIND
1070
     0
1002
}
1002
{
1000
REACTOR
1002
}
  0
POINT
  5
FB6
100
AcDbEntity
  8
0
 60
     1
100
AcDbPoint
 10
154.832801
 20
207.432329
 30
0.0
1001
GENIUS_GENOBJ-NBEHI-BHF_13
1002
{
1000
OWNER
1000
GENBEHI
1002
}
1001
GENIUS_GENOENT_13
1002
{
1000
MYREF
1005
FB6
1002
}
1002
{
1000
GRP
1005
0
1002
}
1001
GENIUS_GENOLIS_13
1002
{
1000
ENT
1005
0
1002
}
1001
GENIUS_GENODEF_13
1002
{
1000
HIER
1070
     1
1002
}
1002
{
1000
MANEDIT
1070
     0
1002
}
1002
{
1000
NOSEL
1070
     1
1002
}
1002
{
1000
BEHIND
1070
     0
1002
}
1002
{
1000
REACTOR
1002
}
1001
GENIUS_GENBH_13
1002
{
1000
OIUMAP
1000
OIU
1002
}
1002
{
1000
FLAGS
1070
    32
1002
}
1002
{
1000
BGO
1005
FB7
1002
}
  0
POINT
  5
FB7
100
AcDbEntity
  8
0
 60
     1
100
AcDbPoint
 10
154.832801
 20
207.432329
 30
0.0
1001
GENIUS_GENOBJ-NBEHI-BHB_13
1002
{
1000
OWNER
1000
GENBEHI
1002
}
1001
GENIUS_GENOENT_13
1002
{
1000
MYREF
1005
FB7
1002
}
1002
{
1000
GRP
1005
0
1002
}
1001
GENIUS_GENOLIS_13
1002
{
1000
ENT
1002
}
1001
GENIUS_GENODEF_13
1002
{
1000
HIER
1070
     1
1002
}
1002
{
1000
MANEDIT
1070
     0
1002
}
1002
{
1000
NOSEL
1070
     1
1002
}
1002
{
1000
BEHIND
1070
     0
1002
}
1002
{
1000
REACTOR
1002
}
1002
{
1000
OTHER
1070
     1
1002
}
1001
GENIUS_GENBH_13
1002
{
1000
FGO
1005
FB6
1002
}
  0
POINT
  5
FB8
100
AcDbEntity
  8
0
 60
     1
100
AcDbPoint
 10
154.832801
 20
207.432329
 30
0.0
1001
GENIUS_GENOBJ-NBEHI-BHF_13
1002
{
1000
OWNER
1000
GENBEHI
1002
}
1001
GENIUS_GENOENT_13
1002
{
1000
MYREF
1005
FB8
1002
}
1002
{
1000
GRP
1005
0
1002
}
1001
GENIUS_GENOLIS_13
1002
{
1000
ENT
1005
0
1002
}
1001
GENIUS_GENBH_13
1002
{
1000
OIUMAP
1000
OIU
1002
}
1002
{
1000
FLAGS
1070
    32
1002
}
1002
{
1000
BGO
1005
FB9
1002
}
1001
GENIUS_GENODEF_13
1002
{
1000
HIER
1070
     1
1002
}
1002
{
1000
MANEDIT
1070
     1
1002
}
1002
{
1000
NOSEL
1070
     1
1002
}
1002
{
1000
BEHIND
1070
     0
1002
}
1002
{
1000
REACTOR
1002
}
  0
POINT
  5
FB9
100
AcDbEntity
  8
0
 60
     1
100
AcDbPoint
 10
154.832801
 20
207.432329
 30
0.0
1001
GENIUS_GENOBJ-NBEHI-BHB_13
1002
{
1000
OWNER
1000
GENBEHI
1002
}
1001
GENIUS_GENOENT_13
1002
{
1000
MYREF
1005
FB9
1002
}
1002
{
1000
GRP
1005
0
1002
}
1001
GENIUS_GENOLIS_13
1002
{
1000
ENT
1005
0
1002
}
1001
GENIUS_GENODEF_13
1002
{
1000
HIER
1070
     1
1002
}
1002
{
1000
MANEDIT
1070
     0
1002
}
1002
{
1000
NOSEL
1070
     1
1002
}
1002
{
1000
BEHIND
1070
     0
1002
}
1002
{
1000
REACTOR
1002
}
1002
{
1000
OTHER
1070
     1
1002
}
1001
GENIUS_GENBH_13
1002
{
1000
FGO
1005
FB8
1002
}
  0
POINT
  5
FBA
100
AcDbEntity
  8
0
 60
     1
100
AcDbPoint
 10
154.832801
 20
207.432329
 30
0.0
1001
GENIUS_GENOBJ-F-SCPASSM_13
1002
{
1000
OWNER
1000
GEF
1002
}
1001
GENIUS_GENOENT_13
1002
{
1000
MYREF
1005
FBA
1002
}
1002
{
1000
GRP
1005
0
1002
}
1001
GENIUS_GENOLIS_13
1002
{
1000
ENT
1005
0
1005
0
1002
}
1001
GENIUS_GENODEF_13
1002
{
1000
HIER
1070
   200
1002
}
1002
{
1000
MANEDIT
1070
     1
1002
}
1002
{
1000
NOSEL
1070
     0
1002
}
1002
{
1000
BEHIND
1070
     0
1002
}
1002
{
1000
REACTOR
1002
}
  0
POINT
  5
FBB
100
AcDbEntity
  8
0
 60
     1
100
AcDbPoint
 10
154.832801
 20
207.432329
 30
0.0
1001
GENIUS_GENOBJ-NBEHI-BHB_13
1002
{
1000
OWNER
1000
GENBEHI
1002
}
1001
GENIUS_GENOENT_13
1002
{
1000
MYREF
1005
FBB
1002
}
1002
{
1000
GRP
1005
0
1002
}
1001
GENIUS_GENOLIS_13
1002
{
1000
ENT
1002
}
1001
GENIUS_GENODEF_13
1002
{
1000
HIER
1070
     1
1002
}
1002
{
1000
MANEDIT
1070
     0
1002
}
1002
{
1000
NOSEL
1070
     1
1002
}
1002
{
1000
BEHIND
1070
     0
1002
}
1002
{
1000
REACTOR
1002
}
1002
{
1000
OTHER
1070
     1
1002
}
1001
GENIUS_GENBH_13
1002
{
1000
FGO
1005
0
1002
}
  0
POINT
  5
FBC
100
AcDbEntity
  8
0
 60
     1
100
AcDbPoint
 10
154.832801
 20
207.432329
 30
0.0
1001
GENIUS_GENOBJ-NBEHI-BHF_13
1002
{
1000
OWNER
1000
GENBEHI
1002
}
1001
GENIUS_GENOENT_13
1002
{
1000
MYREF
1005
FBC
1002
}
1002
{
1000
GRP
1005
0
1002
}
1001
GENIUS_GENOLIS_13
1002
{
1000
ENT
1005
0
1002
}
1001
GENIUS_GENBH_13
1002
{
1000
OIUMAP
1000
OIU
1002
}
1002
{
1000
FLAGS
1070
    32
1002
}
1002
{
1000
BGO
1005
0
1002
}
1001
GENIUS_GENODEF_13
1002
{
1000
HIER
1070
     1
1002
}
1002
{
1000
MANEDIT
1070
     1
1002
}
1002
{
1000
NOSEL
1070
     1
1002
}
1002
{
1000
BEHIND
1070
     0
1002
}
1002
{
1000
REACTOR
1002
}
  0
POINT
  5
FBD
100
AcDbEntity
  8
0
 60
     1
100
AcDbPoint
 10
154.832801
 20
207.432329
 30
0.0
1001
GENIUS_GENOBJ-NBEHI-BHF_13
1002
{
1000
OWNER
1000
GENBEHI
1002
}
1001
GENIUS_GENOENT_13
1002
{
1000
MYREF
1005
FBD
1002
}
1002
{
1000
GRP
1005
0
1002
}
1001
GENIUS_GENOLIS_13
1002
{
1000
ENT
1005
0
1002
}
1001
GENIUS_GENODEF_13
1002
{
1000
HIER
1070
     1
1002
}
1002
{
1000
MANEDIT
1070
     0
1002
}
1002
{
1000
NOSEL
1070
     1
1002
}
1002
{
1000
BEHIND
1070
     0
1002
}
1002
{
1000
REACTOR
1002
}
1001
GENIUS_GENBH_13
1002
{
1000
OIUMAP
1000
OIU
1002
}
1002
{
1000
FLAGS
1070
    32
1002
}
1002
{
1000
BGO
1005
FBE
1002
}
  0
POINT
  5
FBE
100
AcDbEntity
  8
0
 60
     1
100
AcDbPoint
 10
154.832801
 20
207.432329
 30
0.0
1001
GENIUS_GENOBJ-NBEHI-BHB_13
1002
{
1000
OWNER
1000
GENBEHI
1002
}
1001
GENIUS_GENOENT_13
1002
{
1000
MYREF
1005
FBE
1002
}
1002
{
1000
GRP
1005
0
1002
}
1001
GENIUS_GENOLIS_13
1002
{
1000
ENT
1002
}
1001
GENIUS_GENODEF_13
1002
{
1000
HIER
1070
     1
1002
}
1002
{
1000
MANEDIT
1070
     0
1002
}
1002
{
1000
NOSEL
1070
     1
1002
}
1002
{
1000
BEHIND
1070
     0
1002
}
1002
{
1000
REACTOR
1002
}
1002
{
1000
OTHER
1070
     1
1002
}
1001
GENIUS_GENBH_13
1002
{
1000
FGO
1005
FBD
1002
}
  0
POINT
  5
FBF
100
AcDbEntity
  8
0
 60
     1
100
AcDbPoint
 10
154.832801
 20
207.432329
 30
0.0
1001
GENIUS_GENOBJ-NBEHI-BHF_13
1002
{
1000
OWNER
1000
GENBEHI
1002
}
1001
GENIUS_GENOENT_13
1002
{
1000
MYREF
1005
FBF
1002
}
1002
{
1000
GRP
1005
0
1002
}
1001
GENIUS_GENOLIS_13
1002
{
1000
ENT
1005
0
1002
}
1001
GENIUS_GENBH_13
1002
{
1000
OIUMAP
1000
OIU
1002
}
1002
{
1000
FLAGS
1070
    32
1002
}
1002
{
1000
BGO
1005
FC0
1002
}
1001
GENIUS_GENODEF_13
1002
{
1000
HIER
1070
     1
1002
}
1002
{
1000
MANEDIT
1070
     1
1002
}
1002
{
1000
NOSEL
1070
     1
1002
}
1002
{
1000
BEHIND
1070
     0
1002
}
1002
{
1000
REACTOR
1002
}
  0
POINT
  5
FC0
100
AcDbEntity
  8
0
 60
     1
100
AcDbPoint
 10
154.832801
 20
207.432329
 30
0.0
1001
GENIUS_GENOBJ-NBEHI-BHB_13
1002
{
1000
OWNER
1000
GENBEHI
1002
}
1001
GENIUS_GENOENT_13
1002
{
1000
MYREF
1005
FC0
1002
}
1002
{
1000
GRP
1005
0
1002
}
1001
GENIUS_GENOLIS_13
1002
{
1000
ENT
1005
0
1002
}
1001
GENIUS_GENODEF_13
1002
{
1000
HIER
1070
     1
1002
}
1002
{
1000
MANEDIT
1070
     0
1002
}
1002
{
1000
NOSEL
1070
     1
1002
}
1002
{
1000
BEHIND
1070
     0
1002
}
1002
{
1000
REACTOR
1002
}
1002
{
1000
OTHER
1070
     1
1002
}
1001
GENIUS_GENBH_13
1002
{
1000
FGO
1005
FBF
1002
}
  0
POINT
  5
FC1
100
AcDbEntity
  8
0
 60
     1
100
AcDbPoint
 10
154.832801
 20
207.432329
 30
0.0
1001
GENIUS_GENOBJ-F-SCPASSM_13
1002
{
1000
OWNER
1000
GEF
1002
}
1001
GENIUS_GENOENT_13
1002
{
1000
MYREF
1005
FC1
1002
}
1002
{
1000
GRP
1005
0
1002
}
1001
GENIUS_GENOLIS_13
1002
{
1000
ENT
1005
0
1005
0
1002
}
1001
GENIUS_GENODEF_13
1002
{
1000
HIER
1070
   200
1002
}
1002
{
1000
MANEDIT
1070
     1
1002
}
1002
{
1000
NOSEL
1070
     0
1002
}
1002
{
1000
BEHIND
1070
     0
1002
}
1002
{
1000
REACTOR
1002
}
  0
LINE
  5
FC2
100
AcDbEntity
  8
0
  6
HIDDEN
100
AcDbLine
 10
126.669346
 20
166.072955
 30
0.0
 11
128.97711
 21
166.072955
 31
0.0
1001
GENIUS_GENOREF_13
1005
FBF
1005
FC1
  0
LINE
  5
FC3
100
AcDbEntity
  8
0
  6
HIDDEN
100
AcDbLine
 10
123.57711
 20
156.072955
 30
0.0
 11
128.97711
 21
156.072955
 31
0.0
1001
GENIUS_GENOREF_13
1005
FBF
1005
FC1
  0
LINE
  5
FC4
100
AcDbEntity
  8
0
  6
HIDDEN
100
AcDbLine
 10
122.97711
 20
156.672955
 30
0.0
 11
122.97711
 21
163.68687
 31
0.0
1001
GENIUS_GENOREF_13
1005
FBF
1005
FC1
  0
ARC
  5
FC5
100
AcDbEntity
  8
0
100
AcDbCircle
 10
123.57711
 20
156.672955
 30
0.0
 40
0.6
100
AcDbArc
 50
180.0
 51
270.0
1001
GENIUS_GENOREF_13
1005
FBF
1005
FC1
  0
ARC
  5
FC6
100
AcDbEntity
  8
0
100
AcDbCircle
 10
123.57711
 20
165.472955
 30
0.0
 40
0.6
100
AcDbArc
 50
90.0
 51
180.0
1001
GENIUS_GENOREF_13
1005
FBF
1005
FC1
  0
LINE
  5
FC7
100
AcDbEntity
  8
0
  6
HIDDEN
100
AcDbLine
 10
155.609096
 20
158.686405
 30
0.0
 11
137.72711
 21
158.686405
 31
0.0
1001
GENIUS_GENOREF_13
1005
FBF
1005
FC1
  0
LINE
  5
FC8
100
AcDbEntity
  8
0
  6
HIDDEN
100
AcDbLine
 10
151.258493
 20
163.459505
 30
0.0
 11
137.72711
 21
163.459505
 31
0.0
1001
GENIUS_GENOREF_13
1005
FBF
1005
FC1
  0
LINE
  5
FC9
100
AcDbEntity
  8
0
100
AcDbLine
 10
148.36366
 20
158.072955
 30
0.0
 11
148.97711
 21
158.686405
 31
0.0
1001
GENIUS_GENOREF_13
1005
FBF
1005
FC1
  0
LINE
  5
FCA
100
AcDbEntity
  8
0
100
AcDbLine
 10
148.36366
 20
164.072955
 30
0.0
 11
148.97711
 21
163.459505
 31
0.0
1001
GENIUS_GENOREF_13
1005
FBF
1005
FC1
  0
LINE
  5
FCB
100
AcDbEntity
  8
0
  6
HIDDEN
100
AcDbLine
 10
128.97711
 20
158.072955
 30
0.0
 11
136.22711
 21
158.072955
 31
0.0
1001
GENIUS_GENOREF_13
1005
FBF
1005
FC1
  0
LINE
  5
FCC
100
AcDbEntity
  8
0
  6
HIDDEN
100
AcDbLine
 10
128.97711
 20
164.072955
 30
0.0
 11
136.22711
 21
164.072955
 31
0.0
1001
GENIUS_GENOREF_13
1005
FBF
1005
FC1
  0
LINE
  5
FCE
100
AcDbEntity
  8
0
  6
HIDDEN
100
AcDbLine
 10
131.47711
 20
164.072955
 30
0.0
 11
131.47711
 21
158.072955
 31
0.0
1001
GENIUS_GENOREF_13
1005
FBF
1005
FC1
  0
LINE
  5
FCF
100
AcDbEntity
  8
0
100
AcDbLine
 10
131.47711
 20
158.686405
 30
0.0
 11
130.86366
 21
158.072955
 31
0.0
1001
GENIUS_GENOREF_13
1005
FBF
1005
FC1
  0
LINE
  5
FD0
100
AcDbEntity
  8
0
100
AcDbLine
 10
131.47711
 20
163.459505
 30
0.0
 11
130.86366
 21
164.072955
 31
0.0
1001
GENIUS_GENOREF_13
1005
FBF
1005
FC1
  0
LINE
  5
FD1
100
AcDbEntity
  8
0
  6
HIDDEN
100
AcDbLine
 10
148.36366
 20
164.072955
 30
0.0
 11
148.36366
 21
158.072955
 31
0.0
1001
GENIUS_GENOREF_13
1005
FBF
1005
FC1
  0
LINE
  5
FD2
100
AcDbEntity
  8
0
  6
HIDDEN
100
AcDbLine
 10
148.97711
 20
163.459505
 30
0.0
 11
148.97711
 21
158.686405
 31
0.0
1001
GENIUS_GENOREF_13
1005
FBF
1005
FC1
  0
POINT
  5
FD3
100
AcDbEntity
  8
0
 60
     1
100
AcDbPoint
 10
154.832801
 20
207.432329
 30
0.0
1001
GENIUS_GENOBJ-NBEHI-BHF_13
1002
{
1000
OWNER
1000
GENBEHI
1002
}
1001
GENIUS_GENOENT_13
1002
{
1000
MYREF
1005
FD3
1002
}
1002
{
1000
GRP
1005
0
1002
}
1001
GENIUS_GENOLIS_13
1002
{
1000
ENT
1005
0
1002
}
1001
GENIUS_GENODEF_13
1002
{
1000
HIER
1070
     1
1002
}
1002
{
1000
MANEDIT
1070
     0
1002
}
1002
{
1000
NOSEL
1070
     1
1002
}
1002
{
1000
BEHIND
1070
     0
1002
}
1002
{
1000
REACTOR
1002
}
1001
GENIUS_GENBH_13
1002
{
1000
OIUMAP
1000
OIU
1002
}
1002
{
1000
FLAGS
1070
    32
1002
}
1002
{
1000
BGO
1005
FD4
1002
}
  0
POINT
  5
FD4
100
AcDbEntity
  8
0
 60
     1
100
AcDbPoint
 10
154.832801
 20
207.432329
 30
0.0
1001
GENIUS_GENOBJ-NBEHI-BHB_13
1002
{
1000
OWNER
1000
GENBEHI
1002
}
1001
GENIUS_GENOENT_13
1002
{
1000
MYREF
1005
FD4
1002
}
1002
{
1000
GRP
1005
0
1002
}
1001
GENIUS_GENOLIS_13
1002
{
1000
ENT
1002
}
1001
GENIUS_GENODEF_13
1002
{
1000
HIER
1070
     1
1002
}
1002
{
1000
MANEDIT
1070
     0
1002
}
1002
{
1000
NOSEL
1070
     1
1002
}
1002
{
1000
BEHIND
1070
     0
1002
}
1002
{
1000
REACTOR
1002
}
1002
{
1000
OTHER
1070
     1
1002
}
1001
GENIUS_GENBH_13
1002
{
1000
FGO
1005
FD3
1002
}
  0
POINT
  5
FD5
100
AcDbEntity
  8
0
 60
     1
100
AcDbPoint
 10
154.832801
 20
207.432329
 30
0.0
1001
GENIUS_GENOBJ-NBEHI-BHF_13
1002
{
1000
OWNER
1000
GENBEHI
1002
}
1001
GENIUS_GENOENT_13
1002
{
1000
MYREF
1005
FD5
1002
}
1002
{
1000
GRP
1005
0
1002
}
1001
GENIUS_GENOLIS_13
1002
{
1000
ENT
1005
0
1002
}
1001
GENIUS_GENBH_13
1002
{
1000
OIUMAP
1000
OIU
1002
}
1002
{
1000
FLAGS
1070
    32
1002
}
1002
{
1000
BGO
1005
FD6
1002
}
1001
GENIUS_GENODEF_13
1002
{
1000
HIER
1070
     1
1002
}
1002
{
1000
MANEDIT
1070
     1
1002
}
1002
{
1000
NOSEL
1070
     1
1002
}
1002
{
1000
BEHIND
1070
     0
1002
}
1002
{
1000
REACTOR
1002
}
  0
POINT
  5
FD6
100
AcDbEntity
  8
0
 60
     1
100
AcDbPoint
 10
154.832801
 20
207.432329
 30
0.0
1001
GENIUS_GENOBJ-NBEHI-BHB_13
1002
{
1000
OWNER
1000
GENBEHI
1002
}
1001
GENIUS_GENOENT_13
1002
{
1000
MYREF
1005
FD6
1002
}
1002
{
1000
GRP
1005
0
1002
}
1001
GENIUS_GENOLIS_13
1002
{
1000
ENT
1005
0
1002
}
1001
GENIUS_GENODEF_13
1002
{
1000
HIER
1070
     1
1002
}
1002
{
1000
MANEDIT
1070
     0
1002
}
1002
{
1000
NOSEL
1070
     1
1002
}
1002
{
1000
BEHIND
1070
     0
1002
}
1002
{
1000
REACTOR
1002
}
1002
{
1000
OTHER
1070
     1
1002
}
1001
GENIUS_GENBH_13
1002
{
1000
FGO
1005
FD5
1002
}
  0
POINT
  5
FD7
100
AcDbEntity
  8
0
 60
     1
100
AcDbPoint
 10
154.832801
 20
207.432329
 30
0.0
1001
GENIUS_GENOBJ-F-SCPASSM_13
1002
{
1000
OWNER
1000
GEF
1002
}
1001
GENIUS_GENOENT_13
1002
{
1000
MYREF
1005
FD7
1002
}
1002
{
1000
GRP
1005
0
1002
}
1001
GENIUS_GENOLIS_13
1002
{
1000
ENT
1005
0
1005
0
1002
}
1001
GENIUS_GENODEF_13
1002
{
1000
HIER
1070
   200
1002
}
1002
{
1000
MANEDIT
1070
     1
1002
}
1002
{
1000
NOSEL
1070
     0
1002
}
1002
{
1000
BEHIND
1070
     0
1002
}
1002
{
1000
REACTOR
1002
}
  0
CIRCLE
  5
FD8
100
AcDbEntity
  8
0
100
AcDbCircle
 10
70.009229
 20
161.072955
 30
0.0
 40
5.0
1001
GENIUS_GENOREF_13
1005
FD5
1005
FD7
  0
LINE
  5
FD9
100
AcDbEntity
  8
0
100
AcDbLine
 10
72.509229
 20
162.516331
 30
0.0
 11
70.009229
 21
163.959706
 31
0.0
1001
GENIUS_GENOREF_13
1005
FD5
1005
FD7
  0
LINE
  5
FDA
100
AcDbEntity
  8
0
100
AcDbLine
 10
70.009229
 20
158.186204
 30
0.0
 11
72.509229
 21
159.629579
 31
0.0
1001
GENIUS_GENOREF_13
1005
FD5
1005
FD7
  0
LINE
  5
FDB
100
AcDbEntity
  8
0
100
AcDbLine
 10
72.509229
 20
159.629579
 30
0.0
 11
72.509229
 21
162.516331
 31
0.0
1001
GENIUS_GENOREF_13
1005
FD5
1005
FD7
  0
LINE
  5
FDC
100
AcDbEntity
  8
0
100
AcDbLine
 10
67.509229
 20
162.516331
 30
0.0
 11
67.509229
 21
159.629579
 31
0.0
1001
GENIUS_GENOREF_13
1005
FD5
1005
FD7
  0
LINE
  5
FDD
100
AcDbEntity
  8
0
100
AcDbLine
 10
67.509229
 20
159.629579
 30
0.0
 11
70.009229
 21
158.186204
 31
0.0
1001
GENIUS_GENOREF_13
1005
FD5
1005
FD7
  0
LINE
  5
FDE
100
AcDbEntity
  8
0
100
AcDbLine
 10
70.009229
 20
163.959706
 30
0.0
 11
67.509229
 21
162.516331
 31
0.0
1001
GENIUS_GENOREF_13
1005
FD5
1005
FD7
  0
LINE
  5
FDF
100
AcDbEntity
  8
0
100
AcDbLine
 10
123.57711
 20
166.072955
 30
0.0
 11
126.669346
 21
166.072955
 31
0.0
  0
LINE
  5
FE0
100
AcDbEntity
  8
0
100
AcDbLine
 10
122.97711
 20
165.472955
 30
0.0
 11
122.97711
 21
163.68687
 31
0.0
  0
LINE
  5
FE1
100
AcDbEntity
  8
0
  6
HIDDEN
100
AcDbLine
 10
128.97711
 20
134.072955
 30
0.0
 11
136.22711
 21
134.072955
 31
0.0
1001
GENIUS_GENOREF_13
1005
FBF
1005
FC1
  0
LINE
  5
FE2
100
AcDbEntity
  8
0
  6
HIDDEN
100
AcDbLine
 10
128.97711
 20
128.072955
 30
0.0
 11
136.22711
 21
128.072955
 31
0.0
1001
GENIUS_GENOREF_13
1005
FBF
1005
FC1
  0
LINE
  5
FE3
100
AcDbEntity
  8
0
  6
HIDDEN
100
AcDbLine
 10
151.258493
 20
128.686405
 30
0.0
 11
137.72711
 21
128.686405
 31
0.0
1001
GENIUS_GENOREF_13
1005
FBF
1005
FC1
  0
ARC
  5
FE4
100
AcDbEntity
  8
0
100
AcDbCircle
 10
123.57711
 20
126.672955
 30
0.0
 40
0.6
100
AcDbArc
 50
180.0
 51
270.0
1001
GENIUS_GENOREF_13
1005
FBF
1005
FC1
  0
ARC
  5
FE5
100
AcDbEntity
  8
0
100
AcDbCircle
 10
123.57711
 20
135.472955
 30
0.0
 40
0.6
100
AcDbArc
 50
90.0
 51
180.0
1001
GENIUS_GENOREF_13
1005
FBF
1005
FC1
  0
LINE
  5
FE6
100
AcDbEntity
  8
0
  6
HIDDEN
100
AcDbLine
 10
116.35552
 20
137.072955
 30
0.0
 11
128.97711
 21
137.072955
 31
0.0
  0
LINE
  5
FE7
100
AcDbEntity
  8
0
  6
HIDDEN
100
AcDbLine
 10
122.97711
 20
135.472955
 30
0.0
 11
122.97711
 21
128.45904
 31
0.0
1001
GENIUS_GENOREF_13
1005
FBF
1005
FC1
  0
LINE
  5
FE8
100
AcDbEntity
  8
0
100
AcDbLine
 10
122.97711
 20
126.672955
 30
0.0
 11
122.97711
 21
128.45904
 31
0.0
  0
LINE
  5
FE9
100
AcDbEntity
  8
0
  6
HIDDEN
100
AcDbLine
 10
131.47711
 20
128.072955
 30
0.0
 11
131.47711
 21
134.072955
 31
0.0
1001
GENIUS_GENOREF_13
1005
FBF
1005
FC1
  0
LINE
  5
FEA
100
AcDbEntity
  8
0
  6
HIDDEN
100
AcDbLine
 10
128.97711
 20
125.043214
 30
0.0
 11
128.97711
 21
137.072955
 31
0.0
  0
LINE
  5
FEB
100
AcDbEntity
  8
0
100
AcDbLine
 10
136.22711
 20
136.10112
 30
0.0
 11
136.22711
 21
123.585459
 31
0.0
  0
LINE
  5
FEC
100
AcDbEntity
  8
0
100
AcDbLine
 10
137.72711
 20
123.585459
 30
0.0
 11
137.72711
 21
136.10112
 31
0.0
  0
LINE
  5
FED
100
AcDbEntity
  8
0
  6
HIDDEN
100
AcDbLine
 10
128.97711
 20
134.572955
 30
0.0
 11
136.22711
 21
134.572955
 31
0.0
  0
LINE
  5
FEE
100
AcDbEntity
  8
0
  6
HIDDEN
100
AcDbLine
 10
123.57711
 20
136.072955
 30
0.0
 11
128.97711
 21
136.072955
 31
0.0
1001
GENIUS_GENOREF_13
1005
FBF
1005
FC1
  0
LINE
  5
FEF
100
AcDbEntity
  8
0
100
AcDbLine
 10
131.47711
 20
133.459505
 30
0.0
 11
130.86366
 21
134.072955
 31
0.0
1001
GENIUS_GENOREF_13
1005
FBF
1005
FC1
  0
LINE
  5
FF0
100
AcDbEntity
  8
0
  6
HIDDEN
100
AcDbLine
 10
128.97711
 20
127.572955
 30
0.0
 11
136.22711
 21
127.572955
 31
0.0
  0
LINE
  5
FF1
100
AcDbEntity
  8
0
100
AcDbLine
 10
131.47711
 20
128.686405
 30
0.0
 11
130.86366
 21
128.072955
 31
0.0
1001
GENIUS_GENOREF_13
1005
FBF
1005
FC1
  0
LINE
  5
FF2
100
AcDbEntity
  8
0
  6
HIDDEN
100
AcDbLine
 10
126.669346
 20
126.072955
 30
0.0
 11
128.97711
 21
126.072955
 31
0.0
1001
GENIUS_GENOREF_13
1005
FBF
1005
FC1
  0
LINE
  5
FF3
100
AcDbEntity
  8
0
100
AcDbLine
 10
123.57711
 20
126.072955
 30
0.0
 11
126.669346
 21
126.072955
 31
0.0
  0
LINE
  5
FF4
100
AcDbEntity
  8
0
  6
HIDDEN
100
AcDbLine
 10
148.97711
 20
128.686405
 30
0.0
 11
148.97711
 21
133.459505
 31
0.0
1001
GENIUS_GENOREF_13
1005
FBF
1005
FC1
  0
LINE
  5
FF5
100
AcDbEntity
  8
0
  6
HIDDEN
100
AcDbLine
 10
148.36366
 20
128.072955
 30
0.0
 11
148.36366
 21
134.072955
 31
0.0
1001
GENIUS_GENOREF_13
1005
FBF
1005
FC1
  0
LINE
  5
FF6
100
AcDbEntity
  8
0
100
AcDbLine
 10
148.36366
 20
134.072955
 30
0.0
 11
148.97711
 21
133.459505
 31
0.0
1001
GENIUS_GENOREF_13
1005
FBF
1005
FC1
  0
LINE
  5
FF7
100
AcDbEntity
  8
0
  6
HIDDEN
 62
     3
100
AcDbLine
 10
148.36366
 20
128.072955
 30
0.0
 11
150.47711
 21
128.072955
 31
0.0
  0
LINE
  5
FF8
100
AcDbEntity
  8
0
100
AcDbLine
 10
148.36366
 20
128.072955
 30
0.0
 11
148.97711
 21
128.686405
 31
0.0
1001
GENIUS_GENOREF_13
1005
FBF
1005
FC1
  0
LINE
  5
FF9
100
AcDbEntity
  8
0
  6
HIDDEN
100
AcDbLine
 10
155.609096
 20
133.459505
 30
0.0
 11
137.72711
 21
133.459505
 31
0.0
1001
GENIUS_GENOREF_13
1005
FBF
1005
FC1
  0
LINE
  5
FFA
100
AcDbEntity
  8
0
  6
HIDDEN
 62
     3
100
AcDbLine
 10
148.36366
 20
134.072955
 30
0.0
 11
156.009977
 21
134.072955
 31
0.0
  0
LINE
  5
FFB
100
AcDbEntity
  8
0
  6
HIDDEN
100
AcDbLine
 10
137.72711
 20
164.072955
 30
0.0
 11
148.36366
 21
164.072955
 31
0.0
1001
GENIUS_GENOREF_13
1005
FBF
1005
FC1
  0
LINE
  5
FFC
100
AcDbEntity
  8
0
  6
HIDDEN
100
AcDbLine
 10
136.22711
 20
163.459505
 30
0.0
 11
131.47711
 21
163.459505
 31
0.0
1001
GENIUS_GENOREF_13
1005
FBF
1005
FC1
  0
LINE
  5
FFD
100
AcDbEntity
  8
0
  6
HIDDEN
100
AcDbLine
 10
137.72711
 20
158.072955
 30
0.0
 11
148.36366
 21
158.072955
 31
0.0
1001
GENIUS_GENOREF_13
1005
FBF
1005
FC1
  0
LINE
  5
FFE
100
AcDbEntity
  8
0
  6
HIDDEN
100
AcDbLine
 10
136.22711
 20
158.686405
 30
0.0
 11
131.47711
 21
158.686405
 31
0.0
1001
GENIUS_GENOREF_13
1005
FBF
1005
FC1
  0
LINE
  5
FFF
100
AcDbEntity
  8
0
100
AcDbLine
 10
136.22711
 20
164.072955
 30
0.0
 11
137.72711
 21
164.072955
 31
0.0
  0
LINE
  5
1000
100
AcDbEntity
  8
0
100
AcDbLine
 10
136.22711
 20
163.459505
 30
0.0
 11
137.72711
 21
163.459505
 31
0.0
  0
LINE
  5
1001
100
AcDbEntity
  8
0
100
AcDbLine
 10
136.22711
 20
158.686405
 30
0.0
 11
137.72711
 21
158.686405
 31
0.0
  0
LINE
  5
1002
100
AcDbEntity
  8
0
100
AcDbLine
 10
136.22711
 20
158.072955
 30
0.0
 11
137.72711
 21
158.072955
 31
0.0
  0
LINE
  5
1003
100
AcDbEntity
  8
0
  6
HIDDEN
100
AcDbLine
 10
136.22711
 20
133.459505
 30
0.0
 11
131.47711
 21
133.459505
 31
0.0
1001
GENIUS_GENOREF_13
1005
FBF
1005
FC1
  0
LINE
  5
1004
100
AcDbEntity
  8
0
  6
HIDDEN
100
AcDbLine
 10
137.72711
 20
134.072955
 30
0.0
 11
148.36366
 21
134.072955
 31
0.0
1001
GENIUS_GENOREF_13
1005
FBF
1005
FC1
  0
LINE
  5
1005
100
AcDbEntity
  8
0
  6
HIDDEN
100
AcDbLine
 10
136.22711
 20
128.686405
 30
0.0
 11
131.47711
 21
128.686405
 31
0.0
1001
GENIUS_GENOREF_13
1005
FBF
1005
FC1
  0
LINE
  5
1006
100
AcDbEntity
  8
0
  6
HIDDEN
100
AcDbLine
 10
137.72711
 20
128.072955
 30
0.0
 11
148.36366
 21
128.072955
 31
0.0
1001
GENIUS_GENOREF_13
1005
FBF
1005
FC1
  0
CIRCLE
  5
1007
100
AcDbEntity
  8
0
100
AcDbCircle
 10
70.009229
 20
131.072955
 30
0.0
 40
5.0
1001
GENIUS_GENOREF_13
1005
FD5
1005
FD7
  0
LINE
  5
1008
100
AcDbEntity
  8
0
100
AcDbLine
 10
72.509229
 20
132.516331
 30
0.0
 11
72.509229
 21
129.629579
 31
0.0
1001
GENIUS_GENOREF_13
1005
FD5
1005
FD7
  0
LINE
  5
1009
100
AcDbEntity
  8
0
100
AcDbLine
 10
67.509229
 20
129.629579
 30
0.0
 11
67.509229
 21
132.516331
 31
0.0
1001
GENIUS_GENOREF_13
1005
FD5
1005
FD7
  0
LINE
  5
100A
100
AcDbEntity
  8
0
100
AcDbLine
 10
67.509229
 20
132.516331
 30
0.0
 11
70.009229
 21
133.959706
 31
0.0
1001
GENIUS_GENOREF_13
1005
FD5
1005
FD7
  0
LINE
  5
100B
100
AcDbEntity
  8
0
100
AcDbLine
 10
70.009229
 20
133.959706
 30
0.0
 11
72.509229
 21
132.516331
 31
0.0
1001
GENIUS_GENOREF_13
1005
FD5
1005
FD7
  0
LINE
  5
100C
100
AcDbEntity
  8
0
100
AcDbLine
 10
70.009229
 20
128.186204
 30
0.0
 11
67.509229
 21
129.629579
 31
0.0
1001
GENIUS_GENOREF_13
1005
FD5
1005
FD7
  0
LINE
  5
100D
100
AcDbEntity
  8
0
100
AcDbLine
 10
72.509229
 20
129.629579
 30
0.0
 11
70.009229
 21
128.186204
 31
0.0
1001
GENIUS_GENOREF_13
1005
FD5
1005
FD7
  0
LINE
  5
100E
100
AcDbEntity
  8
0
100
AcDbLine
 10
77.009229
 20
136.072955
 30
0.0
 11
77.509229
 21
135.572955
 31
0.0
  0
LINE
  5
100F
100
AcDbEntity
  8
0
100
AcDbLine
 10
76.009229
 20
131.072955
 30
0.0
 11
76.009229
 21
125.043214
 31
0.0
  0
LINE
  5
1010
100
AcDbEntity
  8
0
100
AcDbLine
 10
77.509229
 20
124.072955
 30
0.0
 11
77.009229
 21
123.572955
 31
0.0
  0
LINE
  5
1011
100
AcDbEntity
  8
0
100
AcDbLine
 10
76.009229
 20
125.043214
 30
0.0
 11
64.009229
 21
125.043214
 31
0.0
  0
ARC
  5
1012
100
AcDbEntity
  8
0
100
AcDbCircle
 10
70.009229
 20
131.072955
 30
0.0
 40
6.0
100
AcDbArc
 50
0.0
 51
180.0
  0
LINE
  5
1014
100
AcDbEntity
  8
0
100
AcDbLine
 10
64.009229
 20
125.043214
 30
0.0
 11
64.009229
 21
131.072955
 31
0.0
  0
LINE
  5
1017
100
AcDbEntity
  8
0
100
AcDbLine
 10
-4.60974
 20
135.572955
 30
0.0
 11
-4.60974
 21
124.072955
 31
0.0
  0
LINE
  5
101B
100
AcDbEntity
  8
0
100
AcDbLine
 10
10.39026
 20
156.572955
 30
0.0
 11
10.39026
 21
168.072955
 31
0.0
  0
CIRCLE
  5
101D
100
AcDbEntity
  8
0
  6
HIDDEN
100
AcDbCircle
 10
2.89026
 20
131.072955
 30
0.0
 40
5.0
1001
GENIUS_GENOREF_13
1005
FD5
1005
FD7
  0
CIRCLE
  5
101E
100
AcDbEntity
  8
0
  6
HIDDEN
100
AcDbCircle
 10
2.89026
 20
161.072955
 30
0.0
 40
5.0
1001
GENIUS_GENOREF_13
1005
FD5
1005
FD7
  0
LINE
  5
1027
100
AcDbEntity
  8
0
100
AcDbLine
 10
136.22711
 20
134.072955
 30
0.0
 11
137.72711
 21
134.072955
 31
0.0
  0
LINE
  5
1028
100
AcDbEntity
  8
0
100
AcDbLine
 10
136.22711
 20
133.459505
 30
0.0
 11
137.72711
 21
133.459505
 31
0.0
  0
LINE
  5
1029
100
AcDbEntity
  8
0
100
AcDbLine
 10
136.22711
 20
128.686405
 30
0.0
 11
137.72711
 21
128.686405
 31
0.0
  0
LINE
  5
102A
100
AcDbEntity
  8
0
100
AcDbLine
 10
136.22711
 20
128.072955
 30
0.0
 11
137.72711
 21
128.072955
 31
0.0
  0
ENDSEC
  0
SECTION
  2
OBJECTS
  0
DICTIONARY
  5
C
100
AcDbDictionary
  3
ACAD_GROUP
350
D
  3
ACAD_LAYOUT
350
CAE
  3
ACAD_MLINESTYLE
350
1B
  3
ACAD_PLOTSETTINGS
350
CAF
  3
ADE_QUERY_LIBRARY
350
1046
  3
CONTENTDICTIONARY
350
23
1001
ADE
1000
ADE02C004
1000
[Query]
1000
CaseSensitiveMatch=0
1000
SaveCurrQueryInSession=1
1000
MkSelSetWithQryObj=0
1000
ShowBlockAsInsPt=0
1000
CreateAssociativeHatchObjects=0
1000
ReferenceBoundaryForAreaLocation=1
1000
ShowImageAsBoundary=1
1000
DefaultJoinOperator=2
1000
ColorForAdd=red
1000
ColorForRemove=red
1000
BlockLocnForQuery=1
1000
TextLocnForQuery=1
1000
[Save Back]
1000
RedefineBlockDefinitions=1
1000
RedefineLayerDefinitions=1
1000
RedefineTextStyleDefinitions=1
1000
RemoveUnusedGroups=1
1000
EraseSavedBackObjects=1
1000
RemoveLockAfterSave=1
1000
CreateHistoryFileOfChanges=0
1000
CreateBackupFileOfSourceDwg=1
1000
DontAddObjectsToSaveSet=0
1000
MarkObjectsForEditingWithoutPrompting=0
1000
[Coordinate Transformation]
1000
RestoreLastActiveDwgsOnStartup=1
1000
ActivateDwgsOnAttach=1
1000
AdjustSizesAndScalesForChangesInUnits=1
1000
AdjustRotationsForMapDistortions=1
1000
AdjustSizesAndScalesForMapDistortions=1
1000
AdjustElevations=1
1000
AdjustZeroRotationObjects=1
1000
ReconnectDbOnWSOpen=1
1000
NoOfSQLConditionsInHistory=10
1001
ACAD
1000
TREAT_AS_HARD
1070
     0
  0
DICTIONARY
  5
104A
100
AcDbDictionary
280
     1
  3
ACAD_LAYOUTSELFREF
360
104B
  0
DICTIONARY
  5
1048
100
AcDbDictionary
280
     1
  3
ACAD_LAYOUTSELFREF
360
1049
  0
DICTIONARY
  5
D
102
{ACAD_REACTORS
330
C
102
}
100
AcDbDictionary
1001
ACAD
1000
TREAT_AS_HARD
1070
     0
  0
DICTIONARY
  5
CAE
102
{ACAD_REACTORS
330
C
102
}
100
AcDbDictionary
1001
ACAD
1000
TREAT_AS_HARD
1070
     0
  0
DICTIONARY
  5
1B
102
{ACAD_REACTORS
330
C
102
}
100
AcDbDictionary
  3
STANDARD
350
1C
1001
ACAD
1000
TREAT_AS_HARD
1070
     0
  0
DICTIONARY
  5
CAF
102
{ACAD_REACTORS
330
C
102
}
100
AcDbDictionary
1001
ACAD
1000
TREAT_AS_HARD
1070
     0
  0
DICTIONARY
  5
1046
102
{ACAD_REACTORS
330
C
102
}
100
AcDbDictionary
  3
_CURRQRY
350
1047
1001
ACAD
1000
TREAT_AS_HARD
1070
     0
  0
DICTIONARY
  5
23
102
{ACAD_REACTORS
330
C
102
}
100
AcDbDictionary
1001
ACAD
1000
TREAT_AS_HARD
1070
     0
  0
XRECORD
  5
104B
102
{ACAD_REACTORS
330
104A
102
}
100
AcDbXrecord
340
18
  0
XRECORD
  5
1049
102
{ACAD_REACTORS
330
1048
102
}
100
AcDbXrecord
340
15
  0
MLINESTYLE
  5
1C
102
{ACAD_REACTORS
330
1B
102
}
100
AcDbMlineStyle
  2
STANDARD
 70
     0
  3

 62
   256
 51
90.0
 52
90.0
 71
     2
 49
0.5
 62
   256
  6
BYLAYER
 49
-0.5
 62
   256
  6
BYLAYER
  0
XRECORD
  5
1047
102
{ACAD_REACTORS
330
1046
102
}
100
AcDbXrecord
1000
ADE02C001
1070
     1
1070
     0
1002
{
1002
}
1002
{
1002
}
1002
{
1002
}
1000

  0
ENDSEC
  0
EOF
