  0
SECTION
  2
HEADER
  9
$ACADVER
  1
AC1014
  9
$ACADMAINTVER
 70
     0
  9
$DWGCODEPAGE
  3
ANSI_932
  9
$INSBASE
 10
0.0
 20
0.0
 30
0.0
  9
$EXTMIN
 10
2.359553
 20
127.36448
 30
0.0
  9
$EXTMAX
 10
163.885911
 20
178.035772
 30
0.0
  9
$LIMMIN
 10
0.0
 20
0.0
  9
$LIMMAX
 10
420.0
 20
297.0
  9
$ORTHOMODE
 70
     0
  9
$REGENMODE
 70
     1
  9
$FILLMODE
 70
     1
  9
$QTEXTMODE
 70
     0
  9
$MIRRTEXT
 70
     1
  9
$DRAGMODE
 70
     2
  9
$LTSCALE
 40
0.3
  9
$OSMODE
 70
    37
  9
$ATTMODE
 70
     1
  9
$TEXTSIZE
 40
10.0
  9
$TRACEWID
 40
1.0
  9
$TEXTSTYLE
  7
BIGFONT
  9
$CLAYER
  8
0
  9
$CELTYPE
  6
BYLAYER
  9
$CECOLOR
 62
   256
  9
$CELTSCALE
 40
1.0
  9
$DELOBJ
 70
     1
  9
$DISPSILH
 70
     0
  9
$DIMSCALE
 40
1.0
  9
$DIMASZ
 40
2.5
  9
$DIMEXO
 40
0.625
  9
$DIMDLI
 40
3.75
  9
$DIMRND
 40
0.0
  9
$DIMDLE
 40
0.0
  9
$DIMEXE
 40
1.25
  9
$DIMTP
 40
0.0
  9
$DIMTM
 40
0.0
  9
$DIMTXT
 40
2.5
  9
$DIMCEN
 40
0.5
  9
$DIMTSZ
 40
0.0
  9
$DIMTOL
 70
     0
  9
$DIMLIM
 70
     0
  9
$DIMTIH
 70
     0
  9
$DIMTOH
 70
     0
  9
$DIMSE1
 70
     0
  9
$DIMSE2
 70
     0
  9
$DIMTAD
 70
     3
  9
$DIMZIN
 70
     8
  9
$DIMBLK
  1

  9
$DIMASO
 70
     1
  9
$DIMSHO
 70
     1
  9
$DIMPOST
  1

  9
$DIMAPOST
  1

  9
$DIMALT
 70
     0
  9
$DIMALTD
 70
     4
  9
$DIMALTF
 40
0.0394
  9
$DIMLFAC
 40
1.0
  9
$DIMTOFL
 70
     1
  9
$DIMTVP
 40
0.0
  9
$DIMTIX
 70
     0
  9
$DIMSOXD
 70
     0
  9
$DIMSAH
 70
     0
  9
$DIMBLK1
  1

  9
$DIMBLK2
  1

  9
$DIMSTYLE
  2
STANDARD_WS
  9
$DIMCLRD
 70
     0
  9
$DIMCLRE
 70
     0
  9
$DIMCLRT
 70
   256
  9
$DIMTFAC
 40
1.0
  9
$DIMGAP
 40
1.2
  9
$DIMJUST
 70
     0
  9
$DIMSD1
 70
     0
  9
$DIMSD2
 70
     0
  9
$DIMTOLJ
 70
     1
  9
$DIMTZIN
 70
     0
  9
$DIMALTZ
 70
     0
  9
$DIMALTTZ
 70
     0
  9
$DIMFIT
 70
     3
  9
$DIMUPT
 70
     0
  9
$DIMUNIT
 70
     2
  9
$DIMDEC
 70
     4
  9
$DIMTDEC
 70
     4
  9
$DIMALTU
 70
     8
  9
$DIMALTTD
 70
     4
  9
$DIMTXSTY
  7
BIGFONT
  9
$DIMAUNIT
 70
     0
  9
$LUNITS
 70
     2
  9
$LUPREC
 70
     4
  9
$SKETCHINC
 40
1.0
  9
$FILLETRAD
 40
0.0
  9
$AUNITS
 70
     0
  9
$AUPREC
 70
     0
  9
$MENU
  1
acad
  9
$ELEVATION
 40
0.0
  9
$PELEVATION
 40
0.0
  9
$THICKNESS
 40
0.0
  9
$LIMCHECK
 70
     0
  9
$BLIPMODE
 70
     0
  9
$CHAMFERA
 40
0.5
  9
$CHAMFERB
 40
0.5
  9
$CHAMFERC
 40
20.0
  9
$CHAMFERD
 40
0.0
  9
$SKPOLY
 70
     0
  9
$TDCREATE
 40
2451225.415346065
  9
$TDUPDATE
 40
2453594.474404294
  9
$TDINDWG
 40
0.2268569329
  9
$TDUSRTIMER
 40
0.2268569329
  9
$USRTIMER
 70
     1
  9
$ANGBASE
 50
0.0
  9
$ANGDIR
 70
     0
  9
$PDMODE
 70
     0
  9
$PDSIZE
 40
0.0
  9
$PLINEWID
 40
0.0
  9
$COORDS
 70
     1
  9
$SPLFRAME
 70
     0
  9
$SPLINETYPE
 70
     6
  9
$SPLINESEGS
 70
     8
  9
$ATTDIA
 70
     0
  9
$ATTREQ
 70
     1
  9
$HANDLING
 70
     1
  9
$HANDSEED
  5
1051
  9
$SURFTAB1
 70
     6
  9
$SURFTAB2
 70
     6
  9
$SURFTYPE
 70
     6
  9
$SURFU
 70
     6
  9
$SURFV
 70
     6
  9
$UCSNAME
  2

  9
$UCSORG
 10
0.0
 20
0.0
 30
0.0
  9
$UCSXDIR
 10
1.0
 20
0.0
 30
0.0
  9
$UCSYDIR
 10
0.0
 20
1.0
 30
0.0
  9
$PUCSNAME
  2

  9
$PUCSORG
 10
0.0
 20
0.0
 30
0.0
  9
$PUCSXDIR
 10
1.0
 20
0.0
 30
0.0
  9
$PUCSYDIR
 10
0.0
 20
1.0
 30
0.0
  9
$USERI1
 70
     0
  9
$USERI2
 70
     0
  9
$USERI3
 70
     0
  9
$USERI4
 70
     0
  9
$USERI5
 70
     0
  9
$USERR1
 40
0.0
  9
$USERR2
 40
0.0
  9
$USERR3
 40
0.0
  9
$USERR4
 40
0.0
  9
$USERR5
 40
0.0
  9
$WORLDVIEW
 70
     1
  9
$SHADEDGE
 70
     3
  9
$SHADEDIF
 70
    70
  9
$TILEMODE
 70
     1
  9
$MAXACTVP
 70
    48
  9
$PINSBASE
 10
0.0
 20
0.0
 30
0.0
  9
$PLIMCHECK
 70
     0
  9
$PEXTMIN
 10
1.000000E+20
 20
1.000000E+20
 30
1.000000E+20
  9
$PEXTMAX
 10
-1.000000E+20
 20
-1.000000E+20
 30
-1.000000E+20
  9
$PLIMMIN
 10
0.0
 20
0.0
  9
$PLIMMAX
 10
420.0
 20
297.0
  9
$UNITMODE
 70
     0
  9
$VISRETAIN
 70
     1
  9
$PLINEGEN
 70
     0
  9
$PSLTSCALE
 70
     0
  9
$TREEDEPTH
 70
  3020
  9
$PICKSTYLE
 70
     1
  9
$CMLSTYLE
  2
STANDARD
  9
$CMLJUST
 70
     0
  9
$CMLSCALE
 40
20.0
  9
$PROXYGRAPHICS
 70
     1
  9
$MEASUREMENT
 70
     0
  0
ENDSEC
  0
SECTION
  2
CLASSES
  0
CLASS
  1
DICTIONARYVAR
  2
AcDbDictionaryVar
  3
"AutoCAD"
 90
        0
280
     0
281
     0
  0
CLASS
  1
HATCH
  2
AcDbHatch
  3
"ACAD_SEDONA"
 90
        0
280
     0
281
     1
  0
CLASS
  1
LWPOLYLINE
  2
AcDbPolyline
  3
"AutoCAD"
 90
        0
280
     0
281
     1
  0
CLASS
  1
ACDBDICTIONARYWDFLT
  2
AcDbDictionaryWithDefault
  3
AutoCAD 2000
 90
        0
280
     0
281
     0
  0
CLASS
  1
ACDBPLACEHOLDER
  2
AcDbPlaceHolder
  3
AutoCAD 2000
 90
        0
280
     0
281
     0
  0
CLASS
  1
LAYOUT
  2
AcDbLayout
  3
AutoCAD 2000
 90
        0
280
     0
281
     0
  0
CLASS
  1
LONG_TRANSACTION
  2
AcDbLongTransaction
  3
AutoCAD 2000
 90
        0
280
     0
281
     0
  0
CLASS
  1
LWPOLYLINE
  2
AcDbPolyline
  3
"AutoCAD"
 90
        0
280
     0
281
     1
  0
CLASS
  1
HATCH
  2
AcDbHatch
  3
"ACAD_SEDONA"
 90
        0
280
     0
281
     1
  0
CLASS
  1
XRECORD
  2
AcDbXrecord
  3
"<Built In>"
 90
        0
280
     0
281
     0
  0
ENDSEC
  0
SECTION
  2
TABLES
  0
TABLE
  2
VPORT
  5
8
100
AcDbSymbolTable
 70
     2
  0
VPORT
  5
1050
100
AcDbSymbolTableRecord
100
AcDbViewportTableRecord
  2
*ACTIVE
 70
     0
 10
0.0
 20
0.0
 11
1.0
 21
1.0
 12
213.089219
 22
148.5
 13
0.0
 23
0.0
 14
10.0
 24
10.0
 15
10.0
 25
10.0
 16
0.0
 26
0.0
 36
1.0
 17
0.0
 27
0.0
 37
0.0
 40
297.0
 41
1.434944
 42
50.0
 43
0.0
 44
0.0
 50
0.0
 51
0.0
 71
     0
 72
   100
 73
     1
 74
     0
 75
     0
 76
     0
 77
     0
 78
     0
  0
ENDTAB
  0
TABLE
  2
LTYPE
  5
5
100
AcDbSymbolTable
 70
     3
  0
LTYPE
  5
12
100
AcDbSymbolTableRecord
100
AcDbLinetypeTableRecord
  2
BYBLOCK
 70
     0
  3

 72
    65
 73
     0
 40
0.0
  0
LTYPE
  5
13
100
AcDbSymbolTableRecord
100
AcDbLinetypeTableRecord
  2
BYLAYER
 70
     0
  3

 72
    65
 73
     0
 40
0.0
  0
LTYPE
  5
14
100
AcDbSymbolTableRecord
100
AcDbLinetypeTableRecord
  2
CONTINUOUS
 70
     0
  3
Solid line
 72
    65
 73
     0
 40
0.0
  0
LTYPE
  5
11A
100
AcDbSymbolTableRecord
100
AcDbLinetypeTableRecord
  2
CENTER
 70
     0
  3
Center ____ _ ____ _ ____ _ ____ _ ____ _ ____
 72
    65
 73
     4
 40
50.8
 49
31.75
 74
     0
 49
-6.35
 74
     0
 49
6.35
 74
     0
 49
-6.35
 74
     0
  0
LTYPE
  5
11B
100
AcDbSymbolTableRecord
100
AcDbLinetypeTableRecord
  2
HIDDEN
 70
     0
  3
Hidden __ __ __ __ __ __ __ __ __ __ __ __ __ _
 72
    65
 73
     2
 40
9.525
 49
6.35
 74
     0
 49
-3.175
 74
     0
  0
ENDTAB
  0
TABLE
  2
LAYER
  5
2
100
AcDbSymbolTable
 70
     6
  0
LAYER
  5
E
100
AcDbSymbolTableRecord
100
AcDbLayerTableRecord
  2
0
 70
     0
 62
     7
  6
CONTINUOUS
  0
LAYER
  5
37
100
AcDbSymbolTableRecord
100
AcDbLayerTableRecord
  2
図枠
 70
     0
 62
     7
  6
CONTINUOUS
  0
LAYER
  5
38
100
AcDbSymbolTableRecord
100
AcDbLayerTableRecord
  2
図枠部品表
 70
     0
 62
     7
  6
CONTINUOUS
  0
LAYER
  5
215
100
AcDbSymbolTableRecord
100
AcDbLayerTableRecord
  2
CENTER
 70
     0
 62
     2
  6
CENTER
  0
LAYER
  5
216
100
AcDbSymbolTableRecord
100
AcDbLayerTableRecord
  2
DIM
 70
     0
 62
     4
  6
CONTINUOUS
  0
LAYER
  5
21F
100
AcDbSymbolTableRecord
100
AcDbLayerTableRecord
  2
DEFPOINTS
 70
     0
 62
     7
  6
CONTINUOUS
  0
ENDTAB
  0
TABLE
  2
STYLE
  5
3
100
AcDbSymbolTable
 70
     3
  0
STYLE
  5
F
100
AcDbSymbolTableRecord
100
AcDbTextStyleTableRecord
  2
STANDARD
 70
     0
 40
0.0
 41
1.0
 50
0.0
 71
     0
 42
2.5
  3
txt
  4

  0
STYLE
  5
39
100
AcDbSymbolTableRecord
100
AcDbTextStyleTableRecord
  2
BIGFONT
 70
     0
 40
0.0
 41
1.0
 50
0.0
 71
     0
 42
10.0
  3
txt.shx
  4
bigfont.shx
  0
STYLE
  5
3B
100
AcDbSymbolTableRecord
100
AcDbTextStyleTableRecord
  2
KANJI
 70
     0
 40
0.0
 41
1.0
 50
0.0
 71
     0
 42
3.0
  3
TXT
  4
BIGFONT
  0
ENDTAB
  0
TABLE
  2
VIEW
  5
6
100
AcDbSymbolTable
 70
     0
  0
ENDTAB
  0
TABLE
  2
UCS
  5
7
100
AcDbSymbolTable
 70
     0
  0
ENDTAB
  0
TABLE
  2
APPID
  5
9
100
AcDbSymbolTable
 70
    34
  0
APPID
  5
10
100
AcDbSymbolTableRecord
100
AcDbRegAppTableRecord
  2
ACAD
 70
     0
  0
APPID
  5
24
100
AcDbSymbolTableRecord
100
AcDbRegAppTableRecord
  2
CONTENTTABDATA
 70
     0
  0
APPID
  5
25
100
AcDbSymbolTableRecord
100
AcDbRegAppTableRecord
  2
CONTENTCURRENTTAB
 70
     0
  0
APPID
  5
422
100
AcDbSymbolTableRecord
100
AcDbRegAppTableRecord
  2
CONTENTBLOCKDESCRIPTION
 70
     0
  0
APPID
  5
F20
100
AcDbSymbolTableRecord
100
AcDbRegAppTableRecord
  2
MCAD_NO_VIS
 70
     0
  0
APPID
  5
F21
100
AcDbSymbolTableRecord
100
AcDbRegAppTableRecord
  2
ACAD_TEMP_GRAPHIC
 70
     0
  0
APPID
  5
F22
100
AcDbSymbolTableRecord
100
AcDbRegAppTableRecord
  2
GEVID966397200
 70
     0
  0
APPID
  5
F23
100
AcDbSymbolTableRecord
100
AcDbRegAppTableRecord
  2
GEVDC
 70
     0
  0
APPID
  5
F24
100
AcDbSymbolTableRecord
100
AcDbRegAppTableRecord
  2
GEVCON
 70
     0
  0
APPID
  5
F25
100
AcDbSymbolTableRecord
100
AcDbRegAppTableRecord
  2
GEVID966397201
 70
     0
  0
APPID
  5
F26
100
AcDbSymbolTableRecord
100
AcDbRegAppTableRecord
  2
GEVID966397202
 70
     0
  0
APPID
  5
F27
100
AcDbSymbolTableRecord
100
AcDbRegAppTableRecord
  2
GEVID966397203
 70
     0
  0
APPID
  5
F28
100
AcDbSymbolTableRecord
100
AcDbRegAppTableRecord
  2
GEVID966397204
 70
     0
  0
APPID
  5
F29
100
AcDbSymbolTableRecord
100
AcDbRegAppTableRecord
  2
GEVID966397205
 70
     0
  0
APPID
  5
F2A
100
AcDbSymbolTableRecord
100
AcDbRegAppTableRecord
  2
GEVID966397206
 70
     0
  0
APPID
  5
F2B
100
AcDbSymbolTableRecord
100
AcDbRegAppTableRecord
  2
GENIUS_GENBH_13
 70
     0
  0
APPID
  5
F2C
100
AcDbSymbolTableRecord
100
AcDbRegAppTableRecord
  2
GENIUS_GENODEF_13
 70
     0
  0
APPID
  5
F2D
100
AcDbSymbolTableRecord
100
AcDbRegAppTableRecord
  2
GENIUS_GENOBJ-NBEHI-BHF_13
 70
     0
  0
APPID
  5
F2E
100
AcDbSymbolTableRecord
100
AcDbRegAppTableRecord
  2
GENIUS_GENOENT_13
 70
     0
  0
APPID
  5
F2F
100
AcDbSymbolTableRecord
100
AcDbRegAppTableRecord
  2
GENIUS_GENOREF_13
 70
     0
  0
APPID
  5
F30
100
AcDbSymbolTableRecord
100
AcDbRegAppTableRecord
  2
GENIUS_GENOLIS_13
 70
     0
  0
APPID
  5
F31
100
AcDbSymbolTableRecord
100
AcDbRegAppTableRecord
  2
GENIUS_GENOBJ-NBEHI-BHB_13
 70
     0
  0
APPID
  5
F32
100
AcDbSymbolTableRecord
100
AcDbRegAppTableRecord
  2
GEVID966397207
 70
     0
  0
APPID
  5
F33
100
AcDbSymbolTableRecord
100
AcDbRegAppTableRecord
  2
GENIUS_GENOBJ-F-SCPASSM_13
 70
     0
  0
APPID
  5
F34
100
AcDbSymbolTableRecord
100
AcDbRegAppTableRecord
  2
GENIUS_GENDTOL_13
 70
     0
  0
APPID
  5
F35
100
AcDbSymbolTableRecord
100
AcDbRegAppTableRecord
  2
GEVID966521051
 70
     0
  0
APPID
  5
F36
100
AcDbSymbolTableRecord
100
AcDbRegAppTableRecord
  2
GEVID966521052
 70
     0
  0
APPID
  5
F37
100
AcDbSymbolTableRecord
100
AcDbRegAppTableRecord
  2
GEVID966521054
 70
     0
  0
APPID
  5
F38
100
AcDbSymbolTableRecord
100
AcDbRegAppTableRecord
  2
GEVID966521055
 70
     0
  0
APPID
  5
F39
100
AcDbSymbolTableRecord
100
AcDbRegAppTableRecord
  2
GEVID966521056
 70
     0
  0
APPID
  5
F3A
100
AcDbSymbolTableRecord
100
AcDbRegAppTableRecord
  2
GEVID966521057
 70
     0
  0
APPID
  5
F3B
100
AcDbSymbolTableRecord
100
AcDbRegAppTableRecord
  2
GEVID966521058
 70
     0
  0
APPID
  5
F3C
100
AcDbSymbolTableRecord
100
AcDbRegAppTableRecord
  2
GEVID966521059
 70
     0
  0
APPID
  5
1039
100
AcDbSymbolTableRecord
100
AcDbRegAppTableRecord
  2
ADE
 70
     0
  0
ENDTAB
  0
TABLE
  2
DIMSTYLE
  5
A
100
AcDbSymbolTable
 70
     1
  0
DIMSTYLE
105
35
100
AcDbSymbolTableRecord
100
AcDbDimStyleTableRecord
  2
STANDARD_WS
 70
     0
  3

  4

  5

  6

  7

 40
1.0
 41
2.5
 42
0.625
 43
3.75
 44
1.25
 45
0.0
 46
0.0
 47
0.0
 48
0.0
140
2.5
141
2.5
142
0.0
143
0.0394
144
1.0
145
0.0
146
1.0
147
0.625
 71
     0
 72
     0
 73
     0
 74
     0
 75
     0
 76
     0
 77
     1
 78
     8
170
     0
171
     4
172
     1
173
     0
174
     0
175
     0
176
     0
177
     0
178
     0
270
     2
271
     4
272
     4
273
     8
274
     4
340
F
275
     0
280
     0
281
     0
282
     0
283
     1
284
     0
285
     0
286
     0
287
     3
288
     0
  0
ENDTAB
  0
TABLE
  2
BLOCK_RECORD
  5
1
100
AcDbSymbolTable
 70
    12
  0
BLOCK_RECORD
  5
18
102
{ACAD_XDICTIONARY
360
103E
102
}
100
AcDbSymbolTableRecord
100
AcDbBlockTableRecord
  2
*MODEL_SPACE
  0
BLOCK_RECORD
  5
15
102
{ACAD_XDICTIONARY
360
103C
102
}
100
AcDbSymbolTableRecord
100
AcDbBlockTableRecord
  2
*PAPER_SPACE
  0
BLOCK_RECORD
  5
F03
100
AcDbSymbolTableRecord
100
AcDbBlockTableRecord
  2
_OPEN30
  0
ENDTAB
  0
ENDSEC
  0
SECTION
  2
BLOCKS
  0
BLOCK
  5
19
100
AcDbEntity
  8
0
100
AcDbBlockBegin
  2
*MODEL_SPACE
 70
     2
 10
0.0
 20
0.0
 30
0.0
  3
*MODEL_SPACE
  1

  0
ENDBLK
  5
1A
100
AcDbEntity
  8
0
100
AcDbBlockEnd
  0
BLOCK
  5
16
100
AcDbEntity
 67
     1
  8
0
100
AcDbBlockBegin
  2
*PAPER_SPACE
 70
     0
 10
0.0
 20
0.0
 30
0.0
  3
*PAPER_SPACE
  1

  0
ENDBLK
  5
17
100
AcDbEntity
 67
     1
  8
0
100
AcDbBlockEnd
  0
BLOCK
  5
F07
100
AcDbEntity
  8
0
100
AcDbBlockBegin
  2
_OPEN30
 70
     0
 10
0.0
 20
0.0
 30
0.0
  3
_OPEN30
  1

  0
LINE
  5
F04
100
AcDbEntity
  8
0
 62
     0
100
AcDbLine
 10
-1.0
 20
0.267949
 30
0.0
 11
0.0
 21
0.0
 31
0.0
  0
LINE
  5
F05
100
AcDbEntity
  8
0
 62
     0
100
AcDbLine
 10
0.0
 20
0.0
 30
0.0
 11
-1.0
 21
-0.267949
 31
0.0
  0
LINE
  5
F06
100
AcDbEntity
  8
0
 62
     0
100
AcDbLine
 10
0.0
 20
0.0
 30
0.0
 11
-1.0
 21
0.0
 31
0.0
  0
ENDBLK
  5
F08
100
AcDbEntity
  8
0
100
AcDbBlockEnd
  0
ENDSEC
  0
SECTION
  2
ENTITIES
  0
TEXT
  5
3E9
100
AcDbEntity
  8
図枠部品表
 62
     3
100
AcDbText
 10
403.65269
 20
422.521663
 30
0.0
 40
2.4325
  1

 41
0.8
  7
KANJI
 72
     1
 11
403.65269
 21
423.737913
 31
0.0
100
AcDbText
 73
     2
  0
TEXT
  5
A9F
100
AcDbEntity
  8
図枠
 62
     7
100
AcDbText
 10
162.933452
 20
10.11536
 30
0.0
 40
2.6
  1

  7
KANJI
 72
     1
 11
162.933452
 21
11.41536
 31
0.0
100
AcDbText
 73
     2
  0
LINE
  5
AFD
100
AcDbEntity
  8
CENTER
100
AcDbLine
 10
113.885911
 20
151.588517
 30
0.0
 11
163.885911
 21
151.588517
 31
0.0
  0
LINE
  5
AFE
100
AcDbEntity
  8
CENTER
100
AcDbLine
 10
138.885911
 20
127.36448
 30
0.0
 11
138.885911
 21
178.035772
 31
0.0
  0
ARC
  5
B00
100
AcDbEntity
  8
0
100
AcDbCircle
 10
138.885911
 20
151.588517
 30
0.0
 40
20.0
100
AcDbArc
 50
272.149096
 51
87.850904
  0
ARC
  5
B01
100
AcDbEntity
  8
0
100
AcDbCircle
 10
138.885911
 20
151.588517
 30
0.0
 40
19.5
100
AcDbArc
 50
272.204228
 51
87.795772
  0
LINE
  5
B06
100
AcDbEntity
  8
0
100
AcDbLine
 10
139.635911
 20
171.57445
 30
0.0
 11
139.635911
 21
159.553284
 31
0.0
  0
LINE
  5
B08
100
AcDbEntity
  8
0
100
AcDbLine
 10
138.135911
 20
131.602585
 30
0.0
 11
138.135911
 21
143.623751
 31
0.0
  0
LINE
  5
B0F
100
AcDbEntity
  8
CENTER
100
AcDbLine
 10
120.466475
 20
138.588517
 30
0.0
 11
157.305347
 21
138.588517
 31
0.0
  0
LINE
  5
B24
100
AcDbEntity
  8
CENTER
100
AcDbLine
 10
65.481964
 20
147.247536
 30
0.0
 11
65.481964
 21
129.929499
 31
0.0
  0
LINE
  5
B29
100
AcDbEntity
  8
CENTER
100
AcDbLine
 10
75.464528
 20
151.588517
 30
0.0
 11
55.4994
 21
151.588517
 31
0.0
  0
LINE
  5
B37
100
AcDbEntity
  8
0
100
AcDbLine
 10
72.481964
 20
171.588517
 30
0.0
 11
58.481964
 21
171.588517
 31
0.0
  0
LINE
  5
B38
100
AcDbEntity
  8
0
100
AcDbLine
 10
72.481964
 20
131.588517
 30
0.0
 11
58.481964
 21
131.588517
 31
0.0
  0
LINE
  5
B3A
100
AcDbEntity
  8
0
100
AcDbLine
 10
72.981964
 20
171.088517
 30
0.0
 11
72.981964
 21
132.088517
 31
0.0
  0
LINE
  5
B3C
100
AcDbEntity
  8
0
100
AcDbLine
 10
57.981964
 20
132.088517
 30
0.0
 11
57.981964
 21
171.088517
 31
0.0
  0
LINE
  5
B3D
100
AcDbEntity
  8
0
100
AcDbLine
 10
72.481964
 20
171.588517
 30
0.0
 11
72.981964
 21
171.088517
 31
0.0
  0
LINE
  5
B3E
100
AcDbEntity
  8
0
100
AcDbLine
 10
72.981964
 20
132.088517
 30
0.0
 11
72.481964
 21
131.588517
 31
0.0
  0
LINE
  5
B3F
100
AcDbEntity
  8
0
100
AcDbLine
 10
58.481964
 20
131.588517
 30
0.0
 11
57.981964
 21
132.088517
 31
0.0
  0
LINE
  5
B40
100
AcDbEntity
  8
0
100
AcDbLine
 10
57.981964
 20
171.088517
 30
0.0
 11
58.481964
 21
171.588517
 31
0.0
  0
LINE
  5
B41
100
AcDbEntity
  8
0
100
AcDbLine
 10
72.481964
 20
171.588517
 30
0.0
 11
72.481964
 21
131.588517
 31
0.0
  0
LINE
  5
B42
100
AcDbEntity
  8
0
100
AcDbLine
 10
58.481964
 20
131.588517
 30
0.0
 11
58.481964
 21
171.588517
 31
0.0
  0
LINE
  5
B51
100
AcDbEntity
  8
CENTER
100
AcDbLine
 10
74.140982
 20
138.588517
 30
0.0
 11
56.822945
 21
138.588517
 31
0.0
  0
LINE
  5
B60
100
AcDbEntity
  8
0
100
AcDbLine
 10
72.481964
 20
159.588517
 30
0.0
 11
72.981964
 21
160.088517
 31
0.0
  0
LINE
  5
B61
100
AcDbEntity
  8
0
100
AcDbLine
 10
58.481964
 20
159.588517
 30
0.0
 11
57.981964
 21
160.088517
 31
0.0
  0
LINE
  5
B62
100
AcDbEntity
  8
0
100
AcDbLine
 10
58.481964
 20
143.588517
 30
0.0
 11
57.981964
 21
143.088517
 31
0.0
  0
LINE
  5
B63
100
AcDbEntity
  8
0
100
AcDbLine
 10
72.481964
 20
143.588517
 30
0.0
 11
72.981964
 21
143.088517
 31
0.0
  0
ARC
  5
C6A
100
AcDbEntity
  8
0
100
AcDbCircle
 10
138.885911
 20
151.588517
 30
0.0
 40
8.0
100
AcDbArc
 50
95.379379
 51
264.620621
  0
ARC
  5
C6B
100
AcDbEntity
  8
0
100
AcDbCircle
 10
138.885911
 20
151.588517
 30
0.0
 40
8.5
100
AcDbArc
 50
95.062093
 51
264.937907
  0
LINE
  5
C6C
100
AcDbEntity
  8
0
  6
HIDDEN
100
AcDbLine
 10
72.481964
 20
159.588517
 30
0.0
 11
58.481964
 21
159.588517
 31
0.0
  0
LINE
  5
C6D
100
AcDbEntity
  8
0
  6
HIDDEN
100
AcDbLine
 10
72.481964
 20
143.588517
 30
0.0
 11
58.481964
 21
143.588517
 31
0.0
  0
ARC
  5
C86
100
AcDbEntity
  8
0
100
AcDbCircle
 10
138.885911
 20
151.588517
 30
0.0
 40
8.5
100
AcDbArc
 50
275.062093
 51
84.937907
  0
ARC
  5
C87
100
AcDbEntity
  8
0
100
AcDbCircle
 10
138.885911
 20
151.588517
 30
0.0
 40
8.0
100
AcDbArc
 50
275.379379
 51
84.620621
  0
LINE
  5
C8E
100
AcDbEntity
  8
0
100
AcDbLine
 10
139.635911
 20
143.623751
 30
0.0
 11
139.635911
 21
131.602585
 31
0.0
  0
LINE
  5
C8F
100
AcDbEntity
  8
0
100
AcDbLine
 10
138.135911
 20
159.553284
 30
0.0
 11
138.135911
 21
171.57445
 31
0.0
  0
LINE
  5
D73
100
AcDbEntity
  8
0
  6
HIDDEN
100
AcDbLine
 10
120.150917
 20
158.588517
 30
0.0
 11
130.885911
 21
158.588517
 31
0.0
  0
LINE
  5
D74
100
AcDbEntity
  8
0
  6
HIDDEN
100
AcDbLine
 10
130.885911
 20
169.91882
 30
0.0
 11
130.885911
 21
158.588517
 31
0.0
  0
LINE
  5
D75
100
AcDbEntity
  8
0
  6
HIDDEN
100
AcDbLine
 10
130.885911
 20
161.088517
 30
0.0
 11
138.135911
 21
161.088517
 31
0.0
  0
LINE
  5
D76
100
AcDbEntity
  8
CENTER
100
AcDbLine
 10
120.466475
 20
164.588517
 30
0.0
 11
157.305347
 21
164.588517
 31
0.0
  0
LINE
  5
D77
100
AcDbEntity
  8
0
  6
HIDDEN
100
AcDbLine
 10
130.885911
 20
168.088517
 30
0.0
 11
138.135911
 21
168.088517
 31
0.0
  0
LINE
  5
D78
100
AcDbEntity
  8
0
  6
HIDDEN
 62
     3
100
AcDbLine
 10
150.032659
 20
167.588517
 30
0.0
 11
150.885911
 21
167.588517
 31
0.0
  0
LINE
  5
D7A
100
AcDbEntity
  8
0
  6
HIDDEN
100
AcDbLine
 10
150.885911
 20
162.201967
 30
0.0
 11
155.83745
 21
162.201967
 31
0.0
  0
LINE
  5
D7B
100
AcDbEntity
  8
0
  6
HIDDEN
 62
     3
100
AcDbLine
 10
150.272461
 20
161.588517
 30
0.0
 11
156.206419
 21
161.588517
 31
0.0
  0
ARC
  5
D87
100
AcDbEntity
  8
0
100
AcDbCircle
 10
138.885911
 20
151.588517
 30
0.0
 40
20.0
100
AcDbArc
 50
92.149096
 51
267.850904
  0
ARC
  5
D88
100
AcDbEntity
  8
0
100
AcDbCircle
 10
138.885911
 20
151.588517
 30
0.0
 40
19.5
100
AcDbArc
 50
92.204228
 51
267.795772
  0
LINE
  5
DD3
100
AcDbEntity
  8
CENTER
100
AcDbLine
 10
74.140982
 20
164.588517
 30
0.0
 11
56.822945
 21
164.588517
 31
0.0
  0
ARC
  5
DD7
100
AcDbEntity
  8
0
100
AcDbCircle
 10
65.481964
 20
164.588517
 30
0.0
 40
6.0
100
AcDbArc
 50
180.0
 51
0.0
  0
LINE
  5
DD8
100
AcDbEntity
  8
0
100
AcDbLine
 10
59.481964
 20
164.588517
 30
0.0
 11
59.481964
 21
169.91882
 31
0.0
  0
LINE
  5
DD9
100
AcDbEntity
  8
0
100
AcDbLine
 10
71.481964
 20
169.91882
 30
0.0
 11
59.481964
 21
169.91882
 31
0.0
  0
LINE
  5
DDA
100
AcDbEntity
  8
0
100
AcDbLine
 10
71.481964
 20
164.588517
 30
0.0
 11
71.481964
 21
169.91882
 31
0.0
  0
LINE
  5
DDB
100
AcDbEntity
  8
CENTER
100
AcDbLine
 10
65.481964
 20
155.929499
 30
0.0
 11
65.481964
 21
173.247536
 31
0.0
  0
LINE
  5
E1A
100
AcDbEntity
  8
0
100
AcDbLine
 10
4.842117
 20
132.088517
 30
0.0
 11
4.842117
 21
143.088517
 31
0.0
  0
LINE
  5
E1B
100
AcDbEntity
  8
0
100
AcDbLine
 10
19.842117
 20
171.088517
 30
0.0
 11
19.842117
 21
160.088517
 31
0.0
  0
LINE
  5
E1C
100
AcDbEntity
  8
CENTER
100
AcDbLine
 10
12.342117
 20
147.247536
 30
0.0
 11
12.342117
 21
129.929499
 31
0.0
  0
LINE
  5
E1D
100
AcDbEntity
  8
0
100
AcDbLine
 10
19.342117
 20
143.588517
 30
0.0
 11
5.342117
 21
143.588517
 31
0.0
  0
LINE
  5
E1E
100
AcDbEntity
  8
CENTER
100
AcDbLine
 10
21.001136
 20
138.588517
 30
0.0
 11
3.683099
 21
138.588517
 31
0.0
  0
LINE
  5
E1F
100
AcDbEntity
  8
0
100
AcDbLine
 10
19.342117
 20
131.588517
 30
0.0
 11
5.342117
 21
131.588517
 31
0.0
  0
LINE
  5
E20
100
AcDbEntity
  8
0
100
AcDbLine
 10
5.342117
 20
131.588517
 30
0.0
 11
4.842117
 21
132.088517
 31
0.0
  0
LINE
  5
E21
100
AcDbEntity
  8
0
100
AcDbLine
 10
5.342117
 20
143.588517
 30
0.0
 11
4.842117
 21
143.088517
 31
0.0
  0
LINE
  5
E25
100
AcDbEntity
  8
0
100
AcDbLine
 10
19.842117
 20
132.088517
 30
0.0
 11
19.342117
 21
131.588517
 31
0.0
  0
CIRCLE
  5
E27
100
AcDbEntity
  8
0
100
AcDbCircle
 10
12.342117
 20
138.588517
 30
0.0
 40
3.5
  0
CIRCLE
  5
E28
100
AcDbEntity
  8
0
100
AcDbCircle
 10
12.342117
 20
138.588517
 30
0.0
 40
3.0
  0
CIRCLE
  5
E29
100
AcDbEntity
  8
0
 62
     3
100
AcDbCircle
 10
12.342117
 20
138.588517
 30
0.0
 40
2.4585
  0
LINE
  5
E2A
100
AcDbEntity
  8
0
100
AcDbLine
 10
19.342117
 20
143.588517
 30
0.0
 11
19.842117
 21
143.088517
 31
0.0
  0
LINE
  5
E2B
100
AcDbEntity
  8
CENTER
100
AcDbLine
 10
12.342117
 20
155.929499
 30
0.0
 11
12.342117
 21
173.247536
 31
0.0
  0
LINE
  5
E2C
100
AcDbEntity
  8
CENTER
100
AcDbLine
 10
21.001136
 20
164.588517
 30
0.0
 11
3.683099
 21
164.588517
 31
0.0
  0
LINE
  5
E2D
100
AcDbEntity
  8
0
100
AcDbLine
 10
19.342117
 20
159.588517
 30
0.0
 11
5.342117
 21
159.588517
 31
0.0
  0
LINE
  5
E2E
100
AcDbEntity
  8
CENTER
100
AcDbLine
 10
22.324681
 20
151.588517
 30
0.0
 11
2.359553
 21
151.588517
 31
0.0
  0
LINE
  5
E2F
100
AcDbEntity
  8
0
100
AcDbLine
 10
5.342117
 20
159.588517
 30
0.0
 11
4.842117
 21
160.088517
 31
0.0
  0
CIRCLE
  5
E32
100
AcDbEntity
  8
0
 62
     3
100
AcDbCircle
 10
12.342117
 20
164.588517
 30
0.0
 40
2.4585
  0
CIRCLE
  5
E33
100
AcDbEntity
  8
0
100
AcDbCircle
 10
12.342117
 20
164.588517
 30
0.0
 40
3.0
  0
CIRCLE
  5
E34
100
AcDbEntity
  8
0
100
AcDbCircle
 10
12.342117
 20
164.588517
 30
0.0
 40
3.5
  0
LINE
  5
E36
100
AcDbEntity
  8
0
100
AcDbLine
 10
19.342117
 20
159.588517
 30
0.0
 11
19.842117
 21
160.088517
 31
0.0
  0
LINE
  5
E38
100
AcDbEntity
  8
0
100
AcDbLine
 10
19.342117
 20
171.588517
 30
0.0
 11
5.342117
 21
171.588517
 31
0.0
  0
LINE
  5
E39
100
AcDbEntity
  8
0
100
AcDbLine
 10
4.842117
 20
171.088517
 30
0.0
 11
5.342117
 21
171.588517
 31
0.0
  0
LINE
  5
E3A
100
AcDbEntity
  8
0
100
AcDbLine
 10
19.342117
 20
171.588517
 30
0.0
 11
19.842117
 21
171.088517
 31
0.0
  0
POINT
  5
F7F
100
AcDbEntity
  8
0
 60
     1
100
AcDbPoint
 10
243.546236
 20
184.270888
 30
0.0
1001
GENIUS_GENOBJ-NBEHI-BHF_13
1002
{
1000
OWNER
1000
GENBEHI
1002
}
1001
GENIUS_GENOENT_13
1002
{
1000
MYREF
1005
F7F
1002
}
1002
{
1000
GRP
1005
0
1002
}
1001
GENIUS_GENOLIS_13
1002
{
1000
ENT
1005
0
1002
}
1001
GENIUS_GENBH_13
1002
{
1000
OIUMAP
1000
OIU
1002
}
1002
{
1000
FLAGS
1070
    32
1002
}
1002
{
1000
BGO
1005
F80
1002
}
1001
GENIUS_GENODEF_13
1002
{
1000
HIER
1070
     1
1002
}
1002
{
1000
MANEDIT
1070
     1
1002
}
1002
{
1000
NOSEL
1070
     1
1002
}
1002
{
1000
BEHIND
1070
     0
1002
}
1002
{
1000
REACTOR
1002
}
  0
POINT
  5
F80
100
AcDbEntity
  8
0
 60
     1
100
AcDbPoint
 10
243.546236
 20
184.270888
 30
0.0
1001
GENIUS_GENOBJ-NBEHI-BHB_13
1002
{
1000
OWNER
1000
GENBEHI
1002
}
1001
GENIUS_GENOENT_13
1002
{
1000
MYREF
1005
F80
1002
}
1002
{
1000
GRP
1005
0
1002
}
1001
GENIUS_GENOLIS_13
1002
{
1000
ENT
1002
}
1001
GENIUS_GENODEF_13
1002
{
1000
HIER
1070
     1
1002
}
1002
{
1000
MANEDIT
1070
     0
1002
}
1002
{
1000
NOSEL
1070
     1
1002
}
1002
{
1000
BEHIND
1070
     0
1002
}
1002
{
1000
REACTOR
1002
}
1002
{
1000
OTHER
1070
     1
1002
}
1001
GENIUS_GENBH_13
1002
{
1000
FGO
1005
F7F
1002
}
  0
POINT
  5
F81
100
AcDbEntity
  8
0
 60
     1
100
AcDbPoint
 10
243.546236
 20
184.270888
 30
0.0
1001
GENIUS_GENOBJ-NBEHI-BHF_13
1002
{
1000
OWNER
1000
GENBEHI
1002
}
1001
GENIUS_GENOENT_13
1002
{
1000
MYREF
1005
F81
1002
}
1002
{
1000
GRP
1005
0
1002
}
1001
GENIUS_GENOLIS_13
1002
{
1000
ENT
1005
0
1002
}
1001
GENIUS_GENODEF_13
1002
{
1000
HIER
1070
     1
1002
}
1002
{
1000
MANEDIT
1070
     0
1002
}
1002
{
1000
NOSEL
1070
     1
1002
}
1002
{
1000
BEHIND
1070
     0
1002
}
1002
{
1000
REACTOR
1002
}
1001
GENIUS_GENBH_13
1002
{
1000
OIUMAP
1000
OIU
1002
}
1002
{
1000
FLAGS
1070
    32
1002
}
1002
{
1000
BGO
1005
F82
1002
}
  0
POINT
  5
F82
100
AcDbEntity
  8
0
 60
     1
100
AcDbPoint
 10
243.546236
 20
184.270888
 30
0.0
1001
GENIUS_GENOBJ-NBEHI-BHB_13
1002
{
1000
OWNER
1000
GENBEHI
1002
}
1001
GENIUS_GENOENT_13
1002
{
1000
MYREF
1005
F82
1002
}
1002
{
1000
GRP
1005
0
1002
}
1001
GENIUS_GENOLIS_13
1002
{
1000
ENT
1002
}
1001
GENIUS_GENODEF_13
1002
{
1000
HIER
1070
     1
1002
}
1002
{
1000
MANEDIT
1070
     0
1002
}
1002
{
1000
NOSEL
1070
     1
1002
}
1002
{
1000
BEHIND
1070
     0
1002
}
1002
{
1000
REACTOR
1002
}
1002
{
1000
OTHER
1070
     1
1002
}
1001
GENIUS_GENBH_13
1002
{
1000
FGO
1005
F81
1002
}
  0
POINT
  5
F83
100
AcDbEntity
  8
0
 60
     1
100
AcDbPoint
 10
243.546236
 20
184.270888
 30
0.0
1001
GENIUS_GENOBJ-NBEHI-BHF_13
1002
{
1000
OWNER
1000
GENBEHI
1002
}
1001
GENIUS_GENOENT_13
1002
{
1000
MYREF
1005
F83
1002
}
1002
{
1000
GRP
1005
0
1002
}
1001
GENIUS_GENOLIS_13
1002
{
1000
ENT
1005
0
1002
}
1001
GENIUS_GENBH_13
1002
{
1000
OIUMAP
1000
OIU
1002
}
1002
{
1000
FLAGS
1070
    32
1002
}
1002
{
1000
BGO
1005
F84
1002
}
1001
GENIUS_GENODEF_13
1002
{
1000
HIER
1070
     1
1002
}
1002
{
1000
MANEDIT
1070
     1
1002
}
1002
{
1000
NOSEL
1070
     1
1002
}
1002
{
1000
BEHIND
1070
     0
1002
}
1002
{
1000
REACTOR
1002
}
  0
POINT
  5
F84
100
AcDbEntity
  8
0
 60
     1
100
AcDbPoint
 10
243.546236
 20
184.270888
 30
0.0
1001
GENIUS_GENOBJ-NBEHI-BHB_13
1002
{
1000
OWNER
1000
GENBEHI
1002
}
1001
GENIUS_GENOENT_13
1002
{
1000
MYREF
1005
F84
1002
}
1002
{
1000
GRP
1005
0
1002
}
1001
GENIUS_GENOLIS_13
1002
{
1000
ENT
1002
}
1001
GENIUS_GENODEF_13
1002
{
1000
HIER
1070
     1
1002
}
1002
{
1000
MANEDIT
1070
     0
1002
}
1002
{
1000
NOSEL
1070
     1
1002
}
1002
{
1000
BEHIND
1070
     0
1002
}
1002
{
1000
REACTOR
1002
}
1002
{
1000
OTHER
1070
     1
1002
}
1001
GENIUS_GENBH_13
1002
{
1000
FGO
1005
F83
1002
}
  0
POINT
  5
F85
100
AcDbEntity
  8
0
 60
     1
100
AcDbPoint
 10
243.546236
 20
184.270888
 30
0.0
1001
GENIUS_GENOBJ-F-SCPASSM_13
1002
{
1000
OWNER
1000
GEF
1002
}
1001
GENIUS_GENOENT_13
1002
{
1000
MYREF
1005
F85
1002
}
1002
{
1000
GRP
1005
0
1002
}
1001
GENIUS_GENOLIS_13
1002
{
1000
ENT
1005
0
1005
0
1002
}
1001
GENIUS_GENODEF_13
1002
{
1000
HIER
1070
   200
1002
}
1002
{
1000
MANEDIT
1070
     1
1002
}
1002
{
1000
NOSEL
1070
     0
1002
}
1002
{
1000
BEHIND
1070
     0
1002
}
1002
{
1000
REACTOR
1002
}
  0
POINT
  5
F86
100
AcDbEntity
  8
0
 60
     1
100
AcDbPoint
 10
243.546236
 20
184.270888
 30
0.0
1001
GENIUS_GENOBJ-NBEHI-BHF_13
1002
{
1000
OWNER
1000
GENBEHI
1002
}
1001
GENIUS_GENOENT_13
1002
{
1000
MYREF
1005
F86
1002
}
1002
{
1000
GRP
1005
0
1002
}
1001
GENIUS_GENOLIS_13
1002
{
1000
ENT
1005
0
1002
}
1001
GENIUS_GENODEF_13
1002
{
1000
HIER
1070
     1
1002
}
1002
{
1000
MANEDIT
1070
     0
1002
}
1002
{
1000
NOSEL
1070
     1
1002
}
1002
{
1000
BEHIND
1070
     0
1002
}
1002
{
1000
REACTOR
1002
}
1001
GENIUS_GENBH_13
1002
{
1000
OIUMAP
1000
OIU
1002
}
1002
{
1000
FLAGS
1070
    32
1002
}
1002
{
1000
BGO
1005
F87
1002
}
  0
POINT
  5
F87
100
AcDbEntity
  8
0
 60
     1
100
AcDbPoint
 10
243.546236
 20
184.270888
 30
0.0
1001
GENIUS_GENOBJ-NBEHI-BHB_13
1002
{
1000
OWNER
1000
GENBEHI
1002
}
1001
GENIUS_GENOENT_13
1002
{
1000
MYREF
1005
F87
1002
}
1002
{
1000
GRP
1005
0
1002
}
1001
GENIUS_GENOLIS_13
1002
{
1000
ENT
1002
}
1001
GENIUS_GENODEF_13
1002
{
1000
HIER
1070
     1
1002
}
1002
{
1000
MANEDIT
1070
     0
1002
}
1002
{
1000
NOSEL
1070
     1
1002
}
1002
{
1000
BEHIND
1070
     0
1002
}
1002
{
1000
REACTOR
1002
}
1002
{
1000
OTHER
1070
     1
1002
}
1001
GENIUS_GENBH_13
1002
{
1000
FGO
1005
F86
1002
}
  0
POINT
  5
F88
100
AcDbEntity
  8
0
 60
     1
100
AcDbPoint
 10
243.546236
 20
184.270888
 30
0.0
1001
GENIUS_GENOBJ-NBEHI-BHF_13
1002
{
1000
OWNER
1000
GENBEHI
1002
}
1001
GENIUS_GENOENT_13
1002
{
1000
MYREF
1005
F88
1002
}
1002
{
1000
GRP
1005
0
1002
}
1001
GENIUS_GENOLIS_13
1002
{
1000
ENT
1005
0
1002
}
1001
GENIUS_GENBH_13
1002
{
1000
OIUMAP
1000
OIU
1002
}
1002
{
1000
FLAGS
1070
    32
1002
}
1002
{
1000
BGO
1005
F89
1002
}
1001
GENIUS_GENODEF_13
1002
{
1000
HIER
1070
     1
1002
}
1002
{
1000
MANEDIT
1070
     1
1002
}
1002
{
1000
NOSEL
1070
     1
1002
}
1002
{
1000
BEHIND
1070
     0
1002
}
1002
{
1000
REACTOR
1002
}
  0
POINT
  5
F89
100
AcDbEntity
  8
0
 60
     1
100
AcDbPoint
 10
243.546236
 20
184.270888
 30
0.0
1001
GENIUS_GENOBJ-NBEHI-BHB_13
1002
{
1000
OWNER
1000
GENBEHI
1002
}
1001
GENIUS_GENOENT_13
1002
{
1000
MYREF
1005
F89
1002
}
1002
{
1000
GRP
1005
0
1002
}
1001
GENIUS_GENOLIS_13
1002
{
1000
ENT
1005
0
1002
}
1001
GENIUS_GENODEF_13
1002
{
1000
HIER
1070
     1
1002
}
1002
{
1000
MANEDIT
1070
     0
1002
}
1002
{
1000
NOSEL
1070
     1
1002
}
1002
{
1000
BEHIND
1070
     0
1002
}
1002
{
1000
REACTOR
1002
}
1002
{
1000
OTHER
1070
     1
1002
}
1001
GENIUS_GENBH_13
1002
{
1000
FGO
1005
F88
1002
}
  0
POINT
  5
F8A
100
AcDbEntity
  8
0
 60
     1
100
AcDbPoint
 10
243.546236
 20
184.270888
 30
0.0
1001
GENIUS_GENOBJ-F-SCPASSM_13
1002
{
1000
OWNER
1000
GEF
1002
}
1001
GENIUS_GENOENT_13
1002
{
1000
MYREF
1005
F8A
1002
}
1002
{
1000
GRP
1005
0
1002
}
1001
GENIUS_GENOLIS_13
1002
{
1000
ENT
1005
0
1005
0
1002
}
1001
GENIUS_GENODEF_13
1002
{
1000
HIER
1070
   200
1002
}
1002
{
1000
MANEDIT
1070
     1
1002
}
1002
{
1000
NOSEL
1070
     0
1002
}
1002
{
1000
BEHIND
1070
     0
1002
}
1002
{
1000
REACTOR
1002
}
  0
POINT
  5
F8B
100
AcDbEntity
  8
0
 60
     1
100
AcDbPoint
 10
243.546236
 20
184.270888
 30
0.0
1001
GENIUS_GENOBJ-NBEHI-BHF_13
1002
{
1000
OWNER
1000
GENBEHI
1002
}
1001
GENIUS_GENOENT_13
1002
{
1000
MYREF
1005
F8B
1002
}
1002
{
1000
GRP
1005
0
1002
}
1001
GENIUS_GENOLIS_13
1002
{
1000
ENT
1005
0
1002
}
1001
GENIUS_GENODEF_13
1002
{
1000
HIER
1070
     1
1002
}
1002
{
1000
MANEDIT
1070
     0
1002
}
1002
{
1000
NOSEL
1070
     1
1002
}
1002
{
1000
BEHIND
1070
     0
1002
}
1002
{
1000
REACTOR
1002
}
1001
GENIUS_GENBH_13
1002
{
1000
OIUMAP
1000
OIU
1002
}
1002
{
1000
FLAGS
1070
    32
1002
}
1002
{
1000
BGO
1005
F8C
1002
}
  0
POINT
  5
F8C
100
AcDbEntity
  8
0
 60
     1
100
AcDbPoint
 10
243.546236
 20
184.270888
 30
0.0
1001
GENIUS_GENOBJ-NBEHI-BHB_13
1002
{
1000
OWNER
1000
GENBEHI
1002
}
1001
GENIUS_GENOENT_13
1002
{
1000
MYREF
1005
F8C
1002
}
1002
{
1000
GRP
1005
0
1002
}
1001
GENIUS_GENOLIS_13
1002
{
1000
ENT
1002
}
1001
GENIUS_GENODEF_13
1002
{
1000
HIER
1070
     1
1002
}
1002
{
1000
MANEDIT
1070
     0
1002
}
1002
{
1000
NOSEL
1070
     1
1002
}
1002
{
1000
BEHIND
1070
     0
1002
}
1002
{
1000
REACTOR
1002
}
1002
{
1000
OTHER
1070
     1
1002
}
1001
GENIUS_GENBH_13
1002
{
1000
FGO
1005
F8B
1002
}
  0
POINT
  5
F8D
100
AcDbEntity
  8
0
 60
     1
100
AcDbPoint
 10
243.546236
 20
184.270888
 30
0.0
1001
GENIUS_GENOBJ-NBEHI-BHF_13
1002
{
1000
OWNER
1000
GENBEHI
1002
}
1001
GENIUS_GENOENT_13
1002
{
1000
MYREF
1005
F8D
1002
}
1002
{
1000
GRP
1005
0
1002
}
1001
GENIUS_GENOLIS_13
1002
{
1000
ENT
1005
0
1002
}
1001
GENIUS_GENBH_13
1002
{
1000
OIUMAP
1000
OIU
1002
}
1002
{
1000
FLAGS
1070
    32
1002
}
1002
{
1000
BGO
1005
F8E
1002
}
1001
GENIUS_GENODEF_13
1002
{
1000
HIER
1070
     1
1002
}
1002
{
1000
MANEDIT
1070
     1
1002
}
1002
{
1000
NOSEL
1070
     1
1002
}
1002
{
1000
BEHIND
1070
     0
1002
}
1002
{
1000
REACTOR
1002
}
  0
POINT
  5
F8E
100
AcDbEntity
  8
0
 60
     1
100
AcDbPoint
 10
243.546236
 20
184.270888
 30
0.0
1001
GENIUS_GENOBJ-NBEHI-BHB_13
1002
{
1000
OWNER
1000
GENBEHI
1002
}
1001
GENIUS_GENOENT_13
1002
{
1000
MYREF
1005
F8E
1002
}
1002
{
1000
GRP
1005
0
1002
}
1001
GENIUS_GENOLIS_13
1002
{
1000
ENT
1005
0
1002
}
1001
GENIUS_GENODEF_13
1002
{
1000
HIER
1070
     1
1002
}
1002
{
1000
MANEDIT
1070
     0
1002
}
1002
{
1000
NOSEL
1070
     1
1002
}
1002
{
1000
BEHIND
1070
     0
1002
}
1002
{
1000
REACTOR
1002
}
1002
{
1000
OTHER
1070
     1
1002
}
1001
GENIUS_GENBH_13
1002
{
1000
FGO
1005
F8D
1002
}
  0
POINT
  5
F8F
100
AcDbEntity
  8
0
 60
     1
100
AcDbPoint
 10
243.546236
 20
184.270888
 30
0.0
1001
GENIUS_GENOBJ-F-SCPASSM_13
1002
{
1000
OWNER
1000
GEF
1002
}
1001
GENIUS_GENOENT_13
1002
{
1000
MYREF
1005
F8F
1002
}
1002
{
1000
GRP
1005
0
1002
}
1001
GENIUS_GENOLIS_13
1002
{
1000
ENT
1005
0
1005
0
1002
}
1001
GENIUS_GENODEF_13
1002
{
1000
HIER
1070
   200
1002
}
1002
{
1000
MANEDIT
1070
     1
1002
}
1002
{
1000
NOSEL
1070
     0
1002
}
1002
{
1000
BEHIND
1070
     0
1002
}
1002
{
1000
REACTOR
1002
}
  0
POINT
  5
F90
100
AcDbEntity
  8
0
 60
     1
100
AcDbPoint
 10
243.546236
 20
184.270888
 30
0.0
1001
GENIUS_GENOBJ-NBEHI-BHF_13
1002
{
1000
OWNER
1000
GENBEHI
1002
}
1001
GENIUS_GENOENT_13
1002
{
1000
MYREF
1005
F90
1002
}
1002
{
1000
GRP
1005
0
1002
}
1001
GENIUS_GENOLIS_13
1002
{
1000
ENT
1005
0
1002
}
1001
GENIUS_GENODEF_13
1002
{
1000
HIER
1070
     1
1002
}
1002
{
1000
MANEDIT
1070
     0
1002
}
1002
{
1000
NOSEL
1070
     1
1002
}
1002
{
1000
BEHIND
1070
     0
1002
}
1002
{
1000
REACTOR
1002
}
1001
GENIUS_GENBH_13
1002
{
1000
OIUMAP
1000
OIU
1002
}
1002
{
1000
FLAGS
1070
    32
1002
}
1002
{
1000
BGO
1005
F91
1002
}
  0
POINT
  5
F91
100
AcDbEntity
  8
0
 60
     1
100
AcDbPoint
 10
243.546236
 20
184.270888
 30
0.0
1001
GENIUS_GENOBJ-NBEHI-BHB_13
1002
{
1000
OWNER
1000
GENBEHI
1002
}
1001
GENIUS_GENOENT_13
1002
{
1000
MYREF
1005
F91
1002
}
1002
{
1000
GRP
1005
0
1002
}
1001
GENIUS_GENOLIS_13
1002
{
1000
ENT
1002
}
1001
GENIUS_GENODEF_13
1002
{
1000
HIER
1070
     1
1002
}
1002
{
1000
MANEDIT
1070
     0
1002
}
1002
{
1000
NOSEL
1070
     1
1002
}
1002
{
1000
BEHIND
1070
     0
1002
}
1002
{
1000
REACTOR
1002
}
1002
{
1000
OTHER
1070
     1
1002
}
1001
GENIUS_GENBH_13
1002
{
1000
FGO
1005
F90
1002
}
  0
POINT
  5
F92
100
AcDbEntity
  8
0
 60
     1
100
AcDbPoint
 10
243.546236
 20
184.270888
 30
0.0
1001
GENIUS_GENOBJ-NBEHI-BHF_13
1002
{
1000
OWNER
1000
GENBEHI
1002
}
1001
GENIUS_GENOENT_13
1002
{
1000
MYREF
1005
F92
1002
}
1002
{
1000
GRP
1005
0
1002
}
1001
GENIUS_GENOLIS_13
1002
{
1000
ENT
1005
0
1002
}
1001
GENIUS_GENBH_13
1002
{
1000
OIUMAP
1000
OIU
1002
}
1002
{
1000
FLAGS
1070
    32
1002
}
1002
{
1000
BGO
1005
F93
1002
}
1001
GENIUS_GENODEF_13
1002
{
1000
HIER
1070
     1
1002
}
1002
{
1000
MANEDIT
1070
     1
1002
}
1002
{
1000
NOSEL
1070
     1
1002
}
1002
{
1000
BEHIND
1070
     0
1002
}
1002
{
1000
REACTOR
1002
}
  0
POINT
  5
F93
100
AcDbEntity
  8
0
 60
     1
100
AcDbPoint
 10
243.546236
 20
184.270888
 30
0.0
1001
GENIUS_GENOBJ-NBEHI-BHB_13
1002
{
1000
OWNER
1000
GENBEHI
1002
}
1001
GENIUS_GENOENT_13
1002
{
1000
MYREF
1005
F93
1002
}
1002
{
1000
GRP
1005
0
1002
}
1001
GENIUS_GENOLIS_13
1002
{
1000
ENT
1005
0
1002
}
1001
GENIUS_GENODEF_13
1002
{
1000
HIER
1070
     1
1002
}
1002
{
1000
MANEDIT
1070
     0
1002
}
1002
{
1000
NOSEL
1070
     1
1002
}
1002
{
1000
BEHIND
1070
     0
1002
}
1002
{
1000
REACTOR
1002
}
1002
{
1000
OTHER
1070
     1
1002
}
1001
GENIUS_GENBH_13
1002
{
1000
FGO
1005
F92
1002
}
  0
POINT
  5
F94
100
AcDbEntity
  8
0
 60
     1
100
AcDbPoint
 10
243.546236
 20
184.270888
 30
0.0
1001
GENIUS_GENOBJ-F-SCPASSM_13
1002
{
1000
OWNER
1000
GEF
1002
}
1001
GENIUS_GENOENT_13
1002
{
1000
MYREF
1005
F94
1002
}
1002
{
1000
GRP
1005
0
1002
}
1001
GENIUS_GENOLIS_13
1002
{
1000
ENT
1005
0
1005
0
1002
}
1001
GENIUS_GENODEF_13
1002
{
1000
HIER
1070
   200
1002
}
1002
{
1000
MANEDIT
1070
     1
1002
}
1002
{
1000
NOSEL
1070
     0
1002
}
1002
{
1000
BEHIND
1070
     0
1002
}
1002
{
1000
REACTOR
1002
}
  0
POINT
  5
F95
100
AcDbEntity
  8
0
 60
     1
100
AcDbPoint
 10
243.546236
 20
184.270888
 30
0.0
1001
GENIUS_GENOBJ-NBEHI-BHB_13
1002
{
1000
OWNER
1000
GENBEHI
1002
}
1001
GENIUS_GENOENT_13
1002
{
1000
MYREF
1005
F95
1002
}
1002
{
1000
GRP
1005
0
1002
}
1001
GENIUS_GENOLIS_13
1002
{
1000
ENT
1002
}
1001
GENIUS_GENODEF_13
1002
{
1000
HIER
1070
     1
1002
}
1002
{
1000
MANEDIT
1070
     0
1002
}
1002
{
1000
NOSEL
1070
     1
1002
}
1002
{
1000
BEHIND
1070
     0
1002
}
1002
{
1000
REACTOR
1002
}
1002
{
1000
OTHER
1070
     1
1002
}
1001
GENIUS_GENBH_13
1002
{
1000
FGO
1005
0
1002
}
  0
POINT
  5
F96
100
AcDbEntity
  8
0
 60
     1
100
AcDbPoint
 10
243.546236
 20
184.270888
 30
0.0
1001
GENIUS_GENOBJ-NBEHI-BHF_13
1002
{
1000
OWNER
1000
GENBEHI
1002
}
1001
GENIUS_GENOENT_13
1002
{
1000
MYREF
1005
F96
1002
}
1002
{
1000
GRP
1005
0
1002
}
1001
GENIUS_GENOLIS_13
1002
{
1000
ENT
1005
0
1002
}
1001
GENIUS_GENBH_13
1002
{
1000
OIUMAP
1000
OIU
1002
}
1002
{
1000
FLAGS
1070
    32
1002
}
1002
{
1000
BGO
1005
0
1002
}
1001
GENIUS_GENODEF_13
1002
{
1000
HIER
1070
     1
1002
}
1002
{
1000
MANEDIT
1070
     1
1002
}
1002
{
1000
NOSEL
1070
     1
1002
}
1002
{
1000
BEHIND
1070
     0
1002
}
1002
{
1000
REACTOR
1002
}
  0
POINT
  5
F97
100
AcDbEntity
  8
0
 60
     1
100
AcDbPoint
 10
243.546236
 20
184.270888
 30
0.0
1001
GENIUS_GENOBJ-NBEHI-BHF_13
1002
{
1000
OWNER
1000
GENBEHI
1002
}
1001
GENIUS_GENOENT_13
1002
{
1000
MYREF
1005
F97
1002
}
1002
{
1000
GRP
1005
0
1002
}
1001
GENIUS_GENOLIS_13
1002
{
1000
ENT
1005
0
1002
}
1001
GENIUS_GENODEF_13
1002
{
1000
HIER
1070
     1
1002
}
1002
{
1000
MANEDIT
1070
     0
1002
}
1002
{
1000
NOSEL
1070
     1
1002
}
1002
{
1000
BEHIND
1070
     0
1002
}
1002
{
1000
REACTOR
1002
}
1001
GENIUS_GENBH_13
1002
{
1000
OIUMAP
1000
OIU
1002
}
1002
{
1000
FLAGS
1070
    32
1002
}
1002
{
1000
BGO
1005
F98
1002
}
  0
POINT
  5
F98
100
AcDbEntity
  8
0
 60
     1
100
AcDbPoint
 10
243.546236
 20
184.270888
 30
0.0
1001
GENIUS_GENOBJ-NBEHI-BHB_13
1002
{
1000
OWNER
1000
GENBEHI
1002
}
1001
GENIUS_GENOENT_13
1002
{
1000
MYREF
1005
F98
1002
}
1002
{
1000
GRP
1005
0
1002
}
1001
GENIUS_GENOLIS_13
1002
{
1000
ENT
1002
}
1001
GENIUS_GENODEF_13
1002
{
1000
HIER
1070
     1
1002
}
1002
{
1000
MANEDIT
1070
     0
1002
}
1002
{
1000
NOSEL
1070
     1
1002
}
1002
{
1000
BEHIND
1070
     0
1002
}
1002
{
1000
REACTOR
1002
}
1002
{
1000
OTHER
1070
     1
1002
}
1001
GENIUS_GENBH_13
1002
{
1000
FGO
1005
F97
1002
}
  0
POINT
  5
F99
100
AcDbEntity
  8
0
 60
     1
100
AcDbPoint
 10
243.546236
 20
184.270888
 30
0.0
1001
GENIUS_GENOBJ-NBEHI-BHF_13
1002
{
1000
OWNER
1000
GENBEHI
1002
}
1001
GENIUS_GENOENT_13
1002
{
1000
MYREF
1005
F99
1002
}
1002
{
1000
GRP
1005
0
1002
}
1001
GENIUS_GENOLIS_13
1002
{
1000
ENT
1005
0
1002
}
1001
GENIUS_GENBH_13
1002
{
1000
OIUMAP
1000
OIU
1002
}
1002
{
1000
FLAGS
1070
    32
1002
}
1002
{
1000
BGO
1005
F9A
1002
}
1001
GENIUS_GENODEF_13
1002
{
1000
HIER
1070
     1
1002
}
1002
{
1000
MANEDIT
1070
     1
1002
}
1002
{
1000
NOSEL
1070
     1
1002
}
1002
{
1000
BEHIND
1070
     0
1002
}
1002
{
1000
REACTOR
1002
}
  0
POINT
  5
F9A
100
AcDbEntity
  8
0
 60
     1
100
AcDbPoint
 10
243.546236
 20
184.270888
 30
0.0
1001
GENIUS_GENOBJ-NBEHI-BHB_13
1002
{
1000
OWNER
1000
GENBEHI
1002
}
1001
GENIUS_GENOENT_13
1002
{
1000
MYREF
1005
F9A
1002
}
1002
{
1000
GRP
1005
0
1002
}
1001
GENIUS_GENOLIS_13
1002
{
1000
ENT
1005
0
1002
}
1001
GENIUS_GENODEF_13
1002
{
1000
HIER
1070
     1
1002
}
1002
{
1000
MANEDIT
1070
     0
1002
}
1002
{
1000
NOSEL
1070
     1
1002
}
1002
{
1000
BEHIND
1070
     0
1002
}
1002
{
1000
REACTOR
1002
}
1002
{
1000
OTHER
1070
     1
1002
}
1001
GENIUS_GENBH_13
1002
{
1000
FGO
1005
F99
1002
}
  0
POINT
  5
F9B
100
AcDbEntity
  8
0
 60
     1
100
AcDbPoint
 10
243.546236
 20
184.270888
 30
0.0
1001
GENIUS_GENOBJ-F-SCPASSM_13
1002
{
1000
OWNER
1000
GEF
1002
}
1001
GENIUS_GENOENT_13
1002
{
1000
MYREF
1005
F9B
1002
}
1002
{
1000
GRP
1005
0
1002
}
1001
GENIUS_GENOLIS_13
1002
{
1000
ENT
1005
0
1005
0
1002
}
1001
GENIUS_GENODEF_13
1002
{
1000
HIER
1070
   200
1002
}
1002
{
1000
MANEDIT
1070
     1
1002
}
1002
{
1000
NOSEL
1070
     0
1002
}
1002
{
1000
BEHIND
1070
     0
1002
}
1002
{
1000
REACTOR
1002
}
  0
LINE
  5
F9C
100
AcDbEntity
  8
0
  6
HIDDEN
100
AcDbLine
 10
130.168113
 20
169.588517
 30
0.0
 11
130.885911
 21
169.588517
 31
0.0
1001
GENIUS_GENOREF_13
1005
F99
1005
F9B
  0
LINE
  5
F9D
100
AcDbEntity
  8
0
  6
HIDDEN
100
AcDbLine
 10
125.485911
 20
159.588517
 30
0.0
 11
130.885911
 21
159.588517
 31
0.0
1001
GENIUS_GENOREF_13
1005
F99
1005
F9B
  0
LINE
  5
F9E
100
AcDbEntity
  8
0
  6
HIDDEN
100
AcDbLine
 10
124.885911
 20
160.188517
 30
0.0
 11
124.885911
 21
165.871374
 31
0.0
1001
GENIUS_GENOREF_13
1005
F99
1005
F9B
  0
ARC
  5
F9F
100
AcDbEntity
  8
0
100
AcDbCircle
 10
125.485911
 20
160.188517
 30
0.0
 40
0.6
100
AcDbArc
 50
180.0
 51
270.0
1001
GENIUS_GENOREF_13
1005
F99
1005
F9B
  0
ARC
  5
FA0
100
AcDbEntity
  8
0
100
AcDbCircle
 10
125.485911
 20
168.988517
 30
0.0
 40
0.6
100
AcDbArc
 50
90.0
 51
180.0
1001
GENIUS_GENOREF_13
1005
F99
1005
F9B
  0
LINE
  5
FA1
100
AcDbEntity
  8
0
  6
HIDDEN
100
AcDbLine
 10
150.885911
 20
162.201967
 30
0.0
 11
139.635911
 21
162.201967
 31
0.0
1001
GENIUS_GENOREF_13
1005
F99
1005
F9B
  0
LINE
  5
FA2
100
AcDbEntity
  8
0
  6
HIDDEN
100
AcDbLine
 10
150.885911
 20
166.975067
 30
0.0
 11
139.635911
 21
166.975067
 31
0.0
1001
GENIUS_GENOREF_13
1005
F99
1005
F9B
  0
LINE
  5
FA3
100
AcDbEntity
  8
0
100
AcDbLine
 10
150.272461
 20
161.588517
 30
0.0
 11
150.885911
 21
162.201967
 31
0.0
1001
GENIUS_GENOREF_13
1005
F99
1005
F9B
  0
LINE
  5
FA4
100
AcDbEntity
  8
0
100
AcDbLine
 10
150.272461
 20
167.588517
 30
0.0
 11
150.885911
 21
166.975067
 31
0.0
1001
GENIUS_GENOREF_13
1005
F99
1005
F9B
  0
LINE
  5
FA5
100
AcDbEntity
  8
0
  6
HIDDEN
100
AcDbLine
 10
130.885911
 20
161.588517
 30
0.0
 11
138.135911
 21
161.588517
 31
0.0
1001
GENIUS_GENOREF_13
1005
F99
1005
F9B
  0
LINE
  5
FA6
100
AcDbEntity
  8
0
  6
HIDDEN
100
AcDbLine
 10
130.885911
 20
167.588517
 30
0.0
 11
138.135911
 21
167.588517
 31
0.0
1001
GENIUS_GENOREF_13
1005
F99
1005
F9B
  0
LINE
  5
FA8
100
AcDbEntity
  8
0
  6
HIDDEN
100
AcDbLine
 10
133.385911
 20
167.588517
 30
0.0
 11
133.385911
 21
161.588517
 31
0.0
1001
GENIUS_GENOREF_13
1005
F99
1005
F9B
  0
LINE
  5
FA9
100
AcDbEntity
  8
0
100
AcDbLine
 10
133.385911
 20
162.201967
 30
0.0
 11
132.772461
 21
161.588517
 31
0.0
1001
GENIUS_GENOREF_13
1005
F99
1005
F9B
  0
LINE
  5
FAA
100
AcDbEntity
  8
0
100
AcDbLine
 10
133.385911
 20
166.975067
 30
0.0
 11
132.772461
 21
167.588517
 31
0.0
1001
GENIUS_GENOREF_13
1005
F99
1005
F9B
  0
LINE
  5
FAB
100
AcDbEntity
  8
0
  6
HIDDEN
100
AcDbLine
 10
150.272461
 20
167.588517
 30
0.0
 11
150.272461
 21
161.588517
 31
0.0
1001
GENIUS_GENOREF_13
1005
F99
1005
F9B
  0
LINE
  5
FAC
100
AcDbEntity
  8
0
  6
HIDDEN
100
AcDbLine
 10
150.885911
 20
166.975067
 30
0.0
 11
150.885911
 21
162.201967
 31
0.0
1001
GENIUS_GENOREF_13
1005
F99
1005
F9B
  0
POINT
  5
FAD
100
AcDbEntity
  8
0
 60
     1
100
AcDbPoint
 10
243.546236
 20
184.270888
 30
0.0
1001
GENIUS_GENOBJ-NBEHI-BHF_13
1002
{
1000
OWNER
1000
GENBEHI
1002
}
1001
GENIUS_GENOENT_13
1002
{
1000
MYREF
1005
FAD
1002
}
1002
{
1000
GRP
1005
0
1002
}
1001
GENIUS_GENOLIS_13
1002
{
1000
ENT
1005
0
1002
}
1001
GENIUS_GENODEF_13
1002
{
1000
HIER
1070
     1
1002
}
1002
{
1000
MANEDIT
1070
     0
1002
}
1002
{
1000
NOSEL
1070
     1
1002
}
1002
{
1000
BEHIND
1070
     0
1002
}
1002
{
1000
REACTOR
1002
}
1001
GENIUS_GENBH_13
1002
{
1000
OIUMAP
1000
OIU
1002
}
1002
{
1000
FLAGS
1070
    32
1002
}
1002
{
1000
BGO
1005
FAE
1002
}
  0
POINT
  5
FAE
100
AcDbEntity
  8
0
 60
     1
100
AcDbPoint
 10
243.546236
 20
184.270888
 30
0.0
1001
GENIUS_GENOBJ-NBEHI-BHB_13
1002
{
1000
OWNER
1000
GENBEHI
1002
}
1001
GENIUS_GENOENT_13
1002
{
1000
MYREF
1005
FAE
1002
}
1002
{
1000
GRP
1005
0
1002
}
1001
GENIUS_GENOLIS_13
1002
{
1000
ENT
1002
}
1001
GENIUS_GENODEF_13
1002
{
1000
HIER
1070
     1
1002
}
1002
{
1000
MANEDIT
1070
     0
1002
}
1002
{
1000
NOSEL
1070
     1
1002
}
1002
{
1000
BEHIND
1070
     0
1002
}
1002
{
1000
REACTOR
1002
}
1002
{
1000
OTHER
1070
     1
1002
}
1001
GENIUS_GENBH_13
1002
{
1000
FGO
1005
FAD
1002
}
  0
POINT
  5
FAF
100
AcDbEntity
  8
0
 60
     1
100
AcDbPoint
 10
243.546236
 20
184.270888
 30
0.0
1001
GENIUS_GENOBJ-NBEHI-BHF_13
1002
{
1000
OWNER
1000
GENBEHI
1002
}
1001
GENIUS_GENOENT_13
1002
{
1000
MYREF
1005
FAF
1002
}
1002
{
1000
GRP
1005
0
1002
}
1001
GENIUS_GENOLIS_13
1002
{
1000
ENT
1005
0
1002
}
1001
GENIUS_GENBH_13
1002
{
1000
OIUMAP
1000
OIU
1002
}
1002
{
1000
FLAGS
1070
    32
1002
}
1002
{
1000
BGO
1005
FB0
1002
}
1001
GENIUS_GENODEF_13
1002
{
1000
HIER
1070
     1
1002
}
1002
{
1000
MANEDIT
1070
     1
1002
}
1002
{
1000
NOSEL
1070
     1
1002
}
1002
{
1000
BEHIND
1070
     0
1002
}
1002
{
1000
REACTOR
1002
}
  0
POINT
  5
FB0
100
AcDbEntity
  8
0
 60
     1
100
AcDbPoint
 10
243.546236
 20
184.270888
 30
0.0
1001
GENIUS_GENOBJ-NBEHI-BHB_13
1002
{
1000
OWNER
1000
GENBEHI
1002
}
1001
GENIUS_GENOENT_13
1002
{
1000
MYREF
1005
FB0
1002
}
1002
{
1000
GRP
1005
0
1002
}
1001
GENIUS_GENOLIS_13
1002
{
1000
ENT
1005
0
1002
}
1001
GENIUS_GENODEF_13
1002
{
1000
HIER
1070
     1
1002
}
1002
{
1000
MANEDIT
1070
     0
1002
}
1002
{
1000
NOSEL
1070
     1
1002
}
1002
{
1000
BEHIND
1070
     0
1002
}
1002
{
1000
REACTOR
1002
}
1002
{
1000
OTHER
1070
     1
1002
}
1001
GENIUS_GENBH_13
1002
{
1000
FGO
1005
FAF
1002
}
  0
POINT
  5
FB1
100
AcDbEntity
  8
0
 60
     1
100
AcDbPoint
 10
243.546236
 20
184.270888
 30
0.0
1001
GENIUS_GENOBJ-F-SCPASSM_13
1002
{
1000
OWNER
1000
GEF
1002
}
1001
GENIUS_GENOENT_13
1002
{
1000
MYREF
1005
FB1
1002
}
1002
{
1000
GRP
1005
0
1002
}
1001
GENIUS_GENOLIS_13
1002
{
1000
ENT
1005
0
1005
0
1002
}
1001
GENIUS_GENODEF_13
1002
{
1000
HIER
1070
   200
1002
}
1002
{
1000
MANEDIT
1070
     1
1002
}
1002
{
1000
NOSEL
1070
     0
1002
}
1002
{
1000
BEHIND
1070
     0
1002
}
1002
{
1000
REACTOR
1002
}
  0
CIRCLE
  5
FB3
100
AcDbEntity
  8
0
100
AcDbCircle
 10
65.481964
 20
164.588517
 30
0.0
 40
5.0
1001
GENIUS_GENOREF_13
1005
FAF
1005
FB1
  0
LINE
  5
FB4
100
AcDbEntity
  8
0
100
AcDbLine
 10
67.981964
 20
166.031893
 30
0.0
 11
65.481964
 21
167.475269
 31
0.0
1001
GENIUS_GENOREF_13
1005
FAF
1005
FB1
  0
LINE
  5
FB5
100
AcDbEntity
  8
0
100
AcDbLine
 10
65.481964
 20
161.701766
 30
0.0
 11
67.981964
 21
163.145142
 31
0.0
1001
GENIUS_GENOREF_13
1005
FAF
1005
FB1
  0
LINE
  5
FB6
100
AcDbEntity
  8
0
100
AcDbLine
 10
67.981964
 20
163.145142
 30
0.0
 11
67.981964
 21
166.031893
 31
0.0
1001
GENIUS_GENOREF_13
1005
FAF
1005
FB1
  0
LINE
  5
FB7
100
AcDbEntity
  8
0
100
AcDbLine
 10
62.981964
 20
166.031893
 30
0.0
 11
62.981964
 21
163.145142
 31
0.0
1001
GENIUS_GENOREF_13
1005
FAF
1005
FB1
  0
LINE
  5
FB8
100
AcDbEntity
  8
0
100
AcDbLine
 10
62.981964
 20
163.145142
 30
0.0
 11
65.481964
 21
161.701766
 31
0.0
1001
GENIUS_GENOREF_13
1005
FAF
1005
FB1
  0
LINE
  5
FB9
100
AcDbEntity
  8
0
100
AcDbLine
 10
65.481964
 20
167.475269
 30
0.0
 11
62.981964
 21
166.031893
 31
0.0
1001
GENIUS_GENOREF_13
1005
FAF
1005
FB1
  0
LINE
  5
FBA
100
AcDbEntity
  8
0
100
AcDbLine
 10
125.485911
 20
169.588517
 30
0.0
 11
130.168113
 21
169.588517
 31
0.0
  0
LINE
  5
FBB
100
AcDbEntity
  8
0
100
AcDbLine
 10
124.885911
 20
168.988517
 30
0.0
 11
124.885911
 21
165.871374
 31
0.0
  0
LINE
  5
FBC
100
AcDbEntity
  8
0
  6
HIDDEN
100
AcDbLine
 10
130.885911
 20
141.588517
 30
0.0
 11
138.135911
 21
141.588517
 31
0.0
1001
GENIUS_GENOREF_13
1005
F99
1005
F9B
  0
LINE
  5
FBD
100
AcDbEntity
  8
0
  6
HIDDEN
100
AcDbLine
 10
130.885911
 20
135.588517
 30
0.0
 11
138.135911
 21
135.588517
 31
0.0
1001
GENIUS_GENOREF_13
1005
F99
1005
F9B
  0
LINE
  5
FBE
100
AcDbEntity
  8
0
  6
HIDDEN
100
AcDbLine
 10
150.885911
 20
136.201967
 30
0.0
 11
139.635911
 21
136.201967
 31
0.0
1001
GENIUS_GENOREF_13
1005
F99
1005
F9B
  0
LINE
  5
FBF
100
AcDbEntity
  8
0
  6
HIDDEN
100
AcDbLine
 10
150.885911
 20
140.975067
 30
0.0
 11
139.635911
 21
140.975067
 31
0.0
1001
GENIUS_GENOREF_13
1005
F99
1005
F9B
  0
LINE
  5
FC0
100
AcDbEntity
  8
0
  6
HIDDEN
100
AcDbLine
 10
120.150917
 20
144.588517
 30
0.0
 11
130.885911
 21
144.588517
 31
0.0
  0
LINE
  5
FC1
100
AcDbEntity
  8
0
  6
HIDDEN
100
AcDbLine
 10
125.485911
 20
143.588517
 30
0.0
 11
130.885911
 21
143.588517
 31
0.0
1001
GENIUS_GENOREF_13
1005
F99
1005
F9B
  0
LINE
  5
FC2
100
AcDbEntity
  8
0
100
AcDbLine
 10
125.485911
 20
133.588517
 30
0.0
 11
130.168113
 21
133.588517
 31
0.0
  0
ARC
  5
FC3
100
AcDbEntity
  8
0
100
AcDbCircle
 10
125.485911
 20
142.988517
 30
0.0
 40
0.6
100
AcDbArc
 50
90.0
 51
180.0
1001
GENIUS_GENOREF_13
1005
F99
1005
F9B
  0
LINE
  5
FC4
100
AcDbEntity
  8
0
100
AcDbLine
 10
124.885911
 20
134.188517
 30
0.0
 11
124.885911
 21
137.305661
 31
0.0
  0
LINE
  5
FC5
100
AcDbEntity
  8
0
  6
HIDDEN
100
AcDbLine
 10
124.885911
 20
142.988517
 30
0.0
 11
124.885911
 21
137.305661
 31
0.0
1001
GENIUS_GENOREF_13
1005
F99
1005
F9B
  0
ARC
  5
FC6
100
AcDbEntity
  8
0
100
AcDbCircle
 10
125.485911
 20
134.188517
 30
0.0
 40
0.6
100
AcDbArc
 50
180.0
 51
270.0
1001
GENIUS_GENOREF_13
1005
F99
1005
F9B
  0
LINE
  5
FC7
100
AcDbEntity
  8
0
  6
HIDDEN
100
AcDbLine
 10
130.885911
 20
133.258215
 30
0.0
 11
130.885911
 21
144.588517
 31
0.0
  0
LINE
  5
FC8
100
AcDbEntity
  8
0
  6
HIDDEN
100
AcDbLine
 10
130.885911
 20
142.088517
 30
0.0
 11
138.135911
 21
142.088517
 31
0.0
  0
LINE
  5
FC9
100
AcDbEntity
  8
0
  6
HIDDEN
100
AcDbLine
 10
130.885911
 20
135.088517
 30
0.0
 11
138.135911
 21
135.088517
 31
0.0
  0
LINE
  5
FCA
100
AcDbEntity
  8
0
  6
HIDDEN
100
AcDbLine
 10
133.385911
 20
135.588517
 30
0.0
 11
133.385911
 21
141.588517
 31
0.0
1001
GENIUS_GENOREF_13
1005
F99
1005
F9B
  0
LINE
  5
FCB
100
AcDbEntity
  8
0
100
AcDbLine
 10
133.385911
 20
140.975067
 30
0.0
 11
132.772461
 21
141.588517
 31
0.0
1001
GENIUS_GENOREF_13
1005
F99
1005
F9B
  0
LINE
  5
FCC
100
AcDbEntity
  8
0
  6
HIDDEN
100
AcDbLine
 10
130.168113
 20
133.588517
 30
0.0
 11
130.885911
 21
133.588517
 31
0.0
1001
GENIUS_GENOREF_13
1005
F99
1005
F9B
  0
LINE
  5
FCD
100
AcDbEntity
  8
0
100
AcDbLine
 10
133.385911
 20
136.201967
 30
0.0
 11
132.772461
 21
135.588517
 31
0.0
1001
GENIUS_GENOREF_13
1005
F99
1005
F9B
  0
LINE
  5
FCE
100
AcDbEntity
  8
0
  6
HIDDEN
100
AcDbLine
 10
150.885911
 20
140.975067
 30
0.0
 11
155.83745
 21
140.975067
 31
0.0
  0
LINE
  5
FCF
100
AcDbEntity
  8
0
  6
HIDDEN
 62
     3
100
AcDbLine
 10
150.272461
 20
141.588517
 30
0.0
 11
156.206419
 21
141.588517
 31
0.0
  0
LINE
  5
FD0
100
AcDbEntity
  8
0
  6
HIDDEN
100
AcDbLine
 10
150.885911
 20
136.201967
 30
0.0
 11
150.885911
 21
140.975067
 31
0.0
1001
GENIUS_GENOREF_13
1005
F99
1005
F9B
  0
LINE
  5
FD1
100
AcDbEntity
  8
0
  6
HIDDEN
100
AcDbLine
 10
150.272461
 20
135.588517
 30
0.0
 11
150.272461
 21
141.588517
 31
0.0
1001
GENIUS_GENOREF_13
1005
F99
1005
F9B
  0
LINE
  5
FD2
100
AcDbEntity
  8
0
100
AcDbLine
 10
150.272461
 20
141.588517
 30
0.0
 11
150.885911
 21
140.975067
 31
0.0
1001
GENIUS_GENOREF_13
1005
F99
1005
F9B
  0
LINE
  5
FD3
100
AcDbEntity
  8
0
  6
HIDDEN
 62
     3
100
AcDbLine
 10
150.032659
 20
135.588517
 30
0.0
 11
150.885911
 21
135.588517
 31
0.0
  0
LINE
  5
FD4
100
AcDbEntity
  8
0
100
AcDbLine
 10
150.272461
 20
135.588517
 30
0.0
 11
150.885911
 21
136.201967
 31
0.0
1001
GENIUS_GENOREF_13
1005
F99
1005
F9B
  0
CIRCLE
  5
FD5
100
AcDbEntity
  8
0
100
AcDbCircle
 10
65.481964
 20
138.588517
 30
0.0
 40
5.0
1001
GENIUS_GENOREF_13
1005
FAF
1005
FB1
  0
LINE
  5
FD6
100
AcDbEntity
  8
0
100
AcDbLine
 10
72.481964
 20
143.588517
 30
0.0
 11
72.981964
 21
143.088517
 31
0.0
  0
LINE
  5
FD7
100
AcDbEntity
  8
0
100
AcDbLine
 10
67.981964
 20
140.031893
 30
0.0
 11
67.981964
 21
137.145142
 31
0.0
1001
GENIUS_GENOREF_13
1005
FAF
1005
FB1
  0
LINE
  5
FD8
100
AcDbEntity
  8
0
100
AcDbLine
 10
62.981964
 20
137.145142
 30
0.0
 11
62.981964
 21
140.031893
 31
0.0
1001
GENIUS_GENOREF_13
1005
FAF
1005
FB1
  0
LINE
  5
FDA
100
AcDbEntity
  8
0
100
AcDbLine
 10
65.481964
 20
141.475269
 30
0.0
 11
67.981964
 21
140.031893
 31
0.0
1001
GENIUS_GENOREF_13
1005
FAF
1005
FB1
  0
LINE
  5
FDB
100
AcDbEntity
  8
0
100
AcDbLine
 10
62.981964
 20
140.031893
 30
0.0
 11
65.481964
 21
141.475269
 31
0.0
1001
GENIUS_GENOREF_13
1005
FAF
1005
FB1
  0
LINE
  5
FDC
100
AcDbEntity
  8
0
100
AcDbLine
 10
67.981964
 20
137.145142
 30
0.0
 11
65.481964
 21
135.701766
 31
0.0
1001
GENIUS_GENOREF_13
1005
FAF
1005
FB1
  0
LINE
  5
FDD
100
AcDbEntity
  8
0
100
AcDbLine
 10
65.481964
 20
135.701766
 30
0.0
 11
62.981964
 21
137.145142
 31
0.0
1001
GENIUS_GENOREF_13
1005
FAF
1005
FB1
  0
LINE
  5
FDE
100
AcDbEntity
  8
0
100
AcDbLine
 10
71.481964
 20
138.588517
 30
0.0
 11
71.481964
 21
133.258215
 31
0.0
  0
LINE
  5
FDF
100
AcDbEntity
  8
0
100
AcDbLine
 10
72.481964
 20
131.588517
 30
0.0
 11
72.981964
 21
132.088517
 31
0.0
  0
LINE
  5
FE0
100
AcDbEntity
  8
0
100
AcDbLine
 10
71.481964
 20
133.258215
 30
0.0
 11
59.481964
 21
133.258215
 31
0.0
  0
ARC
  5
FE1
100
AcDbEntity
  8
0
100
AcDbCircle
 10
65.481964
 20
138.588517
 30
0.0
 40
6.0
100
AcDbArc
 50
0.0
 51
180.0
  0
LINE
  5
FE2
100
AcDbEntity
  8
0
100
AcDbLine
 10
59.481964
 20
138.588517
 30
0.0
 11
59.481964
 21
133.258215
 31
0.0
  0
LINE
  5
FE3
100
AcDbEntity
  8
0
100
AcDbLine
 10
4.842117
 20
160.088517
 30
0.0
 11
4.842117
 21
171.088517
 31
0.0
  0
LINE
  5
FE7
100
AcDbEntity
  8
0
100
AcDbLine
 10
19.842117
 20
143.088517
 30
0.0
 11
19.842117
 21
132.088517
 31
0.0
  0
CIRCLE
  5
FEA
100
AcDbEntity
  8
0
  6
HIDDEN
100
AcDbCircle
 10
12.342117
 20
138.588517
 30
0.0
 40
5.0
1001
GENIUS_GENOREF_13
1005
FAF
1005
FB1
  0
LINE
  5
1006
100
AcDbEntity
  8
0
  6
HIDDEN
100
AcDbLine
 10
138.135911
 20
166.975067
 30
0.0
 11
133.385911
 21
166.975067
 31
0.0
1001
GENIUS_GENOREF_13
1005
F99
1005
F9B
  0
LINE
  5
1007
100
AcDbEntity
  8
0
  6
HIDDEN
100
AcDbLine
 10
139.635911
 20
167.588517
 30
0.0
 11
150.272461
 21
167.588517
 31
0.0
1001
GENIUS_GENOREF_13
1005
F99
1005
F9B
  0
LINE
  5
1008
100
AcDbEntity
  8
0
  6
HIDDEN
100
AcDbLine
 10
138.135911
 20
162.201967
 30
0.0
 11
133.385911
 21
162.201967
 31
0.0
1001
GENIUS_GENOREF_13
1005
F99
1005
F9B
  0
LINE
  5
1009
100
AcDbEntity
  8
0
  6
HIDDEN
100
AcDbLine
 10
139.635911
 20
161.588517
 30
0.0
 11
150.272461
 21
161.588517
 31
0.0
1001
GENIUS_GENOREF_13
1005
F99
1005
F9B
  0
LINE
  5
100A
100
AcDbEntity
  8
0
  6
HIDDEN
100
AcDbLine
 10
138.135911
 20
140.975067
 30
0.0
 11
133.385911
 21
140.975067
 31
0.0
1001
GENIUS_GENOREF_13
1005
F99
1005
F9B
  0
LINE
  5
100B
100
AcDbEntity
  8
0
  6
HIDDEN
100
AcDbLine
 10
139.635911
 20
141.588517
 30
0.0
 11
150.272461
 21
141.588517
 31
0.0
1001
GENIUS_GENOREF_13
1005
F99
1005
F9B
  0
LINE
  5
100C
100
AcDbEntity
  8
0
  6
HIDDEN
100
AcDbLine
 10
138.135911
 20
136.201967
 30
0.0
 11
133.385911
 21
136.201967
 31
0.0
1001
GENIUS_GENOREF_13
1005
F99
1005
F9B
  0
LINE
  5
100D
100
AcDbEntity
  8
0
  6
HIDDEN
100
AcDbLine
 10
139.635911
 20
135.588517
 30
0.0
 11
150.272461
 21
135.588517
 31
0.0
1001
GENIUS_GENOREF_13
1005
F99
1005
F9B
  0
LINE
  5
100E
100
AcDbEntity
  8
0
100
AcDbLine
 10
138.135911
 20
141.588517
 30
0.0
 11
139.635911
 21
141.588517
 31
0.0
  0
LINE
  5
100F
100
AcDbEntity
  8
0
100
AcDbLine
 10
138.135911
 20
140.975067
 30
0.0
 11
139.635911
 21
140.975067
 31
0.0
  0
LINE
  5
1010
100
AcDbEntity
  8
0
100
AcDbLine
 10
138.135911
 20
136.201967
 30
0.0
 11
139.635911
 21
136.201967
 31
0.0
  0
LINE
  5
1011
100
AcDbEntity
  8
0
100
AcDbLine
 10
138.135911
 20
135.588517
 30
0.0
 11
139.635911
 21
135.588517
 31
0.0
  0
LINE
  5
1012
100
AcDbEntity
  8
0
100
AcDbLine
 10
138.135911
 20
167.588517
 30
0.0
 11
139.635911
 21
167.588517
 31
0.0
  0
LINE
  5
1013
100
AcDbEntity
  8
0
100
AcDbLine
 10
138.135911
 20
166.975067
 30
0.0
 11
139.635911
 21
166.975067
 31
0.0
  0
LINE
  5
1014
100
AcDbEntity
  8
0
100
AcDbLine
 10
138.135911
 20
162.201967
 30
0.0
 11
139.635911
 21
162.201967
 31
0.0
  0
LINE
  5
1015
100
AcDbEntity
  8
0
100
AcDbLine
 10
138.135911
 20
161.588517
 30
0.0
 11
139.635911
 21
161.588517
 31
0.0
  0
CIRCLE
  5
1016
100
AcDbEntity
  8
0
  6
HIDDEN
100
AcDbCircle
 10
12.342117
 20
164.588517
 30
0.0
 40
5.0
1001
GENIUS_GENOREF_13
1005
FAF
1005
FB1
  0
ENDSEC
  0
SECTION
  2
OBJECTS
  0
DICTIONARY
  5
C
100
AcDbDictionary
  3
ACAD_GROUP
350
D
  3
ACAD_LAYOUT
350
CD0
  3
ACAD_MLINESTYLE
350
1B
  3
ACAD_PLOTSETTINGS
350
CD1
  3
ADE_QUERY_LIBRARY
350
103A
  3
CONTENTDICTIONARY
350
23
1001
ADE
1000
ADE02C004
1000
[Query]
1000
CaseSensitiveMatch=0
1000
SaveCurrQueryInSession=1
1000
MkSelSetWithQryObj=0
1000
ShowBlockAsInsPt=0
1000
CreateAssociativeHatchObjects=0
1000
ReferenceBoundaryForAreaLocation=1
1000
ShowImageAsBoundary=1
1000
DefaultJoinOperator=2
1000
ColorForAdd=red
1000
ColorForRemove=red
1000
BlockLocnForQuery=1
1000
TextLocnForQuery=1
1000
[Save Back]
1000
RedefineBlockDefinitions=1
1000
RedefineLayerDefinitions=1
1000
RedefineTextStyleDefinitions=1
1000
RemoveUnusedGroups=1
1000
EraseSavedBackObjects=1
1000
RemoveLockAfterSave=1
1000
CreateHistoryFileOfChanges=0
1000
CreateBackupFileOfSourceDwg=1
1000
DontAddObjectsToSaveSet=0
1000
MarkObjectsForEditingWithoutPrompting=0
1000
[Coordinate Transformation]
1000
RestoreLastActiveDwgsOnStartup=1
1000
ActivateDwgsOnAttach=1
1000
AdjustSizesAndScalesForChangesInUnits=1
1000
AdjustRotationsForMapDistortions=1
1000
AdjustSizesAndScalesForMapDistortions=1
1000
AdjustElevations=1
1000
AdjustZeroRotationObjects=1
1000
ReconnectDbOnWSOpen=1
1000
NoOfSQLConditionsInHistory=10
1001
ACAD
1000
TREAT_AS_HARD
1070
     0
  0
DICTIONARY
  5
103E
100
AcDbDictionary
280
     1
  3
ACAD_LAYOUTSELFREF
360
103F
  0
DICTIONARY
  5
103C
100
AcDbDictionary
280
     1
  3
ACAD_LAYOUTSELFREF
360
103D
  0
DICTIONARY
  5
D
102
{ACAD_REACTORS
330
C
102
}
100
AcDbDictionary
1001
ACAD
1000
TREAT_AS_HARD
1070
     0
  0
DICTIONARY
  5
CD0
102
{ACAD_REACTORS
330
C
102
}
100
AcDbDictionary
1001
ACAD
1000
TREAT_AS_HARD
1070
     0
  0
DICTIONARY
  5
1B
102
{ACAD_REACTORS
330
C
102
}
100
AcDbDictionary
  3
STANDARD
350
1C
1001
ACAD
1000
TREAT_AS_HARD
1070
     0
  0
DICTIONARY
  5
CD1
102
{ACAD_REACTORS
330
C
102
}
100
AcDbDictionary
1001
ACAD
1000
TREAT_AS_HARD
1070
     0
  0
DICTIONARY
  5
103A
102
{ACAD_REACTORS
330
C
102
}
100
AcDbDictionary
  3
_CURRQRY
350
103B
1001
ACAD
1000
TREAT_AS_HARD
1070
     0
  0
DICTIONARY
  5
23
102
{ACAD_REACTORS
330
C
102
}
100
AcDbDictionary
1001
ACAD
1000
TREAT_AS_HARD
1070
     0
  0
XRECORD
  5
103F
102
{ACAD_REACTORS
330
103E
102
}
100
AcDbXrecord
340
18
  0
XRECORD
  5
103D
102
{ACAD_REACTORS
330
103C
102
}
100
AcDbXrecord
340
15
  0
MLINESTYLE
  5
1C
102
{ACAD_REACTORS
330
1B
102
}
100
AcDbMlineStyle
  2
STANDARD
 70
     0
  3

 62
   256
 51
90.0
 52
90.0
 71
     2
 49
0.5
 62
   256
  6
BYLAYER
 49
-0.5
 62
   256
  6
BYLAYER
  0
XRECORD
  5
103B
102
{ACAD_REACTORS
330
103A
102
}
100
AcDbXrecord
1000
ADE02C001
1070
     1
1070
     0
1002
{
1002
}
1002
{
1002
}
1002
{
1002
}
1000

  0
ENDSEC
  0
EOF
