  0
SECTION
  2
HEADER
  9
$ACADVER
  1
AC1014
  9
$ACADMAINTVER
 70
     0
  9
$DWGCODEPAGE
  3
ANSI_932
  9
$INSBASE
 10
0.0
 20
0.0
 30
0.0
  9
$EXTMIN
 10
-2.255186
 20
113.529082
 30
0.0
  9
$EXTMAX
 10
181.951407
 20
197.735744
 30
0.0
  9
$LIMMIN
 10
0.0
 20
0.0
  9
$LIMMAX
 10
420.0
 20
297.0
  9
$ORTHOMODE
 70
     0
  9
$REGENMODE
 70
     1
  9
$FILLMODE
 70
     1
  9
$QTEXTMODE
 70
     0
  9
$MIRRTEXT
 70
     1
  9
$DRAGMODE
 70
     2
  9
$LTSCALE
 40
0.2
  9
$OSMODE
 70
    37
  9
$ATTMODE
 70
     1
  9
$TEXTSIZE
 40
10.0
  9
$TRACEWID
 40
1.0
  9
$TEXTSTYLE
  7
BIGFONT
  9
$CLAYER
  8
0
  9
$CELTYPE
  6
BYLAYER
  9
$CECOLOR
 62
   256
  9
$CELTSCALE
 40
1.0
  9
$DELOBJ
 70
     1
  9
$DISPSILH
 70
     0
  9
$DIMSCALE
 40
1.0
  9
$DIMASZ
 40
2.5
  9
$DIMEXO
 40
0.625
  9
$DIMDLI
 40
3.75
  9
$DIMRND
 40
0.0
  9
$DIMDLE
 40
0.0
  9
$DIMEXE
 40
1.25
  9
$DIMTP
 40
0.0
  9
$DIMTM
 40
0.0
  9
$DIMTXT
 40
2.5
  9
$DIMCEN
 40
0.5
  9
$DIMTSZ
 40
0.0
  9
$DIMTOL
 70
     0
  9
$DIMLIM
 70
     0
  9
$DIMTIH
 70
     0
  9
$DIMTOH
 70
     0
  9
$DIMSE1
 70
     0
  9
$DIMSE2
 70
     0
  9
$DIMTAD
 70
     3
  9
$DIMZIN
 70
     8
  9
$DIMBLK
  1

  9
$DIMASO
 70
     1
  9
$DIMSHO
 70
     1
  9
$DIMPOST
  1

  9
$DIMAPOST
  1

  9
$DIMALT
 70
     0
  9
$DIMALTD
 70
     4
  9
$DIMALTF
 40
0.0394
  9
$DIMLFAC
 40
1.0
  9
$DIMTOFL
 70
     1
  9
$DIMTVP
 40
0.0
  9
$DIMTIX
 70
     0
  9
$DIMSOXD
 70
     0
  9
$DIMSAH
 70
     0
  9
$DIMBLK1
  1

  9
$DIMBLK2
  1

  9
$DIMSTYLE
  2
STANDARD_WS
  9
$DIMCLRD
 70
     0
  9
$DIMCLRE
 70
     0
  9
$DIMCLRT
 70
   256
  9
$DIMTFAC
 40
1.0
  9
$DIMGAP
 40
1.2
  9
$DIMJUST
 70
     0
  9
$DIMSD1
 70
     0
  9
$DIMSD2
 70
     0
  9
$DIMTOLJ
 70
     1
  9
$DIMTZIN
 70
     0
  9
$DIMALTZ
 70
     0
  9
$DIMALTTZ
 70
     0
  9
$DIMFIT
 70
     3
  9
$DIMUPT
 70
     0
  9
$DIMUNIT
 70
     2
  9
$DIMDEC
 70
     4
  9
$DIMTDEC
 70
     4
  9
$DIMALTU
 70
     8
  9
$DIMALTTD
 70
     4
  9
$DIMTXSTY
  7
BIGFONT
  9
$DIMAUNIT
 70
     0
  9
$LUNITS
 70
     2
  9
$LUPREC
 70
     4
  9
$SKETCHINC
 40
1.0
  9
$FILLETRAD
 40
0.0
  9
$AUNITS
 70
     0
  9
$AUPREC
 70
     0
  9
$MENU
  1
acad
  9
$ELEVATION
 40
0.0
  9
$PELEVATION
 40
0.0
  9
$THICKNESS
 40
0.0
  9
$LIMCHECK
 70
     0
  9
$BLIPMODE
 70
     0
  9
$CHAMFERA
 40
0.5
  9
$CHAMFERB
 40
0.5
  9
$CHAMFERC
 40
20.0
  9
$CHAMFERD
 40
0.0
  9
$SKPOLY
 70
     0
  9
$TDCREATE
 40
2451225.415346065
  9
$TDUPDATE
 40
2453594.454334306
  9
$TDINDWG
 40
0.2592396644
  9
$TDUSRTIMER
 40
0.2592396644
  9
$USRTIMER
 70
     1
  9
$ANGBASE
 50
0.0
  9
$ANGDIR
 70
     0
  9
$PDMODE
 70
     0
  9
$PDSIZE
 40
0.0
  9
$PLINEWID
 40
0.0
  9
$COORDS
 70
     1
  9
$SPLFRAME
 70
     0
  9
$SPLINETYPE
 70
     6
  9
$SPLINESEGS
 70
     8
  9
$ATTDIA
 70
     0
  9
$ATTREQ
 70
     1
  9
$HANDLING
 70
     1
  9
$HANDSEED
  5
1095
  9
$SURFTAB1
 70
     6
  9
$SURFTAB2
 70
     6
  9
$SURFTYPE
 70
     6
  9
$SURFU
 70
     6
  9
$SURFV
 70
     6
  9
$UCSNAME
  2

  9
$UCSORG
 10
0.0
 20
0.0
 30
0.0
  9
$UCSXDIR
 10
1.0
 20
0.0
 30
0.0
  9
$UCSYDIR
 10
0.0
 20
1.0
 30
0.0
  9
$PUCSNAME
  2

  9
$PUCSORG
 10
0.0
 20
0.0
 30
0.0
  9
$PUCSXDIR
 10
1.0
 20
0.0
 30
0.0
  9
$PUCSYDIR
 10
0.0
 20
1.0
 30
0.0
  9
$USERI1
 70
     0
  9
$USERI2
 70
     0
  9
$USERI3
 70
     0
  9
$USERI4
 70
     0
  9
$USERI5
 70
     0
  9
$USERR1
 40
0.0
  9
$USERR2
 40
0.0
  9
$USERR3
 40
0.0
  9
$USERR4
 40
0.0
  9
$USERR5
 40
0.0
  9
$WORLDVIEW
 70
     1
  9
$SHADEDGE
 70
     3
  9
$SHADEDIF
 70
    70
  9
$TILEMODE
 70
     1
  9
$MAXACTVP
 70
    48
  9
$PINSBASE
 10
0.0
 20
0.0
 30
0.0
  9
$PLIMCHECK
 70
     0
  9
$PEXTMIN
 10
1.000000E+20
 20
1.000000E+20
 30
1.000000E+20
  9
$PEXTMAX
 10
-1.000000E+20
 20
-1.000000E+20
 30
-1.000000E+20
  9
$PLIMMIN
 10
0.0
 20
0.0
  9
$PLIMMAX
 10
420.0
 20
297.0
  9
$UNITMODE
 70
     0
  9
$VISRETAIN
 70
     1
  9
$PLINEGEN
 70
     0
  9
$PSLTSCALE
 70
     0
  9
$TREEDEPTH
 70
  3020
  9
$PICKSTYLE
 70
     1
  9
$CMLSTYLE
  2
STANDARD
  9
$CMLJUST
 70
     0
  9
$CMLSCALE
 40
20.0
  9
$PROXYGRAPHICS
 70
     1
  9
$MEASUREMENT
 70
     0
  0
ENDSEC
  0
SECTION
  2
CLASSES
  0
CLASS
  1
DICTIONARYVAR
  2
AcDbDictionaryVar
  3
"AutoCAD"
 90
        0
280
     0
281
     0
  0
CLASS
  1
HATCH
  2
AcDbHatch
  3
"ACAD_SEDONA"
 90
        0
280
     0
281
     1
  0
CLASS
  1
LWPOLYLINE
  2
AcDbPolyline
  3
"AutoCAD"
 90
        0
280
     0
281
     1
  0
CLASS
  1
ACDBDICTIONARYWDFLT
  2
AcDbDictionaryWithDefault
  3
AutoCAD 2000
 90
        0
280
     0
281
     0
  0
CLASS
  1
ACDBPLACEHOLDER
  2
AcDbPlaceHolder
  3
AutoCAD 2000
 90
        0
280
     0
281
     0
  0
CLASS
  1
LAYOUT
  2
AcDbLayout
  3
AutoCAD 2000
 90
        0
280
     0
281
     0
  0
CLASS
  1
LONG_TRANSACTION
  2
AcDbLongTransaction
  3
AutoCAD 2000
 90
        0
280
     0
281
     0
  0
CLASS
  1
LWPOLYLINE
  2
AcDbPolyline
  3
"AutoCAD"
 90
        0
280
     0
281
     1
  0
CLASS
  1
HATCH
  2
AcDbHatch
  3
"ACAD_SEDONA"
 90
        0
280
     0
281
     1
  0
CLASS
  1
XRECORD
  2
AcDbXrecord
  3
"<Built In>"
 90
        0
280
     0
281
     0
  0
ENDSEC
  0
SECTION
  2
TABLES
  0
TABLE
  2
VPORT
  5
8
100
AcDbSymbolTable
 70
     2
  0
VPORT
  5
1094
100
AcDbSymbolTableRecord
100
AcDbViewportTableRecord
  2
*ACTIVE
 70
     0
 10
0.0
 20
0.0
 11
1.0
 21
1.0
 12
208.872407
 22
148.5
 13
0.0
 23
0.0
 14
10.0
 24
10.0
 15
10.0
 25
10.0
 16
0.0
 26
0.0
 36
1.0
 17
0.0
 27
0.0
 37
0.0
 40
299.205446
 41
1.434944
 42
50.0
 43
0.0
 44
0.0
 50
0.0
 51
0.0
 71
     0
 72
   100
 73
     1
 74
     0
 75
     0
 76
     0
 77
     0
 78
     0
  0
ENDTAB
  0
TABLE
  2
LTYPE
  5
5
100
AcDbSymbolTable
 70
     3
  0
LTYPE
  5
12
100
AcDbSymbolTableRecord
100
AcDbLinetypeTableRecord
  2
BYBLOCK
 70
     0
  3

 72
    65
 73
     0
 40
0.0
  0
LTYPE
  5
13
100
AcDbSymbolTableRecord
100
AcDbLinetypeTableRecord
  2
BYLAYER
 70
     0
  3

 72
    65
 73
     0
 40
0.0
  0
LTYPE
  5
14
100
AcDbSymbolTableRecord
100
AcDbLinetypeTableRecord
  2
CONTINUOUS
 70
     0
  3
Solid line
 72
    65
 73
     0
 40
0.0
  0
LTYPE
  5
11A
100
AcDbSymbolTableRecord
100
AcDbLinetypeTableRecord
  2
CENTER
 70
     0
  3
Center ____ _ ____ _ ____ _ ____ _ ____ _ ____
 72
    65
 73
     4
 40
50.8
 49
31.75
 74
     0
 49
-6.35
 74
     0
 49
6.35
 74
     0
 49
-6.35
 74
     0
  0
LTYPE
  5
11B
100
AcDbSymbolTableRecord
100
AcDbLinetypeTableRecord
  2
HIDDEN
 70
     0
  3
Hidden __ __ __ __ __ __ __ __ __ __ __ __ __ _
 72
    65
 73
     2
 40
9.525
 49
6.35
 74
     0
 49
-3.175
 74
     0
  0
ENDTAB
  0
TABLE
  2
LAYER
  5
2
100
AcDbSymbolTable
 70
     6
  0
LAYER
  5
E
100
AcDbSymbolTableRecord
100
AcDbLayerTableRecord
  2
0
 70
     0
 62
     7
  6
CONTINUOUS
  0
LAYER
  5
37
100
AcDbSymbolTableRecord
100
AcDbLayerTableRecord
  2
図枠
 70
     0
 62
     7
  6
CONTINUOUS
  0
LAYER
  5
38
100
AcDbSymbolTableRecord
100
AcDbLayerTableRecord
  2
図枠部品表
 70
     0
 62
     7
  6
CONTINUOUS
  0
LAYER
  5
215
100
AcDbSymbolTableRecord
100
AcDbLayerTableRecord
  2
CENTER
 70
     0
 62
     2
  6
CENTER
  0
LAYER
  5
216
100
AcDbSymbolTableRecord
100
AcDbLayerTableRecord
  2
DIM
 70
     0
 62
     4
  6
CONTINUOUS
  0
LAYER
  5
21F
100
AcDbSymbolTableRecord
100
AcDbLayerTableRecord
  2
DEFPOINTS
 70
     0
 62
     7
  6
CONTINUOUS
  0
ENDTAB
  0
TABLE
  2
STYLE
  5
3
100
AcDbSymbolTable
 70
     3
  0
STYLE
  5
F
100
AcDbSymbolTableRecord
100
AcDbTextStyleTableRecord
  2
STANDARD
 70
     0
 40
0.0
 41
1.0
 50
0.0
 71
     0
 42
2.5
  3
txt
  4

  0
STYLE
  5
39
100
AcDbSymbolTableRecord
100
AcDbTextStyleTableRecord
  2
BIGFONT
 70
     0
 40
0.0
 41
1.0
 50
0.0
 71
     0
 42
10.0
  3
txt.shx
  4
bigfont.shx
  0
STYLE
  5
3B
100
AcDbSymbolTableRecord
100
AcDbTextStyleTableRecord
  2
KANJI
 70
     0
 40
0.0
 41
1.0
 50
0.0
 71
     0
 42
3.0
  3
TXT
  4
BIGFONT
  0
ENDTAB
  0
TABLE
  2
VIEW
  5
6
100
AcDbSymbolTable
 70
     0
  0
ENDTAB
  0
TABLE
  2
UCS
  5
7
100
AcDbSymbolTable
 70
     0
  0
ENDTAB
  0
TABLE
  2
APPID
  5
9
100
AcDbSymbolTable
 70
    34
  0
APPID
  5
10
100
AcDbSymbolTableRecord
100
AcDbRegAppTableRecord
  2
ACAD
 70
     0
  0
APPID
  5
24
100
AcDbSymbolTableRecord
100
AcDbRegAppTableRecord
  2
CONTENTTABDATA
 70
     0
  0
APPID
  5
25
100
AcDbSymbolTableRecord
100
AcDbRegAppTableRecord
  2
CONTENTCURRENTTAB
 70
     0
  0
APPID
  5
422
100
AcDbSymbolTableRecord
100
AcDbRegAppTableRecord
  2
CONTENTBLOCKDESCRIPTION
 70
     0
  0
APPID
  5
EEB
100
AcDbSymbolTableRecord
100
AcDbRegAppTableRecord
  2
MCAD_NO_VIS
 70
     0
  0
APPID
  5
EEC
100
AcDbSymbolTableRecord
100
AcDbRegAppTableRecord
  2
ACAD_TEMP_GRAPHIC
 70
     0
  0
APPID
  5
EED
100
AcDbSymbolTableRecord
100
AcDbRegAppTableRecord
  2
GEVID966397200
 70
     0
  0
APPID
  5
EEE
100
AcDbSymbolTableRecord
100
AcDbRegAppTableRecord
  2
GEVDC
 70
     0
  0
APPID
  5
EEF
100
AcDbSymbolTableRecord
100
AcDbRegAppTableRecord
  2
GEVCON
 70
     0
  0
APPID
  5
EF0
100
AcDbSymbolTableRecord
100
AcDbRegAppTableRecord
  2
GEVID966397201
 70
     0
  0
APPID
  5
EF1
100
AcDbSymbolTableRecord
100
AcDbRegAppTableRecord
  2
GEVID966397202
 70
     0
  0
APPID
  5
EF2
100
AcDbSymbolTableRecord
100
AcDbRegAppTableRecord
  2
GEVID966397203
 70
     0
  0
APPID
  5
EF3
100
AcDbSymbolTableRecord
100
AcDbRegAppTableRecord
  2
GEVID966397204
 70
     0
  0
APPID
  5
EF4
100
AcDbSymbolTableRecord
100
AcDbRegAppTableRecord
  2
GEVID966397205
 70
     0
  0
APPID
  5
EF5
100
AcDbSymbolTableRecord
100
AcDbRegAppTableRecord
  2
GEVID966397206
 70
     0
  0
APPID
  5
EF6
100
AcDbSymbolTableRecord
100
AcDbRegAppTableRecord
  2
GENIUS_GENBH_13
 70
     0
  0
APPID
  5
EF7
100
AcDbSymbolTableRecord
100
AcDbRegAppTableRecord
  2
GENIUS_GENODEF_13
 70
     0
  0
APPID
  5
EF8
100
AcDbSymbolTableRecord
100
AcDbRegAppTableRecord
  2
GENIUS_GENOBJ-NBEHI-BHF_13
 70
     0
  0
APPID
  5
EF9
100
AcDbSymbolTableRecord
100
AcDbRegAppTableRecord
  2
GENIUS_GENOENT_13
 70
     0
  0
APPID
  5
EFA
100
AcDbSymbolTableRecord
100
AcDbRegAppTableRecord
  2
GENIUS_GENOREF_13
 70
     0
  0
APPID
  5
EFB
100
AcDbSymbolTableRecord
100
AcDbRegAppTableRecord
  2
GENIUS_GENOLIS_13
 70
     0
  0
APPID
  5
EFC
100
AcDbSymbolTableRecord
100
AcDbRegAppTableRecord
  2
GENIUS_GENOBJ-NBEHI-BHB_13
 70
     0
  0
APPID
  5
EFD
100
AcDbSymbolTableRecord
100
AcDbRegAppTableRecord
  2
GEVID966397207
 70
     0
  0
APPID
  5
EFE
100
AcDbSymbolTableRecord
100
AcDbRegAppTableRecord
  2
GENIUS_GENOBJ-F-SCPASSM_13
 70
     0
  0
APPID
  5
EFF
100
AcDbSymbolTableRecord
100
AcDbRegAppTableRecord
  2
GENIUS_GENDTOL_13
 70
     0
  0
APPID
  5
F00
100
AcDbSymbolTableRecord
100
AcDbRegAppTableRecord
  2
GEVID966521051
 70
     0
  0
APPID
  5
F01
100
AcDbSymbolTableRecord
100
AcDbRegAppTableRecord
  2
GEVID966521052
 70
     0
  0
APPID
  5
F02
100
AcDbSymbolTableRecord
100
AcDbRegAppTableRecord
  2
GEVID966521054
 70
     0
  0
APPID
  5
F03
100
AcDbSymbolTableRecord
100
AcDbRegAppTableRecord
  2
GEVID966521055
 70
     0
  0
APPID
  5
F04
100
AcDbSymbolTableRecord
100
AcDbRegAppTableRecord
  2
GEVID966521056
 70
     0
  0
APPID
  5
F05
100
AcDbSymbolTableRecord
100
AcDbRegAppTableRecord
  2
GEVID966521057
 70
     0
  0
APPID
  5
F06
100
AcDbSymbolTableRecord
100
AcDbRegAppTableRecord
  2
GEVID966521058
 70
     0
  0
APPID
  5
F07
100
AcDbSymbolTableRecord
100
AcDbRegAppTableRecord
  2
GEVID966521059
 70
     0
  0
APPID
  5
1082
100
AcDbSymbolTableRecord
100
AcDbRegAppTableRecord
  2
ADE
 70
     0
  0
ENDTAB
  0
TABLE
  2
DIMSTYLE
  5
A
100
AcDbSymbolTable
 70
     1
  0
DIMSTYLE
105
35
100
AcDbSymbolTableRecord
100
AcDbDimStyleTableRecord
  2
STANDARD_WS
 70
     0
  3

  4

  5

  6

  7

 40
1.0
 41
2.5
 42
0.625
 43
3.75
 44
1.25
 45
0.0
 46
0.0
 47
0.0
 48
0.0
140
2.5
141
2.5
142
0.0
143
0.0394
144
1.0
145
0.0
146
1.0
147
0.625
 71
     0
 72
     0
 73
     0
 74
     0
 75
     0
 76
     0
 77
     1
 78
     8
170
     0
171
     4
172
     1
173
     0
174
     0
175
     0
176
     0
177
     0
178
     0
270
     2
271
     4
272
     4
273
     8
274
     4
340
F
275
     0
280
     0
281
     0
282
     0
283
     1
284
     0
285
     0
286
     0
287
     3
288
     0
  0
ENDTAB
  0
TABLE
  2
BLOCK_RECORD
  5
1
100
AcDbSymbolTable
 70
    12
  0
BLOCK_RECORD
  5
18
102
{ACAD_XDICTIONARY
360
1087
102
}
100
AcDbSymbolTableRecord
100
AcDbBlockTableRecord
  2
*MODEL_SPACE
  0
BLOCK_RECORD
  5
15
102
{ACAD_XDICTIONARY
360
1085
102
}
100
AcDbSymbolTableRecord
100
AcDbBlockTableRecord
  2
*PAPER_SPACE
  0
BLOCK_RECORD
  5
B52
100
AcDbSymbolTableRecord
100
AcDbBlockTableRecord
  2
*D0
  0
BLOCK_RECORD
  5
B5F
100
AcDbSymbolTableRecord
100
AcDbBlockTableRecord
  2
*D1
  0
BLOCK_RECORD
  5
B7D
100
AcDbSymbolTableRecord
100
AcDbBlockTableRecord
  2
*D2
  0
BLOCK_RECORD
  5
B90
100
AcDbSymbolTableRecord
100
AcDbBlockTableRecord
  2
*D3
  0
BLOCK_RECORD
  5
B9D
100
AcDbSymbolTableRecord
100
AcDbBlockTableRecord
  2
*D4
  0
BLOCK_RECORD
  5
BAA
100
AcDbSymbolTableRecord
100
AcDbBlockTableRecord
  2
*D5
  0
BLOCK_RECORD
  5
BB7
100
AcDbSymbolTableRecord
100
AcDbBlockTableRecord
  2
*D6
  0
BLOCK_RECORD
  5
BD0
100
AcDbSymbolTableRecord
100
AcDbBlockTableRecord
  2
*D7
  0
BLOCK_RECORD
  5
BDA
100
AcDbSymbolTableRecord
100
AcDbBlockTableRecord
  2
*D8
  0
BLOCK_RECORD
  5
BE7
100
AcDbSymbolTableRecord
100
AcDbBlockTableRecord
  2
*D9
  0
BLOCK_RECORD
  5
D9C
100
AcDbSymbolTableRecord
100
AcDbBlockTableRecord
  2
*D10
  0
BLOCK_RECORD
  5
ECE
100
AcDbSymbolTableRecord
100
AcDbBlockTableRecord
  2
_OPEN30
  0
ENDTAB
  0
ENDSEC
  0
SECTION
  2
BLOCKS
  0
BLOCK
  5
19
100
AcDbEntity
  8
0
100
AcDbBlockBegin
  2
*MODEL_SPACE
 70
     2
 10
0.0
 20
0.0
 30
0.0
  3
*MODEL_SPACE
  1

  0
ENDBLK
  5
1A
100
AcDbEntity
  8
0
100
AcDbBlockEnd
  0
BLOCK
  5
16
100
AcDbEntity
 67
     1
  8
0
100
AcDbBlockBegin
  2
*PAPER_SPACE
 70
     0
 10
0.0
 20
0.0
 30
0.0
  3
*PAPER_SPACE
  1

  0
ENDBLK
  5
17
100
AcDbEntity
 67
     1
  8
0
100
AcDbBlockEnd
  0
BLOCK
  5
B53
100
AcDbEntity
  8
0
100
AcDbBlockBegin
  2
*D0
 70
     1
 10
0.0
 20
0.0
 30
0.0
  3
*D0
  1

  0
LINE
  5
FE3
100
AcDbEntity
  8
DIM
 62
     0
100
AcDbLine
 10
154.740237
 20
165.520558
 30
0.0
 11
162.820793
 21
165.520558
 31
0.0
  0
LINE
  5
FE4
100
AcDbEntity
  8
DIM
 62
     0
100
AcDbLine
 10
150.436885
 20
155.520558
 30
0.0
 11
162.820793
 21
155.520558
 31
0.0
  0
LINE
  5
FE5
100
AcDbEntity
  8
DIM
 62
     0
100
AcDbLine
 10
161.570793
 20
163.020558
 30
0.0
 11
161.570793
 21
158.020558
 31
0.0
  0
SOLID
  5
FE6
100
AcDbEntity
  8
DIM
 62
     0
100
AcDbTrace
 10
161.154126
 20
163.020558
 30
0.0
 11
161.98746
 21
163.020558
 31
0.0
 12
161.570793
 22
165.520558
 32
0.0
 13
161.570793
 23
165.520558
 33
0.0
  0
SOLID
  5
FE7
100
AcDbEntity
  8
DIM
 62
     0
100
AcDbTrace
 10
161.154126
 20
158.020558
 30
0.0
 11
161.98746
 21
158.020558
 31
0.0
 12
161.570793
 22
155.520558
 32
0.0
 13
161.570793
 23
155.520558
 33
0.0
  0
MTEXT
  5
FE8
100
AcDbEntity
  8
DIM
100
AcDbMText
 10
159.120793
 20
160.520558
 30
0.0
 40
2.5
 41
0.0
 71
     5
 72
     5
  1
\A1;10
  7
BIGFONT
 11
0.0
 21
1.0
 31
0.0
1001
ACAD
1000
MTEXTBEGIN
1070
    73
1070
     1
1070
    44
1040
1.0
1070
    74
1070
     0
1000
MTEXTEND
  0
POINT
  5
FE9
100
AcDbEntity
  8
DEFPOINTS
 62
     0
100
AcDbPoint
 10
154.115237
 20
165.520558
 30
0.0
  0
POINT
  5
FEA
100
AcDbEntity
  8
DEFPOINTS
 62
     0
100
AcDbPoint
 10
149.811885
 20
155.520558
 30
0.0
  0
POINT
  5
FEB
100
AcDbEntity
  8
DEFPOINTS
 62
     0
100
AcDbPoint
 10
161.570793
 20
155.520558
 30
0.0
  0
ENDBLK
  5
B5D
100
AcDbEntity
  8
0
100
AcDbBlockEnd
  0
BLOCK
  5
B60
100
AcDbEntity
  8
0
100
AcDbBlockBegin
  2
*D1
 70
     1
 10
0.0
 20
0.0
 30
0.0
  3
*D1
  1

  0
LINE
  5
1032
100
AcDbEntity
  8
DIM
 62
     0
100
AcDbLine
 10
127.073656
 20
148.456275
 30
0.0
 11
127.073656
 21
128.803345
 31
0.0
  0
LINE
  5
1033
100
AcDbEntity
  8
DIM
 62
     0
100
AcDbLine
 10
133.073656
 20
143.853977
 30
0.0
 11
133.073656
 21
128.803345
 31
0.0
  0
LINE
  5
1034
100
AcDbEntity
  8
DIM
 62
     0
100
AcDbLine
 10
124.573656
 20
130.053345
 30
0.0
 11
122.073656
 21
130.053345
 31
0.0
  0
LINE
  5
1035
100
AcDbEntity
  8
DIM
 62
     0
100
AcDbLine
 10
135.573656
 20
130.053345
 30
0.0
 11
138.073656
 21
130.053345
 31
0.0
  0
LINE
  5
1036
100
AcDbEntity
  8
DIM
 62
     0
100
AcDbLine
 10
127.073656
 20
130.053345
 30
0.0
 11
133.073656
 21
130.053345
 31
0.0
  0
SOLID
  5
1037
100
AcDbEntity
  8
DIM
 62
     0
100
AcDbTrace
 10
124.573656
 20
130.470012
 30
0.0
 11
124.573656
 21
129.636679
 31
0.0
 12
127.073656
 22
130.053345
 32
0.0
 13
127.073656
 23
130.053345
 33
0.0
  0
SOLID
  5
1038
100
AcDbEntity
  8
DIM
 62
     0
100
AcDbTrace
 10
135.573656
 20
130.470012
 30
0.0
 11
135.573656
 21
129.636679
 31
0.0
 12
133.073656
 22
130.053345
 32
0.0
 13
133.073656
 23
130.053345
 33
0.0
  0
MTEXT
  5
1039
100
AcDbEntity
  8
DIM
100
AcDbMText
 10
130.073656
 20
132.503345
 30
0.0
 40
2.5
 41
0.0
 71
     5
 72
     5
  1
\A1;6
  7
BIGFONT
1001
ACAD
1000
MTEXTBEGIN
1070
    73
1070
     1
1070
    44
1040
1.0
1070
    74
1070
     0
1000
MTEXTEND
  0
POINT
  5
103A
100
AcDbEntity
  8
DEFPOINTS
 62
     0
100
AcDbPoint
 10
127.073656
 20
149.081275
 30
0.0
  0
POINT
  5
103B
100
AcDbEntity
  8
DEFPOINTS
 62
     0
100
AcDbPoint
 10
133.073656
 20
144.478977
 30
0.0
  0
POINT
  5
103C
100
AcDbEntity
  8
DEFPOINTS
 62
     0
100
AcDbPoint
 10
133.073656
 20
130.053345
 30
0.0
  0
ENDBLK
  5
B6C
100
AcDbEntity
  8
0
100
AcDbBlockEnd
  0
BLOCK
  5
B7E
100
AcDbEntity
  8
0
100
AcDbBlockBegin
  2
*D2
 70
     1
 10
0.0
 20
0.0
 30
0.0
  3
*D2
  1

  0
LINE
  5
FAB
100
AcDbEntity
  8
DIM
 62
     0
100
AcDbLine
 10
132.323656
 20
147.411636
 30
0.0
 11
132.323656
 21
134.054525
 31
0.0
  0
LINE
  5
FAC
100
AcDbEntity
  8
DIM
 62
     0
100
AcDbLine
 10
133.823656
 20
147.411636
 30
0.0
 11
133.823656
 21
134.054525
 31
0.0
  0
LINE
  5
FAD
100
AcDbEntity
  8
DIM
 62
     0
100
AcDbLine
 10
129.823656
 20
135.304525
 30
0.0
 11
127.323656
 21
135.304525
 31
0.0
  0
LINE
  5
FAE
100
AcDbEntity
  8
DIM
 62
     0
100
AcDbLine
 10
136.323656
 20
135.304525
 30
0.0
 11
145.390323
 21
135.304525
 31
0.0
  0
LINE
  5
FAF
100
AcDbEntity
  8
DIM
 62
     0
100
AcDbLine
 10
132.323656
 20
135.304525
 30
0.0
 11
133.823656
 21
135.304525
 31
0.0
  0
SOLID
  5
FB0
100
AcDbEntity
  8
DIM
 62
     0
100
AcDbTrace
 10
129.823656
 20
135.721191
 30
0.0
 11
129.823656
 21
134.887858
 31
0.0
 12
132.323656
 22
135.304525
 32
0.0
 13
132.323656
 23
135.304525
 33
0.0
  0
SOLID
  5
FB1
100
AcDbEntity
  8
DIM
 62
     0
100
AcDbTrace
 10
136.323656
 20
135.721191
 30
0.0
 11
136.323656
 21
134.887858
 31
0.0
 12
133.823656
 22
135.304525
 32
0.0
 13
133.823656
 23
135.304525
 33
0.0
  0
MTEXT
  5
FB2
100
AcDbEntity
  8
DIM
100
AcDbMText
 10
142.106989
 20
137.754525
 30
0.0
 40
2.5
 41
0.0
 71
     5
 72
     5
  1
\A1;1.5
  7
BIGFONT
1001
ACAD
1000
MTEXTBEGIN
1070
    73
1070
     1
1070
    44
1040
1.0
1070
    74
1070
     0
1000
MTEXTEND
  0
POINT
  5
FB3
100
AcDbEntity
  8
DEFPOINTS
 62
     0
100
AcDbPoint
 10
132.323656
 20
148.036636
 30
0.0
  0
POINT
  5
FB4
100
AcDbEntity
  8
DEFPOINTS
 62
     0
100
AcDbPoint
 10
133.823656
 20
148.036636
 30
0.0
  0
POINT
  5
FB5
100
AcDbEntity
  8
DEFPOINTS
 62
     0
100
AcDbPoint
 10
133.823656
 20
135.304525
 30
0.0
  0
ENDBLK
  5
B8A
100
AcDbEntity
  8
0
100
AcDbBlockEnd
  0
BLOCK
  5
BC4
100
AcDbEntity
  8
0
100
AcDbBlockBegin
  2
*D3
 70
     1
 10
0.0
 20
0.0
 30
0.0
  3
*D3
  1

  0
LINE
  5
FA0
100
AcDbEntity
  8
DIM
 62
     0
100
AcDbLine
 10
68.896055
 20
148.456275
 30
0.0
 11
68.896055
 21
132.658751
 31
0.0
  0
LINE
  5
FA1
100
AcDbEntity
  8
DIM
 62
     0
100
AcDbLine
 10
56.896055
 20
148.456275
 30
0.0
 11
56.896055
 21
132.658751
 31
0.0
  0
LINE
  5
FA2
100
AcDbEntity
  8
DIM
 62
     0
100
AcDbLine
 10
71.396055
 20
133.908751
 30
0.0
 11
73.896055
 21
133.908751
 31
0.0
  0
LINE
  5
FA3
100
AcDbEntity
  8
DIM
 62
     0
100
AcDbLine
 10
54.396055
 20
133.908751
 30
0.0
 11
51.896055
 21
133.908751
 31
0.0
  0
LINE
  5
FA4
100
AcDbEntity
  8
DIM
 62
     0
100
AcDbLine
 10
68.896055
 20
133.908751
 30
0.0
 11
56.896055
 21
133.908751
 31
0.0
  0
SOLID
  5
FA5
100
AcDbEntity
  8
DIM
 62
     0
100
AcDbTrace
 10
71.396055
 20
134.325418
 30
0.0
 11
71.396055
 21
133.492084
 31
0.0
 12
68.896055
 22
133.908751
 32
0.0
 13
68.896055
 23
133.908751
 33
0.0
  0
SOLID
  5
FA6
100
AcDbEntity
  8
DIM
 62
     0
100
AcDbTrace
 10
54.396055
 20
134.325418
 30
0.0
 11
54.396055
 21
133.492084
 31
0.0
 12
56.896055
 22
133.908751
 32
0.0
 13
56.896055
 23
133.908751
 33
0.0
  0
MTEXT
  5
FA7
100
AcDbEntity
  8
DIM
100
AcDbMText
 10
65.771445
 20
136.358751
 30
0.0
 40
2.5
 41
0.0
 71
     5
 72
     5
  1
\A1;12
  7
BIGFONT
1001
ACAD
1000
MTEXTBEGIN
1070
    73
1070
     1
1070
    44
1040
1.0
1070
    74
1070
     0
1000
MTEXTEND
  0
POINT
  5
FA8
100
AcDbEntity
  8
DEFPOINTS
 62
     0
100
AcDbPoint
 10
68.896055
 20
149.081275
 30
0.0
  0
POINT
  5
FA9
100
AcDbEntity
  8
DEFPOINTS
 62
     0
100
AcDbPoint
 10
56.896055
 20
149.081275
 30
0.0
  0
POINT
  5
FAA
100
AcDbEntity
  8
DEFPOINTS
 62
     0
100
AcDbPoint
 10
56.896055
 20
133.908751
 30
0.0
  0
ENDBLK
  5
BCF
100
AcDbEntity
  8
0
100
AcDbBlockEnd
  0
BLOCK
  5
C5C
100
AcDbEntity
  8
0
100
AcDbBlockBegin
  2
*D4
 70
     1
 10
0.0
 20
0.0
 30
0.0
  3
*D4
  1

  0
LINE
  5
F97
100
AcDbEntity
  8
DIM
 62
     0
100
AcDbLine
 10
70.396055
 20
147.895558
 30
0.0
 11
70.396055
 21
124.051994
 31
0.0
  0
LINE
  5
F98
100
AcDbEntity
  8
DIM
 62
     0
100
AcDbLine
 10
62.896055
 20
146.458111
 30
0.0
 11
62.896055
 21
124.051994
 31
0.0
  0
LINE
  5
F99
100
AcDbEntity
  8
DIM
 62
     0
100
AcDbLine
 10
67.896055
 20
125.301994
 30
0.0
 11
65.396055
 21
125.301994
 31
0.0
  0
SOLID
  5
F9A
100
AcDbEntity
  8
DIM
 62
     0
100
AcDbTrace
 10
67.896055
 20
125.718661
 30
0.0
 11
67.896055
 21
124.885328
 31
0.0
 12
70.396055
 22
125.301994
 32
0.0
 13
70.396055
 23
125.301994
 33
0.0
  0
SOLID
  5
F9B
100
AcDbEntity
  8
DIM
 62
     0
100
AcDbTrace
 10
65.396055
 20
125.718661
 30
0.0
 11
65.396055
 21
124.885328
 31
0.0
 12
62.896055
 22
125.301994
 32
0.0
 13
62.896055
 23
125.301994
 33
0.0
  0
MTEXT
  5
F9C
100
AcDbEntity
  8
DIM
100
AcDbMText
 10
66.646055
 20
127.751994
 30
0.0
 40
2.5
 41
0.0
 71
     5
 72
     5
  1
\A1;7.5
  7
BIGFONT
1001
ACAD
1000
MTEXTBEGIN
1070
    73
1070
     1
1070
    44
1040
1.0
1070
    74
1070
     0
1000
MTEXTEND
  0
POINT
  5
F9D
100
AcDbEntity
  8
DEFPOINTS
 62
     0
100
AcDbPoint
 10
70.396055
 20
148.520558
 30
0.0
  0
POINT
  5
F9E
100
AcDbEntity
  8
DEFPOINTS
 62
     0
100
AcDbPoint
 10
62.896055
 20
147.083111
 30
0.0
  0
POINT
  5
F9F
100
AcDbEntity
  8
DEFPOINTS
 62
     0
100
AcDbPoint
 10
62.896055
 20
125.301994
 30
0.0
  0
ENDBLK
  5
C66
100
AcDbEntity
  8
0
100
AcDbBlockEnd
  0
BLOCK
  5
C51
100
AcDbEntity
  8
0
100
AcDbBlockBegin
  2
*D5
 70
     1
 10
0.0
 20
0.0
 30
0.0
  3
*D5
  1

  0
LINE
  5
F8E
100
AcDbEntity
  8
DIM
 62
     0
100
AcDbLine
 10
62.896055
 20
146.458111
 30
0.0
 11
62.896055
 21
124.051994
 31
0.0
  0
LINE
  5
F8F
100
AcDbEntity
  8
DIM
 62
     0
100
AcDbLine
 10
55.396055
 20
147.895558
 30
0.0
 11
55.396055
 21
124.051994
 31
0.0
  0
LINE
  5
F90
100
AcDbEntity
  8
DIM
 62
     0
100
AcDbLine
 10
60.396055
 20
125.301994
 30
0.0
 11
57.896055
 21
125.301994
 31
0.0
  0
SOLID
  5
F91
100
AcDbEntity
  8
DIM
 62
     0
100
AcDbTrace
 10
60.396055
 20
125.718661
 30
0.0
 11
60.396055
 21
124.885328
 31
0.0
 12
62.896055
 22
125.301994
 32
0.0
 13
62.896055
 23
125.301994
 33
0.0
  0
SOLID
  5
F92
100
AcDbEntity
  8
DIM
 62
     0
100
AcDbTrace
 10
57.896055
 20
125.718661
 30
0.0
 11
57.896055
 21
124.885328
 31
0.0
 12
55.396055
 22
125.301994
 32
0.0
 13
55.396055
 23
125.301994
 33
0.0
  0
MTEXT
  5
F93
100
AcDbEntity
  8
DIM
100
AcDbMText
 10
59.146055
 20
127.751994
 30
0.0
 40
2.5
 41
0.0
 71
     5
 72
     5
  1
\A1;7.5
  7
BIGFONT
1001
ACAD
1000
MTEXTBEGIN
1070
    73
1070
     1
1070
    44
1040
1.0
1070
    74
1070
     0
1000
MTEXTEND
  0
POINT
  5
F94
100
AcDbEntity
  8
DEFPOINTS
 62
     0
100
AcDbPoint
 10
62.896055
 20
147.083111
 30
0.0
  0
POINT
  5
F95
100
AcDbEntity
  8
DEFPOINTS
 62
     0
100
AcDbPoint
 10
55.396055
 20
148.520558
 30
0.0
  0
POINT
  5
F96
100
AcDbEntity
  8
DEFPOINTS
 62
     0
100
AcDbPoint
 10
55.396055
 20
125.301994
 30
0.0
  0
ENDBLK
  5
C5B
100
AcDbEntity
  8
0
100
AcDbBlockEnd
  0
BLOCK
  5
C46
100
AcDbEntity
  8
0
100
AcDbBlockBegin
  2
*D6
 70
     1
 10
0.0
 20
0.0
 30
0.0
  3
*D6
  1

  0
LINE
  5
F85
100
AcDbEntity
  8
DIM
 62
     0
100
AcDbLine
 10
70.396055
 20
147.895558
 30
0.0
 11
70.396055
 21
113.896413
 31
0.0
  0
LINE
  5
F86
100
AcDbEntity
  8
DIM
 62
     0
100
AcDbLine
 10
55.396055
 20
147.895558
 30
0.0
 11
55.396055
 21
113.896413
 31
0.0
  0
LINE
  5
F87
100
AcDbEntity
  8
DIM
 62
     0
100
AcDbLine
 10
67.896055
 20
115.146413
 30
0.0
 11
57.896055
 21
115.146413
 31
0.0
  0
SOLID
  5
F88
100
AcDbEntity
  8
DIM
 62
     0
100
AcDbTrace
 10
67.896055
 20
115.56308
 30
0.0
 11
67.896055
 21
114.729746
 31
0.0
 12
70.396055
 22
115.146413
 32
0.0
 13
70.396055
 23
115.146413
 33
0.0
  0
SOLID
  5
F89
100
AcDbEntity
  8
DIM
 62
     0
100
AcDbTrace
 10
57.896055
 20
115.56308
 30
0.0
 11
57.896055
 21
114.729746
 31
0.0
 12
55.396055
 22
115.146413
 32
0.0
 13
55.396055
 23
115.146413
 33
0.0
  0
MTEXT
  5
F8A
100
AcDbEntity
  8
DIM
100
AcDbMText
 10
62.896055
 20
117.596413
 30
0.0
 40
2.5
 41
0.0
 71
     5
 72
     5
  1
\A1;15%%p0.1
  7
BIGFONT
1001
ACAD
1000
MTEXTBEGIN
1070
    73
1070
     1
1070
    44
1040
1.0
1070
    74
1070
     0
1000
MTEXTEND
  0
POINT
  5
F8B
100
AcDbEntity
  8
DEFPOINTS
 62
     0
100
AcDbPoint
 10
70.396055
 20
148.520558
 30
0.0
  0
POINT
  5
F8C
100
AcDbEntity
  8
DEFPOINTS
 62
     0
100
AcDbPoint
 10
55.396055
 20
148.520558
 30
0.0
  0
POINT
  5
F8D
100
AcDbEntity
  8
DEFPOINTS
 62
     0
100
AcDbPoint
 10
55.396055
 20
115.146413
 30
0.0
  0
ENDBLK
  5
C50
100
AcDbEntity
  8
0
100
AcDbBlockEnd
  0
BLOCK
  5
BD1
100
AcDbEntity
  8
0
100
AcDbBlockBegin
  2
*D7
 70
     1
 10
0.0
 20
0.0
 30
0.0
  3
*D7
  1

  0
LINE
  5
FC1
100
AcDbEntity
  8
DIM
 62
     0
100
AcDbLine
 10
84.668528
 20
161.454685
 30
0.0
 11
71.096913
 21
157.755716
 31
0.0
  0
MTEXT
  5
FC2
100
AcDbEntity
  8
DIM
100
AcDbMText
 10
78.444477
 20
162.297677
 30
0.0
 40
2.5
 41
0.0
 71
     5
 72
     5
  1
\A1;2-R6
  7
BIGFONT
 11
0.964807
 21
0.26296
 31
0.0
1001
ACAD
1000
MTEXTBEGIN
1070
    73
1070
     1
1070
    44
1040
1.0
1070
    74
1070
     0
1000
MTEXTEND
  0
LINE
  5
FC3
100
AcDbEntity
  8
DIM
 62
     0
100
AcDbLine
 10
62.896055
 20
155.520558
 30
0.0
 11
68.684896
 21
157.098317
 31
0.0
  0
SOLID
  5
FC4
100
AcDbEntity
  8
DIM
 62
     0
100
AcDbTrace
 10
70.987346
 20
158.157719
 30
0.0
 11
71.20648
 21
157.353714
 31
0.0
 12
68.684896
 22
157.098317
 32
0.0
 13
68.684896
 23
157.098317
 33
0.0
  0
POINT
  5
FC5
100
AcDbEntity
  8
DEFPOINTS
 62
     0
100
AcDbPoint
 10
68.684896
 20
157.098317
 30
0.0
  0
POINT
  5
FC6
100
AcDbEntity
  8
DEFPOINTS
 62
     0
100
AcDbPoint
 10
62.896055
 20
155.520558
 30
0.0
  0
ENDBLK
  5
BD8
100
AcDbEntity
  8
0
100
AcDbBlockEnd
  0
BLOCK
  5
BF8
100
AcDbEntity
  8
0
100
AcDbBlockBegin
  2
*D8
 70
     1
 10
0.0
 20
0.0
 30
0.0
  3
*D8
  1

  0
LINE
  5
FD1
100
AcDbEntity
  8
DIM
 62
     0
100
AcDbLine
 10
55.271055
 20
183.020558
 30
0.0
 11
37.396915
 21
183.020558
 31
0.0
  0
LINE
  5
FD2
100
AcDbEntity
  8
DIM
 62
     0
100
AcDbLine
 10
55.271055
 20
148.020558
 30
0.0
 11
37.396915
 21
148.020558
 31
0.0
  0
LINE
  5
FD3
100
AcDbEntity
  8
DIM
 62
     0
100
AcDbLine
 10
38.646915
 20
180.520558
 30
0.0
 11
38.646915
 21
150.520558
 31
0.0
  0
SOLID
  5
FD4
100
AcDbEntity
  8
DIM
 62
     0
100
AcDbTrace
 10
38.230248
 20
180.520558
 30
0.0
 11
39.063582
 21
180.520558
 31
0.0
 12
38.646915
 22
183.020558
 32
0.0
 13
38.646915
 23
183.020558
 33
0.0
  0
SOLID
  5
FD5
100
AcDbEntity
  8
DIM
 62
     0
100
AcDbTrace
 10
38.230248
 20
150.520558
 30
0.0
 11
39.063582
 21
150.520558
 31
0.0
 12
38.646915
 22
148.020558
 32
0.0
 13
38.646915
 23
148.020558
 33
0.0
  0
MTEXT
  5
FD6
100
AcDbEntity
  8
DIM
100
AcDbMText
 10
36.196915
 20
165.520558
 30
0.0
 40
2.5
 41
0.0
 71
     5
 72
     5
  1
\A1;%%c35%%p0.1
  7
BIGFONT
 11
0.0
 21
1.0
 31
0.0
1001
ACAD
1000
MTEXTBEGIN
1070
    73
1070
     1
1070
    44
1040
1.0
1070
    74
1070
     0
1000
MTEXTEND
  0
POINT
  5
FD7
100
AcDbEntity
  8
DEFPOINTS
 62
     0
100
AcDbPoint
 10
55.896055
 20
183.020558
 30
0.0
  0
POINT
  5
FD8
100
AcDbEntity
  8
DEFPOINTS
 62
     0
100
AcDbPoint
 10
55.896055
 20
148.020558
 30
0.0
  0
POINT
  5
FD9
100
AcDbEntity
  8
DEFPOINTS
 62
     0
100
AcDbPoint
 10
38.646915
 20
148.020558
 30
0.0
  0
ENDBLK
  5
C02
100
AcDbEntity
  8
0
100
AcDbBlockEnd
  0
BLOCK
  5
C1B
100
AcDbEntity
  8
0
100
AcDbBlockBegin
  2
*D9
 70
     1
 10
0.0
 20
0.0
 30
0.0
  3
*D9
  1

  0
LINE
  5
FC7
100
AcDbEntity
  8
DIM
 62
     0
100
AcDbLine
 10
55.271055
 20
170.520558
 30
0.0
 11
42.610693
 21
170.520558
 31
0.0
  0
LINE
  5
FC8
100
AcDbEntity
  8
DIM
 62
     0
100
AcDbLine
 10
55.271055
 20
160.520558
 30
0.0
 11
42.610693
 21
160.520558
 31
0.0
  0
LINE
  5
FC9
100
AcDbEntity
  8
DIM
 62
     0
100
AcDbLine
 10
43.860693
 20
163.020558
 30
0.0
 11
43.860693
 21
168.020558
 31
0.0
  0
LINE
  5
FCA
100
AcDbEntity
  8
DIM
 62
     0
100
AcDbLine
 10
43.860693
 20
170.520558
 30
0.0
 11
43.860693
 21
197.735744
 31
0.0
  0
SOLID
  5
FCB
100
AcDbEntity
  8
DIM
 62
     0
100
AcDbTrace
 10
43.444026
 20
163.020558
 30
0.0
 11
44.277359
 21
163.020558
 31
0.0
 12
43.860693
 22
160.520558
 32
0.0
 13
43.860693
 23
160.520558
 33
0.0
  0
SOLID
  5
FCC
100
AcDbEntity
  8
DIM
 62
     0
100
AcDbTrace
 10
43.444026
 20
168.020558
 30
0.0
 11
44.277359
 21
168.020558
 31
0.0
 12
43.860693
 22
170.520558
 32
0.0
 13
43.860693
 23
170.520558
 33
0.0
  0
MTEXT
  5
FCD
100
AcDbEntity
  8
DIM
100
AcDbMText
 10
41.410693
 20
191.32741
 30
0.0
 40
2.5
 41
0.0
 71
     5
 72
     5
  1
\A1;%%c10H8
  7
BIGFONT
 11
0.0
 21
1.0
 31
0.0
1001
ACAD
1000
MTEXTBEGIN
1070
    73
1070
     1
1070
    44
1040
1.0
1070
    74
1070
     0
1000
MTEXTEND
  0
POINT
  5
FCE
100
AcDbEntity
  8
DEFPOINTS
 62
     0
100
AcDbPoint
 10
55.896055
 20
170.520558
 30
0.0
  0
POINT
  5
FCF
100
AcDbEntity
  8
DEFPOINTS
 62
     0
100
AcDbPoint
 10
55.896055
 20
160.520558
 30
0.0
  0
POINT
  5
FD0
100
AcDbEntity
  8
DEFPOINTS
 62
     0
100
AcDbPoint
 10
43.860693
 20
160.520558
 30
0.0
  0
ENDBLK
  5
C26
100
AcDbEntity
  8
0
100
AcDbBlockEnd
  0
BLOCK
  5
DA6
100
AcDbEntity
  8
0
100
AcDbBlockBegin
  2
*D10
 70
     1
 10
0.0
 20
0.0
 30
0.0
  3
*D10
  1

  0
LINE
  5
FDA
100
AcDbEntity
  8
DIM
 62
     0
100
AcDbLine
 10
150.436885
 20
175.520558
 30
0.0
 11
162.820793
 21
175.520558
 31
0.0
  0
LINE
  5
FDB
100
AcDbEntity
  8
DIM
 62
     0
100
AcDbLine
 10
154.740237
 20
165.520558
 30
0.0
 11
162.820793
 21
165.520558
 31
0.0
  0
LINE
  5
FDC
100
AcDbEntity
  8
DIM
 62
     0
100
AcDbLine
 10
161.570793
 20
173.020558
 30
0.0
 11
161.570793
 21
168.020558
 31
0.0
  0
SOLID
  5
FDD
100
AcDbEntity
  8
DIM
 62
     0
100
AcDbTrace
 10
161.154126
 20
173.020558
 30
0.0
 11
161.98746
 21
173.020558
 31
0.0
 12
161.570793
 22
175.520558
 32
0.0
 13
161.570793
 23
175.520558
 33
0.0
  0
SOLID
  5
FDE
100
AcDbEntity
  8
DIM
 62
     0
100
AcDbTrace
 10
161.154126
 20
168.020558
 30
0.0
 11
161.98746
 21
168.020558
 31
0.0
 12
161.570793
 22
165.520558
 32
0.0
 13
161.570793
 23
165.520558
 33
0.0
  0
MTEXT
  5
FDF
100
AcDbEntity
  8
DIM
100
AcDbMText
 10
159.120793
 20
170.520558
 30
0.0
 40
2.5
 41
0.0
 71
     5
 72
     5
  1
\A1;10
  7
BIGFONT
 11
0.0
 21
1.0
 31
0.0
1001
ACAD
1000
MTEXTBEGIN
1070
    73
1070
     1
1070
    44
1040
1.0
1070
    74
1070
     0
1000
MTEXTEND
  0
POINT
  5
FE0
100
AcDbEntity
  8
DEFPOINTS
 62
     0
100
AcDbPoint
 10
149.811885
 20
175.520558
 30
0.0
  0
POINT
  5
FE1
100
AcDbEntity
  8
DEFPOINTS
 62
     0
100
AcDbPoint
 10
154.115237
 20
165.520558
 30
0.0
  0
POINT
  5
FE2
100
AcDbEntity
  8
DEFPOINTS
 62
     0
100
AcDbPoint
 10
161.570793
 20
165.520558
 30
0.0
  0
ENDBLK
  5
DA7
100
AcDbEntity
  8
0
100
AcDbBlockEnd
  0
BLOCK
  5
ED2
100
AcDbEntity
  8
0
100
AcDbBlockBegin
  2
_OPEN30
 70
     0
 10
0.0
 20
0.0
 30
0.0
  3
_OPEN30
  1

  0
LINE
  5
ECF
100
AcDbEntity
  8
0
 62
     0
100
AcDbLine
 10
-1.0
 20
0.267949
 30
0.0
 11
0.0
 21
0.0
 31
0.0
  0
LINE
  5
ED0
100
AcDbEntity
  8
0
 62
     0
100
AcDbLine
 10
0.0
 20
0.0
 30
0.0
 11
-1.0
 21
-0.267949
 31
0.0
  0
LINE
  5
ED1
100
AcDbEntity
  8
0
 62
     0
100
AcDbLine
 10
0.0
 20
0.0
 30
0.0
 11
-1.0
 21
0.0
 31
0.0
  0
ENDBLK
  5
ED3
100
AcDbEntity
  8
0
100
AcDbBlockEnd
  0
ENDSEC
  0
SECTION
  2
ENTITIES
  0
TEXT
  5
3E9
100
AcDbEntity
  8
図枠部品表
 62
     3
100
AcDbText
 10
403.65269
 20
422.521663
 30
0.0
 40
2.4325
  1

 41
0.8
  7
KANJI
 72
     1
 11
403.65269
 21
423.737913
 31
0.0
100
AcDbText
 73
     2
  0
TEXT
  5
A9F
100
AcDbEntity
  8
図枠
 62
     7
100
AcDbText
 10
162.933452
 20
10.11536
 30
0.0
 40
2.6
  1

  7
KANJI
 72
     1
 11
162.933452
 21
11.41536
 31
0.0
100
AcDbText
 73
     2
  0
LINE
  5
AF3
100
AcDbEntity
  8
CENTER
100
AcDbLine
 10
112.032076
 20
165.520558
 30
0.0
 11
154.115237
 21
165.520558
 31
0.0
  0
LINE
  5
AF5
100
AcDbEntity
  8
CENTER
100
AcDbLine
 10
72.574867
 20
165.520558
 30
0.0
 11
53.217244
 21
165.520558
 31
0.0
  0
ARC
  5
AF9
100
AcDbEntity
  8
0
100
AcDbCircle
 10
133.073656
 20
165.520558
 30
0.0
 40
17.5
100
AcDbArc
 50
272.456286
 51
87.543714
  0
ARC
  5
AFA
100
AcDbEntity
  8
0
100
AcDbCircle
 10
133.073656
 20
165.520558
 30
0.0
 40
5.0
100
AcDbArc
 50
98.626927
 51
261.373073
  0
ARC
  5
AFB
100
AcDbEntity
  8
0
100
AcDbCircle
 10
133.073656
 20
165.520558
 30
0.0
 40
17.0
100
AcDbArc
 50
272.528576
 51
87.471424
  0
ARC
  5
AFC
100
AcDbEntity
  8
0
100
AcDbCircle
 10
133.073656
 20
165.520558
 30
0.0
 40
5.5
100
AcDbArc
 50
97.83748
 51
262.16252
  0
LINE
  5
B00
100
AcDbEntity
  8
0
100
AcDbLine
 10
133.823656
 20
183.004479
 30
0.0
 11
133.823656
 21
170.463988
 31
0.0
  0
LINE
  5
B02
100
AcDbEntity
  8
0
100
AcDbLine
 10
132.323656
 20
148.036636
 30
0.0
 11
132.323656
 21
160.577128
 31
0.0
  0
LINE
  5
B07
100
AcDbEntity
  8
CENTER
100
AcDbLine
 10
116.335427
 20
155.520558
 30
0.0
 11
149.811885
 21
155.520558
 31
0.0
  0
LINE
  5
B09
100
AcDbEntity
  8
0
100
AcDbLine
 10
133.823656
 20
160.577128
 30
0.0
 11
133.823656
 21
148.036636
 31
0.0
  0
LINE
  5
B0A
100
AcDbEntity
  8
0
100
AcDbLine
 10
132.323656
 20
170.463988
 30
0.0
 11
132.323656
 21
183.004479
 31
0.0
  0
ARC
  5
B0B
100
AcDbEntity
  8
0
100
AcDbCircle
 10
133.073656
 20
165.520558
 30
0.0
 40
5.0
100
AcDbArc
 50
278.626927
 51
81.373073
  0
ARC
  5
B0C
100
AcDbEntity
  8
0
100
AcDbCircle
 10
133.073656
 20
165.520558
 30
0.0
 40
5.5
100
AcDbArc
 50
277.83748
 51
82.16252
  0
LINE
  5
B1E
100
AcDbEntity
  8
CENTER
100
AcDbLine
 10
62.896055
 20
147.083111
 30
0.0
 11
62.896055
 21
163.958004
 31
0.0
  0
LINE
  5
B21
100
AcDbEntity
  8
0
100
AcDbLine
 10
69.896055
 20
183.020558
 30
0.0
 11
55.896055
 21
183.020558
 31
0.0
  0
LINE
  5
B22
100
AcDbEntity
  8
0
100
AcDbLine
 10
69.896055
 20
148.020558
 30
0.0
 11
55.896055
 21
148.020558
 31
0.0
  0
LINE
  5
B24
100
AcDbEntity
  8
0
100
AcDbLine
 10
55.396055
 20
182.520558
 30
0.0
 11
55.396055
 21
148.520558
 31
0.0
  0
LINE
  5
B26
100
AcDbEntity
  8
0
100
AcDbLine
 10
70.396055
 20
148.520558
 30
0.0
 11
70.396055
 21
182.520558
 31
0.0
  0
LINE
  5
B27
100
AcDbEntity
  8
0
100
AcDbLine
 10
69.896055
 20
183.020558
 30
0.0
 11
70.396055
 21
182.520558
 31
0.0
  0
LINE
  5
B28
100
AcDbEntity
  8
0
100
AcDbLine
 10
70.396055
 20
148.520558
 30
0.0
 11
69.896055
 21
148.020558
 31
0.0
  0
LINE
  5
B29
100
AcDbEntity
  8
0
100
AcDbLine
 10
55.896055
 20
148.020558
 30
0.0
 11
55.396055
 21
148.520558
 31
0.0
  0
LINE
  5
B2A
100
AcDbEntity
  8
0
100
AcDbLine
 10
55.396055
 20
182.520558
 30
0.0
 11
55.896055
 21
183.020558
 31
0.0
  0
LINE
  5
B2B
100
AcDbEntity
  8
0
100
AcDbLine
 10
69.896055
 20
183.020558
 30
0.0
 11
69.896055
 21
148.020558
 31
0.0
  0
LINE
  5
B2C
100
AcDbEntity
  8
0
100
AcDbLine
 10
55.896055
 20
183.020558
 30
0.0
 11
55.896055
 21
148.020558
 31
0.0
  0
LINE
  5
B2F
100
AcDbEntity
  8
0
  6
HIDDEN
100
AcDbLine
 10
69.896055
 20
170.520558
 30
0.0
 11
55.896055
 21
170.520558
 31
0.0
  0
LINE
  5
B31
100
AcDbEntity
  8
0
  6
HIDDEN
100
AcDbLine
 10
55.896055
 20
160.520558
 30
0.0
 11
69.896055
 21
160.520558
 31
0.0
  0
LINE
  5
B33
100
AcDbEntity
  8
CENTER
100
AcDbLine
 10
71.333502
 20
155.520558
 30
0.0
 11
54.458609
 21
155.520558
 31
0.0
  0
LINE
  5
B41
100
AcDbEntity
  8
0
100
AcDbLine
 10
55.896055
 20
170.520558
 30
0.0
 11
55.396055
 21
171.020558
 31
0.0
  0
LINE
  5
B42
100
AcDbEntity
  8
0
100
AcDbLine
 10
69.896055
 20
170.520558
 30
0.0
 11
70.396055
 21
171.020558
 31
0.0
  0
LINE
  5
B43
100
AcDbEntity
  8
0
100
AcDbLine
 10
55.896055
 20
160.520558
 30
0.0
 11
55.396055
 21
160.020558
 31
0.0
  0
LINE
  5
B44
100
AcDbEntity
  8
0
100
AcDbLine
 10
69.896055
 20
160.520558
 30
0.0
 11
70.396055
 21
160.020558
 31
0.0
  0
LINE
  5
D4B
100
AcDbEntity
  8
CENTER
100
AcDbLine
 10
116.335427
 20
175.520558
 30
0.0
 11
149.811885
 21
175.520558
 31
0.0
  0
LINE
  5
D4C
100
AcDbEntity
  8
0
  6
HIDDEN
100
AcDbLine
 10
127.073656
 20
172.020558
 30
0.0
 11
132.323656
 21
172.020558
 31
0.0
  0
LINE
  5
D4D
100
AcDbEntity
  8
0
  6
HIDDEN
100
AcDbLine
 10
116.036931
 20
169.520558
 30
0.0
 11
127.073656
 21
169.520558
 31
0.0
  0
LINE
  5
D4F
100
AcDbEntity
  8
0
  6
HIDDEN
100
AcDbLine
 10
127.073656
 20
179.020558
 30
0.0
 11
132.323656
 21
179.020558
 31
0.0
  0
LINE
  5
D50
100
AcDbEntity
  8
CENTER
  6
HIDDEN
 62
     3
100
AcDbLine
 10
144.460206
 20
178.520558
 30
0.0
 11
144.789031
 21
178.520558
 31
0.0
  0
LINE
  5
D52
100
AcDbEntity
  8
0
  6
HIDDEN
100
AcDbLine
 10
145.073656
 20
173.134008
 30
0.0
 11
148.83073
 21
173.134008
 31
0.0
  0
LINE
  5
D53
100
AcDbEntity
  8
CENTER
  6
HIDDEN
 62
     3
100
AcDbLine
 10
144.460206
 20
172.520558
 30
0.0
 11
149.112671
 21
172.520558
 31
0.0
  0
ARC
  5
D54
100
AcDbEntity
  8
0
100
AcDbCircle
 10
133.073656
 20
165.520558
 30
0.0
 40
17.0
100
AcDbArc
 50
92.528576
 51
267.471424
  0
ARC
  5
D55
100
AcDbEntity
  8
0
100
AcDbCircle
 10
133.073656
 20
165.520558
 30
0.0
 40
17.5
100
AcDbArc
 50
92.456286
 51
267.543714
  0
ARC
  5
DD4
100
AcDbEntity
  8
0
100
AcDbCircle
 10
62.896055
 20
175.520558
 30
0.0
 40
6.0
100
AcDbArc
 50
180.0
 51
0.0
  0
LINE
  5
DD5
100
AcDbEntity
  8
CENTER
100
AcDbLine
 10
71.333502
 20
175.520558
 30
0.0
 11
54.458609
 21
175.520558
 31
0.0
  0
LINE
  5
DD9
100
AcDbEntity
  8
CENTER
100
AcDbLine
 10
62.896055
 20
183.958004
 30
0.0
 11
62.896055
 21
167.083111
 31
0.0
  0
LINE
  5
DDA
100
AcDbEntity
  8
0
100
AcDbLine
 10
68.896055
 20
175.520558
 30
0.0
 11
68.896055
 21
181.95984
 31
0.0
  0
LINE
  5
DDB
100
AcDbEntity
  8
0
100
AcDbLine
 10
68.896055
 20
181.95984
 30
0.0
 11
56.896055
 21
181.95984
 31
0.0
  0
LINE
  5
DDC
100
AcDbEntity
  8
0
100
AcDbLine
 10
56.896055
 20
175.520558
 30
0.0
 11
56.896055
 21
181.95984
 31
0.0
  0
LINE
  5
EA0
100
AcDbEntity
  8
CENTER
100
AcDbLine
 10
7.423626
 20
183.958004
 30
0.0
 11
7.423626
 21
167.083111
 31
0.0
  0
LINE
  5
EA4
100
AcDbEntity
  8
0
100
AcDbLine
 10
14.923626
 20
148.520558
 30
0.0
 11
14.923626
 21
160.020558
 31
0.0
  0
LINE
  5
EA5
100
AcDbEntity
  8
0
100
AcDbLine
 10
-0.076374
 20
182.520558
 30
0.0
 11
-0.076374
 21
171.020558
 31
0.0
  0
LINE
  5
EA8
100
AcDbEntity
  8
CENTER
100
AcDbLine
 10
15.861072
 20
155.520558
 30
0.0
 11
-1.01382
 21
155.520558
 31
0.0
  0
LINE
  5
EA9
100
AcDbEntity
  8
0
100
AcDbLine
 10
0.423626
 20
160.520558
 30
0.0
 11
14.423626
 21
160.520558
 31
0.0
  0
LINE
  5
EAA
100
AcDbEntity
  8
0
100
AcDbLine
 10
14.423626
 20
148.020558
 30
0.0
 11
0.423626
 21
148.020558
 31
0.0
  0
LINE
  5
EAB
100
AcDbEntity
  8
CENTER
100
AcDbLine
 10
17.102437
 20
165.520558
 30
0.0
 11
-2.255186
 21
165.520558
 31
0.0
  0
LINE
  5
EAD
100
AcDbEntity
  8
0
100
AcDbLine
 10
0.423626
 20
148.020558
 30
0.0
 11
-0.076374
 21
148.520558
 31
0.0
  0
LINE
  5
EAE
100
AcDbEntity
  8
0
100
AcDbLine
 10
0.423626
 20
160.520558
 30
0.0
 11
-0.076374
 21
160.020558
 31
0.0
  0
CIRCLE
  5
EAF
100
AcDbEntity
  8
0
100
AcDbCircle
 10
7.423626
 20
155.520558
 30
0.0
 40
3.5
  0
CIRCLE
  5
EB0
100
AcDbEntity
  8
0
100
AcDbCircle
 10
7.423626
 20
155.520558
 30
0.0
 40
3.0
  0
LINE
  5
EB1
100
AcDbEntity
  8
CENTER
100
AcDbLine
 10
7.423626
 20
147.083111
 30
0.0
 11
7.423626
 21
163.958004
 31
0.0
  0
CIRCLE
  5
EB2
100
AcDbEntity
  8
0
 62
     3
100
AcDbCircle
 10
7.423626
 20
155.520558
 30
0.0
 40
2.4585
  0
LINE
  5
EB4
100
AcDbEntity
  8
0
100
AcDbLine
 10
14.923626
 20
148.520558
 30
0.0
 11
14.423626
 21
148.020558
 31
0.0
  0
LINE
  5
EB5
100
AcDbEntity
  8
0
100
AcDbLine
 10
14.423626
 20
160.520558
 30
0.0
 11
14.923626
 21
160.020558
 31
0.0
  0
LINE
  5
EB7
100
AcDbEntity
  8
CENTER
100
AcDbLine
 10
15.861072
 20
175.520558
 30
0.0
 11
-1.01382
 21
175.520558
 31
0.0
  0
LINE
  5
EB8
100
AcDbEntity
  8
0
100
AcDbLine
 10
14.423626
 20
170.520558
 30
0.0
 11
0.423626
 21
170.520558
 31
0.0
  0
LINE
  5
EB9
100
AcDbEntity
  8
0
100
AcDbLine
 10
14.423626
 20
183.020558
 30
0.0
 11
0.423626
 21
183.020558
 31
0.0
  0
LINE
  5
EBB
100
AcDbEntity
  8
0
100
AcDbLine
 10
0.423626
 20
170.520558
 30
0.0
 11
-0.076374
 21
171.020558
 31
0.0
  0
LINE
  5
EBC
100
AcDbEntity
  8
0
100
AcDbLine
 10
-0.076374
 20
182.520558
 30
0.0
 11
0.423626
 21
183.020558
 31
0.0
  0
CIRCLE
  5
EBD
100
AcDbEntity
  8
0
 62
     3
100
AcDbCircle
 10
7.423626
 20
175.520558
 30
0.0
 40
2.4585
  0
CIRCLE
  5
EBE
100
AcDbEntity
  8
0
100
AcDbCircle
 10
7.423626
 20
175.520558
 30
0.0
 40
3.0
  0
CIRCLE
  5
EBF
100
AcDbEntity
  8
0
100
AcDbCircle
 10
7.423626
 20
175.520558
 30
0.0
 40
3.5
  0
LINE
  5
EC1
100
AcDbEntity
  8
0
100
AcDbLine
 10
14.423626
 20
170.520558
 30
0.0
 11
14.923626
 21
171.020558
 31
0.0
  0
LINE
  5
EC2
100
AcDbEntity
  8
0
100
AcDbLine
 10
14.423626
 20
183.020558
 30
0.0
 11
14.923626
 21
182.520558
 31
0.0
  0
POINT
  5
F4A
100
AcDbEntity
  8
0
 60
     1
100
AcDbPoint
 10
208.341421
 20
178.339703
 30
0.0
1001
GENIUS_GENOBJ-NBEHI-BHF_13
1002
{
1000
OWNER
1000
GENBEHI
1002
}
1001
GENIUS_GENOENT_13
1002
{
1000
MYREF
1005
F4A
1002
}
1002
{
1000
GRP
1005
0
1002
}
1001
GENIUS_GENOLIS_13
1002
{
1000
ENT
1005
0
1002
}
1001
GENIUS_GENBH_13
1002
{
1000
OIUMAP
1000
OIU
1002
}
1002
{
1000
FLAGS
1070
    32
1002
}
1002
{
1000
BGO
1005
F4B
1002
}
1001
GENIUS_GENODEF_13
1002
{
1000
HIER
1070
     1
1002
}
1002
{
1000
MANEDIT
1070
     1
1002
}
1002
{
1000
NOSEL
1070
     1
1002
}
1002
{
1000
BEHIND
1070
     0
1002
}
1002
{
1000
REACTOR
1002
}
  0
POINT
  5
F4B
100
AcDbEntity
  8
0
 60
     1
100
AcDbPoint
 10
208.341421
 20
178.339703
 30
0.0
1001
GENIUS_GENOBJ-NBEHI-BHB_13
1002
{
1000
OWNER
1000
GENBEHI
1002
}
1001
GENIUS_GENOENT_13
1002
{
1000
MYREF
1005
F4B
1002
}
1002
{
1000
GRP
1005
0
1002
}
1001
GENIUS_GENOLIS_13
1002
{
1000
ENT
1002
}
1001
GENIUS_GENODEF_13
1002
{
1000
HIER
1070
     1
1002
}
1002
{
1000
MANEDIT
1070
     0
1002
}
1002
{
1000
NOSEL
1070
     1
1002
}
1002
{
1000
BEHIND
1070
     0
1002
}
1002
{
1000
REACTOR
1002
}
1002
{
1000
OTHER
1070
     1
1002
}
1001
GENIUS_GENBH_13
1002
{
1000
FGO
1005
F4A
1002
}
  0
POINT
  5
F4C
100
AcDbEntity
  8
0
 60
     1
100
AcDbPoint
 10
208.341421
 20
178.339703
 30
0.0
1001
GENIUS_GENOBJ-NBEHI-BHF_13
1002
{
1000
OWNER
1000
GENBEHI
1002
}
1001
GENIUS_GENOENT_13
1002
{
1000
MYREF
1005
F4C
1002
}
1002
{
1000
GRP
1005
0
1002
}
1001
GENIUS_GENOLIS_13
1002
{
1000
ENT
1005
0
1002
}
1001
GENIUS_GENODEF_13
1002
{
1000
HIER
1070
     1
1002
}
1002
{
1000
MANEDIT
1070
     0
1002
}
1002
{
1000
NOSEL
1070
     1
1002
}
1002
{
1000
BEHIND
1070
     0
1002
}
1002
{
1000
REACTOR
1002
}
1001
GENIUS_GENBH_13
1002
{
1000
OIUMAP
1000
OIU
1002
}
1002
{
1000
FLAGS
1070
    32
1002
}
1002
{
1000
BGO
1005
F4D
1002
}
  0
POINT
  5
F4D
100
AcDbEntity
  8
0
 60
     1
100
AcDbPoint
 10
208.341421
 20
178.339703
 30
0.0
1001
GENIUS_GENOBJ-NBEHI-BHB_13
1002
{
1000
OWNER
1000
GENBEHI
1002
}
1001
GENIUS_GENOENT_13
1002
{
1000
MYREF
1005
F4D
1002
}
1002
{
1000
GRP
1005
0
1002
}
1001
GENIUS_GENOLIS_13
1002
{
1000
ENT
1002
}
1001
GENIUS_GENODEF_13
1002
{
1000
HIER
1070
     1
1002
}
1002
{
1000
MANEDIT
1070
     0
1002
}
1002
{
1000
NOSEL
1070
     1
1002
}
1002
{
1000
BEHIND
1070
     0
1002
}
1002
{
1000
REACTOR
1002
}
1002
{
1000
OTHER
1070
     1
1002
}
1001
GENIUS_GENBH_13
1002
{
1000
FGO
1005
F4C
1002
}
  0
POINT
  5
F4E
100
AcDbEntity
  8
0
 60
     1
100
AcDbPoint
 10
208.341421
 20
178.339703
 30
0.0
1001
GENIUS_GENOBJ-NBEHI-BHF_13
1002
{
1000
OWNER
1000
GENBEHI
1002
}
1001
GENIUS_GENOENT_13
1002
{
1000
MYREF
1005
F4E
1002
}
1002
{
1000
GRP
1005
0
1002
}
1001
GENIUS_GENOLIS_13
1002
{
1000
ENT
1005
0
1002
}
1001
GENIUS_GENBH_13
1002
{
1000
OIUMAP
1000
OIU
1002
}
1002
{
1000
FLAGS
1070
    32
1002
}
1002
{
1000
BGO
1005
F4F
1002
}
1001
GENIUS_GENODEF_13
1002
{
1000
HIER
1070
     1
1002
}
1002
{
1000
MANEDIT
1070
     1
1002
}
1002
{
1000
NOSEL
1070
     1
1002
}
1002
{
1000
BEHIND
1070
     0
1002
}
1002
{
1000
REACTOR
1002
}
  0
POINT
  5
F4F
100
AcDbEntity
  8
0
 60
     1
100
AcDbPoint
 10
208.341421
 20
178.339703
 30
0.0
1001
GENIUS_GENOBJ-NBEHI-BHB_13
1002
{
1000
OWNER
1000
GENBEHI
1002
}
1001
GENIUS_GENOENT_13
1002
{
1000
MYREF
1005
F4F
1002
}
1002
{
1000
GRP
1005
0
1002
}
1001
GENIUS_GENOLIS_13
1002
{
1000
ENT
1002
}
1001
GENIUS_GENODEF_13
1002
{
1000
HIER
1070
     1
1002
}
1002
{
1000
MANEDIT
1070
     0
1002
}
1002
{
1000
NOSEL
1070
     1
1002
}
1002
{
1000
BEHIND
1070
     0
1002
}
1002
{
1000
REACTOR
1002
}
1002
{
1000
OTHER
1070
     1
1002
}
1001
GENIUS_GENBH_13
1002
{
1000
FGO
1005
F4E
1002
}
  0
POINT
  5
F50
100
AcDbEntity
  8
0
 60
     1
100
AcDbPoint
 10
208.341421
 20
178.339703
 30
0.0
1001
GENIUS_GENOBJ-F-SCPASSM_13
1002
{
1000
OWNER
1000
GEF
1002
}
1001
GENIUS_GENOENT_13
1002
{
1000
MYREF
1005
F50
1002
}
1002
{
1000
GRP
1005
0
1002
}
1001
GENIUS_GENOLIS_13
1002
{
1000
ENT
1005
0
1005
0
1002
}
1001
GENIUS_GENODEF_13
1002
{
1000
HIER
1070
   200
1002
}
1002
{
1000
MANEDIT
1070
     1
1002
}
1002
{
1000
NOSEL
1070
     0
1002
}
1002
{
1000
BEHIND
1070
     0
1002
}
1002
{
1000
REACTOR
1002
}
  0
POINT
  5
F51
100
AcDbEntity
  8
0
 60
     1
100
AcDbPoint
 10
208.341421
 20
178.339703
 30
0.0
1001
GENIUS_GENOBJ-NBEHI-BHF_13
1002
{
1000
OWNER
1000
GENBEHI
1002
}
1001
GENIUS_GENOENT_13
1002
{
1000
MYREF
1005
F51
1002
}
1002
{
1000
GRP
1005
0
1002
}
1001
GENIUS_GENOLIS_13
1002
{
1000
ENT
1005
0
1002
}
1001
GENIUS_GENODEF_13
1002
{
1000
HIER
1070
     1
1002
}
1002
{
1000
MANEDIT
1070
     0
1002
}
1002
{
1000
NOSEL
1070
     1
1002
}
1002
{
1000
BEHIND
1070
     0
1002
}
1002
{
1000
REACTOR
1002
}
1001
GENIUS_GENBH_13
1002
{
1000
OIUMAP
1000
OIU
1002
}
1002
{
1000
FLAGS
1070
    32
1002
}
1002
{
1000
BGO
1005
F52
1002
}
  0
POINT
  5
F52
100
AcDbEntity
  8
0
 60
     1
100
AcDbPoint
 10
208.341421
 20
178.339703
 30
0.0
1001
GENIUS_GENOBJ-NBEHI-BHB_13
1002
{
1000
OWNER
1000
GENBEHI
1002
}
1001
GENIUS_GENOENT_13
1002
{
1000
MYREF
1005
F52
1002
}
1002
{
1000
GRP
1005
0
1002
}
1001
GENIUS_GENOLIS_13
1002
{
1000
ENT
1002
}
1001
GENIUS_GENODEF_13
1002
{
1000
HIER
1070
     1
1002
}
1002
{
1000
MANEDIT
1070
     0
1002
}
1002
{
1000
NOSEL
1070
     1
1002
}
1002
{
1000
BEHIND
1070
     0
1002
}
1002
{
1000
REACTOR
1002
}
1002
{
1000
OTHER
1070
     1
1002
}
1001
GENIUS_GENBH_13
1002
{
1000
FGO
1005
F51
1002
}
  0
POINT
  5
F53
100
AcDbEntity
  8
0
 60
     1
100
AcDbPoint
 10
208.341421
 20
178.339703
 30
0.0
1001
GENIUS_GENOBJ-NBEHI-BHF_13
1002
{
1000
OWNER
1000
GENBEHI
1002
}
1001
GENIUS_GENOENT_13
1002
{
1000
MYREF
1005
F53
1002
}
1002
{
1000
GRP
1005
0
1002
}
1001
GENIUS_GENOLIS_13
1002
{
1000
ENT
1005
0
1002
}
1001
GENIUS_GENBH_13
1002
{
1000
OIUMAP
1000
OIU
1002
}
1002
{
1000
FLAGS
1070
    32
1002
}
1002
{
1000
BGO
1005
F54
1002
}
1001
GENIUS_GENODEF_13
1002
{
1000
HIER
1070
     1
1002
}
1002
{
1000
MANEDIT
1070
     1
1002
}
1002
{
1000
NOSEL
1070
     1
1002
}
1002
{
1000
BEHIND
1070
     0
1002
}
1002
{
1000
REACTOR
1002
}
  0
POINT
  5
F54
100
AcDbEntity
  8
0
 60
     1
100
AcDbPoint
 10
208.341421
 20
178.339703
 30
0.0
1001
GENIUS_GENOBJ-NBEHI-BHB_13
1002
{
1000
OWNER
1000
GENBEHI
1002
}
1001
GENIUS_GENOENT_13
1002
{
1000
MYREF
1005
F54
1002
}
1002
{
1000
GRP
1005
0
1002
}
1001
GENIUS_GENOLIS_13
1002
{
1000
ENT
1005
0
1002
}
1001
GENIUS_GENODEF_13
1002
{
1000
HIER
1070
     1
1002
}
1002
{
1000
MANEDIT
1070
     0
1002
}
1002
{
1000
NOSEL
1070
     1
1002
}
1002
{
1000
BEHIND
1070
     0
1002
}
1002
{
1000
REACTOR
1002
}
1002
{
1000
OTHER
1070
     1
1002
}
1001
GENIUS_GENBH_13
1002
{
1000
FGO
1005
F53
1002
}
  0
POINT
  5
F55
100
AcDbEntity
  8
0
 60
     1
100
AcDbPoint
 10
208.341421
 20
178.339703
 30
0.0
1001
GENIUS_GENOBJ-F-SCPASSM_13
1002
{
1000
OWNER
1000
GEF
1002
}
1001
GENIUS_GENOENT_13
1002
{
1000
MYREF
1005
F55
1002
}
1002
{
1000
GRP
1005
0
1002
}
1001
GENIUS_GENOLIS_13
1002
{
1000
ENT
1005
0
1005
0
1002
}
1001
GENIUS_GENODEF_13
1002
{
1000
HIER
1070
   200
1002
}
1002
{
1000
MANEDIT
1070
     1
1002
}
1002
{
1000
NOSEL
1070
     0
1002
}
1002
{
1000
BEHIND
1070
     0
1002
}
1002
{
1000
REACTOR
1002
}
  0
POINT
  5
F56
100
AcDbEntity
  8
0
 60
     1
100
AcDbPoint
 10
208.341421
 20
178.339703
 30
0.0
1001
GENIUS_GENOBJ-NBEHI-BHF_13
1002
{
1000
OWNER
1000
GENBEHI
1002
}
1001
GENIUS_GENOENT_13
1002
{
1000
MYREF
1005
F56
1002
}
1002
{
1000
GRP
1005
0
1002
}
1001
GENIUS_GENOLIS_13
1002
{
1000
ENT
1005
0
1002
}
1001
GENIUS_GENODEF_13
1002
{
1000
HIER
1070
     1
1002
}
1002
{
1000
MANEDIT
1070
     0
1002
}
1002
{
1000
NOSEL
1070
     1
1002
}
1002
{
1000
BEHIND
1070
     0
1002
}
1002
{
1000
REACTOR
1002
}
1001
GENIUS_GENBH_13
1002
{
1000
OIUMAP
1000
OIU
1002
}
1002
{
1000
FLAGS
1070
    32
1002
}
1002
{
1000
BGO
1005
F57
1002
}
  0
POINT
  5
F57
100
AcDbEntity
  8
0
 60
     1
100
AcDbPoint
 10
208.341421
 20
178.339703
 30
0.0
1001
GENIUS_GENOBJ-NBEHI-BHB_13
1002
{
1000
OWNER
1000
GENBEHI
1002
}
1001
GENIUS_GENOENT_13
1002
{
1000
MYREF
1005
F57
1002
}
1002
{
1000
GRP
1005
0
1002
}
1001
GENIUS_GENOLIS_13
1002
{
1000
ENT
1002
}
1001
GENIUS_GENODEF_13
1002
{
1000
HIER
1070
     1
1002
}
1002
{
1000
MANEDIT
1070
     0
1002
}
1002
{
1000
NOSEL
1070
     1
1002
}
1002
{
1000
BEHIND
1070
     0
1002
}
1002
{
1000
REACTOR
1002
}
1002
{
1000
OTHER
1070
     1
1002
}
1001
GENIUS_GENBH_13
1002
{
1000
FGO
1005
F56
1002
}
  0
POINT
  5
F58
100
AcDbEntity
  8
0
 60
     1
100
AcDbPoint
 10
208.341421
 20
178.339703
 30
0.0
1001
GENIUS_GENOBJ-NBEHI-BHF_13
1002
{
1000
OWNER
1000
GENBEHI
1002
}
1001
GENIUS_GENOENT_13
1002
{
1000
MYREF
1005
F58
1002
}
1002
{
1000
GRP
1005
0
1002
}
1001
GENIUS_GENOLIS_13
1002
{
1000
ENT
1005
0
1002
}
1001
GENIUS_GENBH_13
1002
{
1000
OIUMAP
1000
OIU
1002
}
1002
{
1000
FLAGS
1070
    32
1002
}
1002
{
1000
BGO
1005
F59
1002
}
1001
GENIUS_GENODEF_13
1002
{
1000
HIER
1070
     1
1002
}
1002
{
1000
MANEDIT
1070
     1
1002
}
1002
{
1000
NOSEL
1070
     1
1002
}
1002
{
1000
BEHIND
1070
     0
1002
}
1002
{
1000
REACTOR
1002
}
  0
POINT
  5
F59
100
AcDbEntity
  8
0
 60
     1
100
AcDbPoint
 10
208.341421
 20
178.339703
 30
0.0
1001
GENIUS_GENOBJ-NBEHI-BHB_13
1002
{
1000
OWNER
1000
GENBEHI
1002
}
1001
GENIUS_GENOENT_13
1002
{
1000
MYREF
1005
F59
1002
}
1002
{
1000
GRP
1005
0
1002
}
1001
GENIUS_GENOLIS_13
1002
{
1000
ENT
1005
0
1002
}
1001
GENIUS_GENODEF_13
1002
{
1000
HIER
1070
     1
1002
}
1002
{
1000
MANEDIT
1070
     0
1002
}
1002
{
1000
NOSEL
1070
     1
1002
}
1002
{
1000
BEHIND
1070
     0
1002
}
1002
{
1000
REACTOR
1002
}
1002
{
1000
OTHER
1070
     1
1002
}
1001
GENIUS_GENBH_13
1002
{
1000
FGO
1005
F58
1002
}
  0
POINT
  5
F5A
100
AcDbEntity
  8
0
 60
     1
100
AcDbPoint
 10
208.341421
 20
178.339703
 30
0.0
1001
GENIUS_GENOBJ-F-SCPASSM_13
1002
{
1000
OWNER
1000
GEF
1002
}
1001
GENIUS_GENOENT_13
1002
{
1000
MYREF
1005
F5A
1002
}
1002
{
1000
GRP
1005
0
1002
}
1001
GENIUS_GENOLIS_13
1002
{
1000
ENT
1005
0
1005
0
1002
}
1001
GENIUS_GENODEF_13
1002
{
1000
HIER
1070
   200
1002
}
1002
{
1000
MANEDIT
1070
     1
1002
}
1002
{
1000
NOSEL
1070
     0
1002
}
1002
{
1000
BEHIND
1070
     0
1002
}
1002
{
1000
REACTOR
1002
}
  0
POINT
  5
F5B
100
AcDbEntity
  8
0
 60
     1
100
AcDbPoint
 10
208.341421
 20
178.339703
 30
0.0
1001
GENIUS_GENOBJ-NBEHI-BHF_13
1002
{
1000
OWNER
1000
GENBEHI
1002
}
1001
GENIUS_GENOENT_13
1002
{
1000
MYREF
1005
F5B
1002
}
1002
{
1000
GRP
1005
0
1002
}
1001
GENIUS_GENOLIS_13
1002
{
1000
ENT
1005
0
1002
}
1001
GENIUS_GENODEF_13
1002
{
1000
HIER
1070
     1
1002
}
1002
{
1000
MANEDIT
1070
     0
1002
}
1002
{
1000
NOSEL
1070
     1
1002
}
1002
{
1000
BEHIND
1070
     0
1002
}
1002
{
1000
REACTOR
1002
}
1001
GENIUS_GENBH_13
1002
{
1000
OIUMAP
1000
OIU
1002
}
1002
{
1000
FLAGS
1070
    32
1002
}
1002
{
1000
BGO
1005
F5C
1002
}
  0
POINT
  5
F5C
100
AcDbEntity
  8
0
 60
     1
100
AcDbPoint
 10
208.341421
 20
178.339703
 30
0.0
1001
GENIUS_GENOBJ-NBEHI-BHB_13
1002
{
1000
OWNER
1000
GENBEHI
1002
}
1001
GENIUS_GENOENT_13
1002
{
1000
MYREF
1005
F5C
1002
}
1002
{
1000
GRP
1005
0
1002
}
1001
GENIUS_GENOLIS_13
1002
{
1000
ENT
1002
}
1001
GENIUS_GENODEF_13
1002
{
1000
HIER
1070
     1
1002
}
1002
{
1000
MANEDIT
1070
     0
1002
}
1002
{
1000
NOSEL
1070
     1
1002
}
1002
{
1000
BEHIND
1070
     0
1002
}
1002
{
1000
REACTOR
1002
}
1002
{
1000
OTHER
1070
     1
1002
}
1001
GENIUS_GENBH_13
1002
{
1000
FGO
1005
F5B
1002
}
  0
POINT
  5
F5D
100
AcDbEntity
  8
0
 60
     1
100
AcDbPoint
 10
208.341421
 20
178.339703
 30
0.0
1001
GENIUS_GENOBJ-NBEHI-BHF_13
1002
{
1000
OWNER
1000
GENBEHI
1002
}
1001
GENIUS_GENOENT_13
1002
{
1000
MYREF
1005
F5D
1002
}
1002
{
1000
GRP
1005
0
1002
}
1001
GENIUS_GENOLIS_13
1002
{
1000
ENT
1005
0
1002
}
1001
GENIUS_GENBH_13
1002
{
1000
OIUMAP
1000
OIU
1002
}
1002
{
1000
FLAGS
1070
    32
1002
}
1002
{
1000
BGO
1005
F5E
1002
}
1001
GENIUS_GENODEF_13
1002
{
1000
HIER
1070
     1
1002
}
1002
{
1000
MANEDIT
1070
     1
1002
}
1002
{
1000
NOSEL
1070
     1
1002
}
1002
{
1000
BEHIND
1070
     0
1002
}
1002
{
1000
REACTOR
1002
}
  0
POINT
  5
F5E
100
AcDbEntity
  8
0
 60
     1
100
AcDbPoint
 10
208.341421
 20
178.339703
 30
0.0
1001
GENIUS_GENOBJ-NBEHI-BHB_13
1002
{
1000
OWNER
1000
GENBEHI
1002
}
1001
GENIUS_GENOENT_13
1002
{
1000
MYREF
1005
F5E
1002
}
1002
{
1000
GRP
1005
0
1002
}
1001
GENIUS_GENOLIS_13
1002
{
1000
ENT
1005
0
1002
}
1001
GENIUS_GENODEF_13
1002
{
1000
HIER
1070
     1
1002
}
1002
{
1000
MANEDIT
1070
     0
1002
}
1002
{
1000
NOSEL
1070
     1
1002
}
1002
{
1000
BEHIND
1070
     0
1002
}
1002
{
1000
REACTOR
1002
}
1002
{
1000
OTHER
1070
     1
1002
}
1001
GENIUS_GENBH_13
1002
{
1000
FGO
1005
F5D
1002
}
  0
POINT
  5
F5F
100
AcDbEntity
  8
0
 60
     1
100
AcDbPoint
 10
208.341421
 20
178.339703
 30
0.0
1001
GENIUS_GENOBJ-F-SCPASSM_13
1002
{
1000
OWNER
1000
GEF
1002
}
1001
GENIUS_GENOENT_13
1002
{
1000
MYREF
1005
F5F
1002
}
1002
{
1000
GRP
1005
0
1002
}
1001
GENIUS_GENOLIS_13
1002
{
1000
ENT
1005
0
1005
0
1002
}
1001
GENIUS_GENODEF_13
1002
{
1000
HIER
1070
   200
1002
}
1002
{
1000
MANEDIT
1070
     1
1002
}
1002
{
1000
NOSEL
1070
     0
1002
}
1002
{
1000
BEHIND
1070
     0
1002
}
1002
{
1000
REACTOR
1002
}
  0
POINT
  5
F60
100
AcDbEntity
  8
0
 60
     1
100
AcDbPoint
 10
208.341421
 20
178.339703
 30
0.0
1001
GENIUS_GENOBJ-NBEHI-BHB_13
1002
{
1000
OWNER
1000
GENBEHI
1002
}
1001
GENIUS_GENOENT_13
1002
{
1000
MYREF
1005
F60
1002
}
1002
{
1000
GRP
1005
0
1002
}
1001
GENIUS_GENOLIS_13
1002
{
1000
ENT
1002
}
1001
GENIUS_GENODEF_13
1002
{
1000
HIER
1070
     1
1002
}
1002
{
1000
MANEDIT
1070
     0
1002
}
1002
{
1000
NOSEL
1070
     1
1002
}
1002
{
1000
BEHIND
1070
     0
1002
}
1002
{
1000
REACTOR
1002
}
1002
{
1000
OTHER
1070
     1
1002
}
1001
GENIUS_GENBH_13
1002
{
1000
FGO
1005
0
1002
}
  0
POINT
  5
F61
100
AcDbEntity
  8
0
 60
     1
100
AcDbPoint
 10
208.341421
 20
178.339703
 30
0.0
1001
GENIUS_GENOBJ-NBEHI-BHF_13
1002
{
1000
OWNER
1000
GENBEHI
1002
}
1001
GENIUS_GENOENT_13
1002
{
1000
MYREF
1005
F61
1002
}
1002
{
1000
GRP
1005
0
1002
}
1001
GENIUS_GENOLIS_13
1002
{
1000
ENT
1005
0
1002
}
1001
GENIUS_GENBH_13
1002
{
1000
OIUMAP
1000
OIU
1002
}
1002
{
1000
FLAGS
1070
    32
1002
}
1002
{
1000
BGO
1005
0
1002
}
1001
GENIUS_GENODEF_13
1002
{
1000
HIER
1070
     1
1002
}
1002
{
1000
MANEDIT
1070
     1
1002
}
1002
{
1000
NOSEL
1070
     1
1002
}
1002
{
1000
BEHIND
1070
     0
1002
}
1002
{
1000
REACTOR
1002
}
  0
POINT
  5
F62
100
AcDbEntity
  8
0
 60
     1
100
AcDbPoint
 10
208.341421
 20
178.339703
 30
0.0
1001
GENIUS_GENOBJ-NBEHI-BHF_13
1002
{
1000
OWNER
1000
GENBEHI
1002
}
1001
GENIUS_GENOENT_13
1002
{
1000
MYREF
1005
F62
1002
}
1002
{
1000
GRP
1005
0
1002
}
1001
GENIUS_GENOLIS_13
1002
{
1000
ENT
1005
0
1002
}
1001
GENIUS_GENODEF_13
1002
{
1000
HIER
1070
     1
1002
}
1002
{
1000
MANEDIT
1070
     0
1002
}
1002
{
1000
NOSEL
1070
     1
1002
}
1002
{
1000
BEHIND
1070
     0
1002
}
1002
{
1000
REACTOR
1002
}
1001
GENIUS_GENBH_13
1002
{
1000
OIUMAP
1000
OIU
1002
}
1002
{
1000
FLAGS
1070
    32
1002
}
1002
{
1000
BGO
1005
F63
1002
}
  0
POINT
  5
F63
100
AcDbEntity
  8
0
 60
     1
100
AcDbPoint
 10
208.341421
 20
178.339703
 30
0.0
1001
GENIUS_GENOBJ-NBEHI-BHB_13
1002
{
1000
OWNER
1000
GENBEHI
1002
}
1001
GENIUS_GENOENT_13
1002
{
1000
MYREF
1005
F63
1002
}
1002
{
1000
GRP
1005
0
1002
}
1001
GENIUS_GENOLIS_13
1002
{
1000
ENT
1002
}
1001
GENIUS_GENODEF_13
1002
{
1000
HIER
1070
     1
1002
}
1002
{
1000
MANEDIT
1070
     0
1002
}
1002
{
1000
NOSEL
1070
     1
1002
}
1002
{
1000
BEHIND
1070
     0
1002
}
1002
{
1000
REACTOR
1002
}
1002
{
1000
OTHER
1070
     1
1002
}
1001
GENIUS_GENBH_13
1002
{
1000
FGO
1005
F62
1002
}
  0
POINT
  5
F64
100
AcDbEntity
  8
0
 60
     1
100
AcDbPoint
 10
208.341421
 20
178.339703
 30
0.0
1001
GENIUS_GENOBJ-NBEHI-BHF_13
1002
{
1000
OWNER
1000
GENBEHI
1002
}
1001
GENIUS_GENOENT_13
1002
{
1000
MYREF
1005
F64
1002
}
1002
{
1000
GRP
1005
0
1002
}
1001
GENIUS_GENOLIS_13
1002
{
1000
ENT
1005
0
1002
}
1001
GENIUS_GENBH_13
1002
{
1000
OIUMAP
1000
OIU
1002
}
1002
{
1000
FLAGS
1070
    32
1002
}
1002
{
1000
BGO
1005
F65
1002
}
1001
GENIUS_GENODEF_13
1002
{
1000
HIER
1070
     1
1002
}
1002
{
1000
MANEDIT
1070
     1
1002
}
1002
{
1000
NOSEL
1070
     1
1002
}
1002
{
1000
BEHIND
1070
     0
1002
}
1002
{
1000
REACTOR
1002
}
  0
POINT
  5
F65
100
AcDbEntity
  8
0
 60
     1
100
AcDbPoint
 10
208.341421
 20
178.339703
 30
0.0
1001
GENIUS_GENOBJ-NBEHI-BHB_13
1002
{
1000
OWNER
1000
GENBEHI
1002
}
1001
GENIUS_GENOENT_13
1002
{
1000
MYREF
1005
F65
1002
}
1002
{
1000
GRP
1005
0
1002
}
1001
GENIUS_GENOLIS_13
1002
{
1000
ENT
1005
0
1002
}
1001
GENIUS_GENODEF_13
1002
{
1000
HIER
1070
     1
1002
}
1002
{
1000
MANEDIT
1070
     0
1002
}
1002
{
1000
NOSEL
1070
     1
1002
}
1002
{
1000
BEHIND
1070
     0
1002
}
1002
{
1000
REACTOR
1002
}
1002
{
1000
OTHER
1070
     1
1002
}
1001
GENIUS_GENBH_13
1002
{
1000
FGO
1005
F64
1002
}
  0
POINT
  5
F66
100
AcDbEntity
  8
0
 60
     1
100
AcDbPoint
 10
208.341421
 20
178.339703
 30
0.0
1001
GENIUS_GENOBJ-F-SCPASSM_13
1002
{
1000
OWNER
1000
GEF
1002
}
1001
GENIUS_GENOENT_13
1002
{
1000
MYREF
1005
F66
1002
}
1002
{
1000
GRP
1005
0
1002
}
1001
GENIUS_GENOLIS_13
1002
{
1000
ENT
1005
0
1005
0
1002
}
1001
GENIUS_GENODEF_13
1002
{
1000
HIER
1070
   200
1002
}
1002
{
1000
MANEDIT
1070
     1
1002
}
1002
{
1000
NOSEL
1070
     0
1002
}
1002
{
1000
BEHIND
1070
     0
1002
}
1002
{
1000
REACTOR
1002
}
  0
LINE
  5
F67
100
AcDbEntity
  8
0
  6
HIDDEN
100
AcDbLine
 10
124.059778
 20
180.520558
 30
0.0
 11
127.073656
 21
180.520558
 31
0.0
1001
GENIUS_GENOREF_13
1005
F64
1005
F66
  0
LINE
  5
F68
100
AcDbEntity
  8
0
  6
HIDDEN
100
AcDbLine
 10
121.673656
 20
170.520558
 30
0.0
 11
127.073656
 21
170.520558
 31
0.0
1001
GENIUS_GENOREF_13
1005
F64
1005
F66
  0
LINE
  5
F69
100
AcDbEntity
  8
0
  6
HIDDEN
100
AcDbLine
 10
121.073656
 20
171.120558
 30
0.0
 11
121.073656
 21
178.258297
 31
0.0
1001
GENIUS_GENOREF_13
1005
F64
1005
F66
  0
ARC
  5
F6A
100
AcDbEntity
  8
0
100
AcDbCircle
 10
121.673656
 20
171.120558
 30
0.0
 40
0.6
100
AcDbArc
 50
180.0
 51
270.0
1001
GENIUS_GENOREF_13
1005
F64
1005
F66
  0
ARC
  5
F6B
100
AcDbEntity
  8
0
  6
HIDDEN
100
AcDbCircle
 10
121.673656
 20
179.920558
 30
0.0
 40
0.6
100
AcDbArc
 50
90.0
 51
180.0
1001
GENIUS_GENOREF_13
1005
F64
1005
F66
  0
LINE
  5
F6C
100
AcDbEntity
  8
0
  6
HIDDEN
100
AcDbLine
 10
145.073656
 20
173.134008
 30
0.0
 11
133.823656
 21
173.134008
 31
0.0
1001
GENIUS_GENOREF_13
1005
F64
1005
F66
  0
LINE
  5
F6D
100
AcDbEntity
  8
0
  6
HIDDEN
100
AcDbLine
 10
145.073656
 20
177.907108
 30
0.0
 11
133.823656
 21
177.907108
 31
0.0
1001
GENIUS_GENOREF_13
1005
F64
1005
F66
  0
LINE
  5
F6E
100
AcDbEntity
  8
0
100
AcDbLine
 10
144.460206
 20
172.520558
 30
0.0
 11
145.073656
 21
173.134008
 31
0.0
1001
GENIUS_GENOREF_13
1005
F64
1005
F66
  0
LINE
  5
F6F
100
AcDbEntity
  8
0
100
AcDbLine
 10
144.460206
 20
178.520558
 30
0.0
 11
145.073656
 21
177.907108
 31
0.0
1001
GENIUS_GENOREF_13
1005
F64
1005
F66
  0
LINE
  5
F70
100
AcDbEntity
  8
0
  6
HIDDEN
100
AcDbLine
 10
127.073656
 20
172.520558
 30
0.0
 11
132.323656
 21
172.520558
 31
0.0
1001
GENIUS_GENOREF_13
1005
F64
1005
F66
  0
LINE
  5
F71
100
AcDbEntity
  8
0
  6
HIDDEN
100
AcDbLine
 10
127.073656
 20
178.520558
 30
0.0
 11
132.323656
 21
178.520558
 31
0.0
1001
GENIUS_GENOREF_13
1005
F64
1005
F66
  0
LINE
  5
F72
100
AcDbEntity
  8
0
  6
HIDDEN
100
AcDbLine
 10
127.073656
 20
169.520558
 30
0.0
 11
127.073656
 21
180.520558
 31
0.0
1001
GENIUS_GENOREF_13
1005
F64
1005
F66
  0
LINE
  5
F73
100
AcDbEntity
  8
0
  6
HIDDEN
100
AcDbLine
 10
129.573656
 20
178.520558
 30
0.0
 11
129.573656
 21
172.520558
 31
0.0
1001
GENIUS_GENOREF_13
1005
F64
1005
F66
  0
LINE
  5
F74
100
AcDbEntity
  8
0
100
AcDbLine
 10
129.573656
 20
173.134008
 30
0.0
 11
128.960206
 21
172.520558
 31
0.0
1001
GENIUS_GENOREF_13
1005
F64
1005
F66
  0
LINE
  5
F75
100
AcDbEntity
  8
0
100
AcDbLine
 10
129.573656
 20
177.907108
 30
0.0
 11
128.960206
 21
178.520558
 31
0.0
1001
GENIUS_GENOREF_13
1005
F64
1005
F66
  0
LINE
  5
F76
100
AcDbEntity
  8
0
  6
HIDDEN
100
AcDbLine
 10
144.460206
 20
178.520558
 30
0.0
 11
144.460206
 21
172.520558
 31
0.0
1001
GENIUS_GENOREF_13
1005
F64
1005
F66
  0
LINE
  5
F77
100
AcDbEntity
  8
0
  6
HIDDEN
100
AcDbLine
 10
145.073656
 20
177.907108
 30
0.0
 11
145.073656
 21
173.134008
 31
0.0
1001
GENIUS_GENOREF_13
1005
F64
1005
F66
  0
POINT
  5
F78
100
AcDbEntity
  8
0
 60
     1
100
AcDbPoint
 10
208.341421
 20
178.339703
 30
0.0
1001
GENIUS_GENOBJ-NBEHI-BHF_13
1002
{
1000
OWNER
1000
GENBEHI
1002
}
1001
GENIUS_GENOENT_13
1002
{
1000
MYREF
1005
F78
1002
}
1002
{
1000
GRP
1005
0
1002
}
1001
GENIUS_GENOLIS_13
1002
{
1000
ENT
1005
0
1002
}
1001
GENIUS_GENODEF_13
1002
{
1000
HIER
1070
     1
1002
}
1002
{
1000
MANEDIT
1070
     0
1002
}
1002
{
1000
NOSEL
1070
     1
1002
}
1002
{
1000
BEHIND
1070
     0
1002
}
1002
{
1000
REACTOR
1002
}
1001
GENIUS_GENBH_13
1002
{
1000
OIUMAP
1000
OIU
1002
}
1002
{
1000
FLAGS
1070
    32
1002
}
1002
{
1000
BGO
1005
F79
1002
}
  0
POINT
  5
F79
100
AcDbEntity
  8
0
 60
     1
100
AcDbPoint
 10
208.341421
 20
178.339703
 30
0.0
1001
GENIUS_GENOBJ-NBEHI-BHB_13
1002
{
1000
OWNER
1000
GENBEHI
1002
}
1001
GENIUS_GENOENT_13
1002
{
1000
MYREF
1005
F79
1002
}
1002
{
1000
GRP
1005
0
1002
}
1001
GENIUS_GENOLIS_13
1002
{
1000
ENT
1002
}
1001
GENIUS_GENODEF_13
1002
{
1000
HIER
1070
     1
1002
}
1002
{
1000
MANEDIT
1070
     0
1002
}
1002
{
1000
NOSEL
1070
     1
1002
}
1002
{
1000
BEHIND
1070
     0
1002
}
1002
{
1000
REACTOR
1002
}
1002
{
1000
OTHER
1070
     1
1002
}
1001
GENIUS_GENBH_13
1002
{
1000
FGO
1005
F78
1002
}
  0
POINT
  5
F7A
100
AcDbEntity
  8
0
 60
     1
100
AcDbPoint
 10
208.341421
 20
178.339703
 30
0.0
1001
GENIUS_GENOBJ-NBEHI-BHF_13
1002
{
1000
OWNER
1000
GENBEHI
1002
}
1001
GENIUS_GENOENT_13
1002
{
1000
MYREF
1005
F7A
1002
}
1002
{
1000
GRP
1005
0
1002
}
1001
GENIUS_GENOLIS_13
1002
{
1000
ENT
1005
0
1002
}
1001
GENIUS_GENBH_13
1002
{
1000
OIUMAP
1000
OIU
1002
}
1002
{
1000
FLAGS
1070
    32
1002
}
1002
{
1000
BGO
1005
F7B
1002
}
1001
GENIUS_GENODEF_13
1002
{
1000
HIER
1070
     1
1002
}
1002
{
1000
MANEDIT
1070
     1
1002
}
1002
{
1000
NOSEL
1070
     1
1002
}
1002
{
1000
BEHIND
1070
     0
1002
}
1002
{
1000
REACTOR
1002
}
  0
POINT
  5
F7B
100
AcDbEntity
  8
0
 60
     1
100
AcDbPoint
 10
208.341421
 20
178.339703
 30
0.0
1001
GENIUS_GENOBJ-NBEHI-BHB_13
1002
{
1000
OWNER
1000
GENBEHI
1002
}
1001
GENIUS_GENOENT_13
1002
{
1000
MYREF
1005
F7B
1002
}
1002
{
1000
GRP
1005
0
1002
}
1001
GENIUS_GENOLIS_13
1002
{
1000
ENT
1005
0
1002
}
1001
GENIUS_GENODEF_13
1002
{
1000
HIER
1070
     1
1002
}
1002
{
1000
MANEDIT
1070
     0
1002
}
1002
{
1000
NOSEL
1070
     1
1002
}
1002
{
1000
BEHIND
1070
     0
1002
}
1002
{
1000
REACTOR
1002
}
1002
{
1000
OTHER
1070
     1
1002
}
1001
GENIUS_GENBH_13
1002
{
1000
FGO
1005
F7A
1002
}
  0
POINT
  5
F7C
100
AcDbEntity
  8
0
 60
     1
100
AcDbPoint
 10
208.341421
 20
178.339703
 30
0.0
1001
GENIUS_GENOBJ-F-SCPASSM_13
1002
{
1000
OWNER
1000
GEF
1002
}
1001
GENIUS_GENOENT_13
1002
{
1000
MYREF
1005
F7C
1002
}
1002
{
1000
GRP
1005
0
1002
}
1001
GENIUS_GENOLIS_13
1002
{
1000
ENT
1005
0
1005
0
1002
}
1001
GENIUS_GENODEF_13
1002
{
1000
HIER
1070
   200
1002
}
1002
{
1000
MANEDIT
1070
     1
1002
}
1002
{
1000
NOSEL
1070
     0
1002
}
1002
{
1000
BEHIND
1070
     0
1002
}
1002
{
1000
REACTOR
1002
}
  0
CIRCLE
  5
F7E
100
AcDbEntity
  8
0
100
AcDbCircle
 10
62.896055
 20
175.520558
 30
0.0
 40
5.0
1001
GENIUS_GENOREF_13
1005
F7A
1005
F7C
  0
LINE
  5
F7F
100
AcDbEntity
  8
0
100
AcDbLine
 10
65.396055
 20
176.963933
 30
0.0
 11
62.896055
 21
178.407309
 31
0.0
1001
GENIUS_GENOREF_13
1005
F7A
1005
F7C
  0
LINE
  5
F80
100
AcDbEntity
  8
0
100
AcDbLine
 10
62.896055
 20
172.633806
 30
0.0
 11
65.396055
 21
174.077182
 31
0.0
1001
GENIUS_GENOREF_13
1005
F7A
1005
F7C
  0
LINE
  5
F81
100
AcDbEntity
  8
0
100
AcDbLine
 10
65.396055
 20
174.077182
 30
0.0
 11
65.396055
 21
176.963933
 31
0.0
1001
GENIUS_GENOREF_13
1005
F7A
1005
F7C
  0
LINE
  5
F82
100
AcDbEntity
  8
0
100
AcDbLine
 10
60.396055
 20
176.963933
 30
0.0
 11
60.396055
 21
174.077182
 31
0.0
1001
GENIUS_GENOREF_13
1005
F7A
1005
F7C
  0
LINE
  5
F83
100
AcDbEntity
  8
0
100
AcDbLine
 10
60.396055
 20
174.077182
 30
0.0
 11
62.896055
 21
172.633806
 31
0.0
1001
GENIUS_GENOREF_13
1005
F7A
1005
F7C
  0
LINE
  5
F84
100
AcDbEntity
  8
0
100
AcDbLine
 10
62.896055
 20
178.407309
 30
0.0
 11
60.396055
 21
176.963933
 31
0.0
1001
GENIUS_GENOREF_13
1005
F7A
1005
F7C
  0
LINE
  5
FEC
100
AcDbEntity
  8
0
100
AcDbLine
 10
124.059778
 20
180.520558
 30
0.0
 11
121.673656
 21
180.520558
 31
0.0
  0
LINE
  5
FED
100
AcDbEntity
  8
0
100
AcDbLine
 10
121.073656
 20
179.920558
 30
0.0
 11
121.073656
 21
178.258297
 31
0.0
  0
LINE
  5
FEE
100
AcDbEntity
  8
0
  6
HIDDEN
100
AcDbLine
 10
133.823656
 20
178.520558
 30
0.0
 11
144.460206
 21
178.520558
 31
0.0
1001
GENIUS_GENOREF_13
1005
F64
1005
F66
  0
LINE
  5
FEF
100
AcDbEntity
  8
0
  6
HIDDEN
100
AcDbLine
 10
132.323656
 20
177.907108
 30
0.0
 11
129.573656
 21
177.907108
 31
0.0
1001
GENIUS_GENOREF_13
1005
F64
1005
F66
  0
LINE
  5
FF0
100
AcDbEntity
  8
0
  6
HIDDEN
100
AcDbLine
 10
132.323656
 20
173.134008
 30
0.0
 11
129.573656
 21
173.134008
 31
0.0
1001
GENIUS_GENOREF_13
1005
F64
1005
F66
  0
LINE
  5
FF1
100
AcDbEntity
  8
0
  6
HIDDEN
100
AcDbLine
 10
133.823656
 20
172.520558
 30
0.0
 11
144.460206
 21
172.520558
 31
0.0
1001
GENIUS_GENOREF_13
1005
F64
1005
F66
  0
LINE
  5
FF2
100
AcDbEntity
  8
0
100
AcDbLine
 10
132.323656
 20
178.520558
 30
0.0
 11
133.823656
 21
178.520558
 31
0.0
  0
LINE
  5
FF3
100
AcDbEntity
  8
0
100
AcDbLine
 10
132.323656
 20
177.907108
 30
0.0
 11
133.823656
 21
177.907108
 31
0.0
  0
LINE
  5
FF5
100
AcDbEntity
  8
0
100
AcDbLine
 10
132.323656
 20
173.134008
 30
0.0
 11
133.823656
 21
173.134008
 31
0.0
  0
LINE
  5
FF6
100
AcDbEntity
  8
0
100
AcDbLine
 10
132.323656
 20
172.520558
 30
0.0
 11
133.823656
 21
172.520558
 31
0.0
  0
LINE
  5
FF7
100
AcDbEntity
  8
0
  6
HIDDEN
100
AcDbLine
 10
133.823656
 20
158.520558
 30
0.0
 11
144.460206
 21
158.520558
 31
0.0
1001
GENIUS_GENOREF_13
1005
F64
1005
F66
  0
LINE
  5
FF8
100
AcDbEntity
  8
0
  6
HIDDEN
100
AcDbLine
 10
145.073656
 20
157.907108
 30
0.0
 11
133.823656
 21
157.907108
 31
0.0
1001
GENIUS_GENOREF_13
1005
F64
1005
F66
  0
LINE
  5
FF9
100
AcDbEntity
  8
0
  6
HIDDEN
100
AcDbLine
 10
145.073656
 20
153.134008
 30
0.0
 11
133.823656
 21
153.134008
 31
0.0
1001
GENIUS_GENOREF_13
1005
F64
1005
F66
  0
LINE
  5
FFA
100
AcDbEntity
  8
0
  6
HIDDEN
100
AcDbLine
 10
133.823656
 20
152.520558
 30
0.0
 11
144.460206
 21
152.520558
 31
0.0
1001
GENIUS_GENOREF_13
1005
F64
1005
F66
  0
LINE
  5
FFB
100
AcDbEntity
  8
0
  6
HIDDEN
100
AcDbLine
 10
127.073656
 20
161.520558
 30
0.0
 11
127.073656
 21
150.520558
 31
0.0
1001
GENIUS_GENOREF_13
1005
F64
1005
F66
  0
LINE
  5
FFC
100
AcDbEntity
  8
0
  6
HIDDEN
100
AcDbLine
 10
121.073656
 20
159.920558
 30
0.0
 11
121.073656
 21
152.782818
 31
0.0
1001
GENIUS_GENOREF_13
1005
F64
1005
F66
  0
LINE
  5
FFD
100
AcDbEntity
  8
0
  6
HIDDEN
100
AcDbLine
 10
121.673656
 20
160.520558
 30
0.0
 11
127.073656
 21
160.520558
 31
0.0
1001
GENIUS_GENOREF_13
1005
F64
1005
F66
  0
LINE
  5
FFE
100
AcDbEntity
  8
0
  6
HIDDEN
100
AcDbLine
 10
116.036931
 20
161.520558
 30
0.0
 11
127.073656
 21
161.520558
 31
0.0
  0
ARC
  5
FFF
100
AcDbEntity
  8
0
100
AcDbCircle
 10
121.673656
 20
159.920558
 30
0.0
 40
0.6
100
AcDbArc
 50
90.0
 51
180.0
1001
GENIUS_GENOREF_13
1005
F64
1005
F66
  0
LINE
  5
1000
100
AcDbEntity
  8
0
  6
HIDDEN
100
AcDbLine
 10
124.059778
 20
150.520558
 30
0.0
 11
127.073656
 21
150.520558
 31
0.0
1001
GENIUS_GENOREF_13
1005
F64
1005
F66
  0
LINE
  5
1001
100
AcDbEntity
  8
0
100
AcDbLine
 10
124.059778
 20
150.520558
 30
0.0
 11
121.673656
 21
150.520558
 31
0.0
  0
LINE
  5
1002
100
AcDbEntity
  8
0
100
AcDbLine
 10
121.073656
 20
151.120558
 30
0.0
 11
121.073656
 21
152.782818
 31
0.0
  0
ARC
  5
1003
100
AcDbEntity
  8
0
  6
HIDDEN
100
AcDbCircle
 10
121.673656
 20
151.120558
 30
0.0
 40
0.6
100
AcDbArc
 50
180.0
 51
270.0
1001
GENIUS_GENOREF_13
1005
F64
1005
F66
  0
LINE
  5
1004
100
AcDbEntity
  8
0
  6
HIDDEN
100
AcDbLine
 10
129.573656
 20
152.520558
 30
0.0
 11
129.573656
 21
158.520558
 31
0.0
1001
GENIUS_GENOREF_13
1005
F64
1005
F66
  0
LINE
  5
1005
100
AcDbEntity
  8
0
  6
HIDDEN
100
AcDbLine
 10
127.073656
 20
158.520558
 30
0.0
 11
132.323656
 21
158.520558
 31
0.0
1001
GENIUS_GENOREF_13
1005
F64
1005
F66
  0
LINE
  5
1006
100
AcDbEntity
  8
0
  6
HIDDEN
100
AcDbLine
 10
132.323656
 20
157.907108
 30
0.0
 11
129.573656
 21
157.907108
 31
0.0
1001
GENIUS_GENOREF_13
1005
F64
1005
F66
  0
LINE
  5
1007
100
AcDbEntity
  8
0
  6
HIDDEN
100
AcDbLine
 10
127.073656
 20
159.020558
 30
0.0
 11
132.323656
 21
159.020558
 31
0.0
  0
LINE
  5
1008
100
AcDbEntity
  8
0
100
AcDbLine
 10
129.573656
 20
157.907108
 30
0.0
 11
128.960206
 21
158.520558
 31
0.0
1001
GENIUS_GENOREF_13
1005
F64
1005
F66
  0
LINE
  5
1009
100
AcDbEntity
  8
0
100
AcDbLine
 10
132.323656
 20
158.520558
 30
0.0
 11
133.823656
 21
158.520558
 31
0.0
  0
LINE
  5
100A
100
AcDbEntity
  8
0
100
AcDbLine
 10
132.323656
 20
157.907108
 30
0.0
 11
133.823656
 21
157.907108
 31
0.0
  0
LINE
  5
100B
100
AcDbEntity
  8
0
  6
HIDDEN
100
AcDbLine
 10
132.323656
 20
153.134008
 30
0.0
 11
129.573656
 21
153.134008
 31
0.0
1001
GENIUS_GENOREF_13
1005
F64
1005
F66
  0
LINE
  5
100C
100
AcDbEntity
  8
0
  6
HIDDEN
100
AcDbLine
 10
127.073656
 20
152.520558
 30
0.0
 11
132.323656
 21
152.520558
 31
0.0
1001
GENIUS_GENOREF_13
1005
F64
1005
F66
  0
LINE
  5
100D
100
AcDbEntity
  8
0
  6
HIDDEN
100
AcDbLine
 10
127.073656
 20
152.020558
 30
0.0
 11
132.323656
 21
152.020558
 31
0.0
  0
LINE
  5
100E
100
AcDbEntity
  8
0
100
AcDbLine
 10
129.573656
 20
153.134008
 30
0.0
 11
128.960206
 21
152.520558
 31
0.0
1001
GENIUS_GENOREF_13
1005
F64
1005
F66
  0
LINE
  5
100F
100
AcDbEntity
  8
0
100
AcDbLine
 10
132.323656
 20
153.134008
 30
0.0
 11
133.823656
 21
153.134008
 31
0.0
  0
LINE
  5
1010
100
AcDbEntity
  8
0
100
AcDbLine
 10
132.323656
 20
152.520558
 30
0.0
 11
133.823656
 21
152.520558
 31
0.0
  0
LINE
  5
1011
100
AcDbEntity
  8
0
  6
HIDDEN
100
AcDbLine
 10
145.073656
 20
153.134008
 30
0.0
 11
145.073656
 21
157.907108
 31
0.0
1001
GENIUS_GENOREF_13
1005
F64
1005
F66
  0
LINE
  5
1012
100
AcDbEntity
  8
0
  6
HIDDEN
100
AcDbLine
 10
144.460206
 20
152.520558
 30
0.0
 11
144.460206
 21
158.520558
 31
0.0
1001
GENIUS_GENOREF_13
1005
F64
1005
F66
  0
LINE
  5
1013
100
AcDbEntity
  8
0
100
AcDbLine
 10
144.460206
 20
158.520558
 30
0.0
 11
145.073656
 21
157.907108
 31
0.0
1001
GENIUS_GENOREF_13
1005
F64
1005
F66
  0
LINE
  5
1014
100
AcDbEntity
  8
CENTER
  6
HIDDEN
 62
     3
100
AcDbLine
 10
144.460206
 20
152.520558
 30
0.0
 11
144.789031
 21
152.520558
 31
0.0
  0
LINE
  5
1015
100
AcDbEntity
  8
0
100
AcDbLine
 10
144.460206
 20
152.520558
 30
0.0
 11
145.073656
 21
153.134008
 31
0.0
1001
GENIUS_GENOREF_13
1005
F64
1005
F66
  0
LINE
  5
1016
100
AcDbEntity
  8
CENTER
  6
HIDDEN
 62
     3
100
AcDbLine
 10
144.460206
 20
158.520558
 30
0.0
 11
149.112671
 21
158.520558
 31
0.0
  0
LINE
  5
1017
100
AcDbEntity
  8
0
  6
HIDDEN
100
AcDbLine
 10
145.073656
 20
157.907108
 30
0.0
 11
148.83073
 21
157.907108
 31
0.0
  0
ARC
  5
1018
100
AcDbEntity
  8
0
100
AcDbCircle
 10
62.896055
 20
155.520558
 30
0.0
 40
6.0
100
AcDbArc
 50
0.0
 51
180.0
  0
CIRCLE
  5
1019
100
AcDbEntity
  8
0
100
AcDbCircle
 10
62.896055
 20
155.520558
 30
0.0
 40
5.0
1001
GENIUS_GENOREF_13
1005
F7A
1005
F7C
  0
LINE
  5
101A
100
AcDbEntity
  8
0
100
AcDbLine
 10
56.896055
 20
155.520558
 30
0.0
 11
56.896055
 21
149.081275
 31
0.0
  0
LINE
  5
101B
100
AcDbEntity
  8
0
100
AcDbLine
 10
68.896055
 20
149.081275
 30
0.0
 11
56.896055
 21
149.081275
 31
0.0
  0
LINE
  5
101D
100
AcDbEntity
  8
0
100
AcDbLine
 10
65.396055
 20
154.077182
 30
0.0
 11
62.896055
 21
152.633806
 31
0.0
1001
GENIUS_GENOREF_13
1005
F7A
1005
F7C
  0
LINE
  5
101E
100
AcDbEntity
  8
0
100
AcDbLine
 10
65.396055
 20
156.963933
 30
0.0
 11
65.396055
 21
154.077182
 31
0.0
1001
GENIUS_GENOREF_13
1005
F7A
1005
F7C
  0
LINE
  5
101F
100
AcDbEntity
  8
0
100
AcDbLine
 10
62.896055
 20
152.633806
 30
0.0
 11
60.396055
 21
154.077182
 31
0.0
1001
GENIUS_GENOREF_13
1005
F7A
1005
F7C
  0
LINE
  5
1020
100
AcDbEntity
  8
0
100
AcDbLine
 10
60.396055
 20
154.077182
 30
0.0
 11
60.396055
 21
156.963933
 31
0.0
1001
GENIUS_GENOREF_13
1005
F7A
1005
F7C
  0
LINE
  5
1021
100
AcDbEntity
  8
0
100
AcDbLine
 10
60.396055
 20
156.963933
 30
0.0
 11
62.896055
 21
158.407309
 31
0.0
1001
GENIUS_GENOREF_13
1005
F7A
1005
F7C
  0
LINE
  5
1022
100
AcDbEntity
  8
0
100
AcDbLine
 10
62.896055
 20
158.407309
 30
0.0
 11
65.396055
 21
156.963933
 31
0.0
1001
GENIUS_GENOREF_13
1005
F7A
1005
F7C
  0
LINE
  5
1023
100
AcDbEntity
  8
0
100
AcDbLine
 10
68.896055
 20
155.520558
 30
0.0
 11
68.896055
 21
149.081275
 31
0.0
  0
LINE
  5
1025
100
AcDbEntity
  8
0
100
AcDbLine
 10
-0.076374
 20
160.020558
 30
0.0
 11
-0.076374
 21
148.520558
 31
0.0
  0
LINE
  5
1027
100
AcDbEntity
  8
0
100
AcDbLine
 10
14.923626
 20
171.020558
 30
0.0
 11
14.923626
 21
182.520558
 31
0.0
  0
CIRCLE
  5
1028
100
AcDbEntity
  8
0
  6
HIDDEN
100
AcDbCircle
 10
7.423626
 20
155.520558
 30
0.0
 40
5.0
1001
GENIUS_GENOREF_13
1005
F7A
1005
F7C
  0
CIRCLE
  5
103D
100
AcDbEntity
  8
0
  6
HIDDEN
100
AcDbCircle
 10
7.423626
 20
175.520558
 30
0.0
 40
5.0
1001
GENIUS_GENOREF_13
1005
F7A
1005
F7C
  0
ENDSEC
  0
SECTION
  2
OBJECTS
  0
DICTIONARY
  5
C
100
AcDbDictionary
  3
ACAD_GROUP
350
D
  3
ACAD_LAYOUT
350
C7B
  3
ACAD_MLINESTYLE
350
1B
  3
ACAD_PLOTSETTINGS
350
C7C
  3
ADE_QUERY_LIBRARY
350
1083
  3
CONTENTDICTIONARY
350
23
1001
ADE
1000
ADE02C004
1000
[Query]
1000
CaseSensitiveMatch=0
1000
SaveCurrQueryInSession=1
1000
MkSelSetWithQryObj=0
1000
ShowBlockAsInsPt=0
1000
CreateAssociativeHatchObjects=0
1000
ReferenceBoundaryForAreaLocation=1
1000
ShowImageAsBoundary=1
1000
DefaultJoinOperator=2
1000
ColorForAdd=red
1000
ColorForRemove=red
1000
BlockLocnForQuery=1
1000
TextLocnForQuery=1
1000
[Save Back]
1000
RedefineBlockDefinitions=1
1000
RedefineLayerDefinitions=1
1000
RedefineTextStyleDefinitions=1
1000
RemoveUnusedGroups=1
1000
EraseSavedBackObjects=1
1000
RemoveLockAfterSave=1
1000
CreateHistoryFileOfChanges=0
1000
CreateBackupFileOfSourceDwg=1
1000
DontAddObjectsToSaveSet=0
1000
MarkObjectsForEditingWithoutPrompting=0
1000
[Coordinate Transformation]
1000
RestoreLastActiveDwgsOnStartup=1
1000
ActivateDwgsOnAttach=1
1000
AdjustSizesAndScalesForChangesInUnits=1
1000
AdjustRotationsForMapDistortions=1
1000
AdjustSizesAndScalesForMapDistortions=1
1000
AdjustElevations=1
1000
AdjustZeroRotationObjects=1
1000
ReconnectDbOnWSOpen=1
1000
NoOfSQLConditionsInHistory=10
1001
ACAD
1000
TREAT_AS_HARD
1070
     0
  0
DICTIONARY
  5
1087
100
AcDbDictionary
  3
ACAD_LAYOUTSELFREF
350
1088
  0
DICTIONARY
  5
1085
100
AcDbDictionary
  3
ACAD_LAYOUTSELFREF
350
1086
  0
DICTIONARY
  5
D
102
{ACAD_REACTORS
330
C
102
}
100
AcDbDictionary
1001
ACAD
1000
TREAT_AS_HARD
1070
     0
  0
DICTIONARY
  5
C7B
102
{ACAD_REACTORS
330
C
102
}
100
AcDbDictionary
1001
ACAD
1000
TREAT_AS_HARD
1070
     0
  0
DICTIONARY
  5
1B
102
{ACAD_REACTORS
330
C
102
}
100
AcDbDictionary
  3
STANDARD
350
1C
1001
ACAD
1000
TREAT_AS_HARD
1070
     0
  0
DICTIONARY
  5
C7C
102
{ACAD_REACTORS
330
C
102
}
100
AcDbDictionary
1001
ACAD
1000
TREAT_AS_HARD
1070
     0
  0
DICTIONARY
  5
1083
102
{ACAD_REACTORS
330
C
102
}
100
AcDbDictionary
  3
_CURRQRY
350
1084
1001
ACAD
1000
TREAT_AS_HARD
1070
     0
  0
DICTIONARY
  5
23
102
{ACAD_REACTORS
330
C
102
}
100
AcDbDictionary
1001
ACAD
1000
TREAT_AS_HARD
1070
     0
  0
XRECORD
  5
1088
102
{ACAD_REACTORS
330
1087
102
}
100
AcDbXrecord
340
18
  0
XRECORD
  5
1086
102
{ACAD_REACTORS
330
1085
102
}
100
AcDbXrecord
340
15
  0
MLINESTYLE
  5
1C
102
{ACAD_REACTORS
330
1B
102
}
100
AcDbMlineStyle
  2
STANDARD
 70
     0
  3

 62
   256
 51
90.0
 52
90.0
 71
     2
 49
0.5
 62
   256
  6
BYLAYER
 49
-0.5
 62
   256
  6
BYLAYER
  0
XRECORD
  5
1084
102
{ACAD_REACTORS
330
1083
102
}
100
AcDbXrecord
1000
ADE02C001
1070
     1
1070
     0
1002
{
1002
}
1002
{
1002
}
1002
{
1002
}
1000

  0
ENDSEC
  0
EOF
