  0
SECTION
  2
HEADER
  9
$ACADVER
  1
AC1009
  9
$INSBASE
 10
0.0
 20
0.0
 30
0.0
  9
$EXTMIN
 10
28.0
 20
2.447961
 30
0.0
  9
$EXTMAX
 10
217.13
 20
139.5
 30
0.0
  9
$LIMMIN
 10
0.0
 20
0.0
  9
$LIMMAX
 10
220.0
 20
170.0
  9
$ORTHOMODE
 70
     0
  9
$REGENMODE
 70
     1
  9
$FILLMODE
 70
     1
  9
$QTEXTMODE
 70
     0
  9
$MIRRTEXT
 70
     1
  9
$DRAGMODE
 70
     2
  9
$LTSCALE
 40
1.0
  9
$OSMODE
 70
     0
  9
$ATTMODE
 70
     1
  9
$TEXTSIZE
 40
7.0
  9
$TRACEWID
 40
1.0
  9
$TEXTSTYLE
  7
STANDARD
  9
$CLAYER
  8
0
  9
$CELTYPE
  6
BYLAYER
  9
$CECOLOR
 62
   256
  9
$DIMSCALE
 40
1.0
  9
$DIMASZ
 40
2.5
  9
$DIMEXO
 40
0.625
  9
$DIMDLI
 40
3.75
  9
$DIMRND
 40
0.0
  9
$DIMDLE
 40
0.0
  9
$DIMEXE
 40
1.25
  9
$DIMTP
 40
0.0
  9
$DIMTM
 40
0.0
  9
$DIMTXT
 40
2.5
  9
$DIMCEN
 40
2.5
  9
$DIMTSZ
 40
0.0
  9
$DIMTOL
 70
     0
  9
$DIMLIM
 70
     0
  9
$DIMTIH
 70
     1
  9
$DIMTOH
 70
     0
  9
$DIMSE1
 70
     0
  9
$DIMSE2
 70
     0
  9
$DIMTAD
 70
     1
  9
$DIMZIN
 70
     8
  9
$DIMBLK
  1

  9
$DIMASO
 70
     1
  9
$DIMSHO
 70
     1
  9
$DIMPOST
  1

  9
$DIMAPOST
  1

  9
$DIMALT
 70
     0
  9
$DIMALTD
 70
     2
  9
$DIMALTF
 40
0.0394
  9
$DIMLFAC
 40
1.0
  9
$DIMTOFL
 70
     1
  9
$DIMTVP
 40
1.0
  9
$DIMTIX
 70
     0
  9
$DIMSOXD
 70
     0
  9
$DIMSAH
 70
     0
  9
$DIMBLK1
  1

  9
$DIMBLK2
  1

  9
$DIMSTYLE
  2
ISO-25
  9
$DIMCLRD
 70
     0
  9
$DIMCLRE
 70
     0
  9
$DIMCLRT
 70
     0
  9
$DIMTFAC
 40
1.0
  9
$DIMGAP
 40
0.625
  9
$LUNITS
 70
     2
  9
$LUPREC
 70
     4
  9
$SKETCHINC
 40
1.0
  9
$FILLETRAD
 40
2.0
  9
$AUNITS
 70
     0
  9
$AUPREC
 70
     0
  9
$MENU
  1
.
  9
$ELEVATION
 40
0.0
  9
$PELEVATION
 40
0.0
  9
$THICKNESS
 40
0.0
  9
$LIMCHECK
 70
     0
  9
$BLIPMODE
 70
     1
  9
$CHAMFERA
 40
0.5
  9
$CHAMFERB
 40
0.5
  9
$SKPOLY
 70
     0
  9
$TDCREATE
 40
2450687.661458
  9
$TDUPDATE
 40
2451493.378168
  9
$TDINDWG
 40
0.003142
  9
$TDUSRTIMER
 40
0.003142
  9
$USRTIMER
 70
     1
  9
$ANGBASE
 50
0.0
  9
$ANGDIR
 70
     0
  9
$PDMODE
 70
     0
  9
$PDSIZE
 40
0.0
  9
$PLINEWID
 40
0.0
  9
$COORDS
 70
     2
  9
$SPLFRAME
 70
     0
  9
$SPLINETYPE
 70
     6
  9
$SPLINESEGS
 70
     8
  9
$ATTDIA
 70
     0
  9
$ATTREQ
 70
     1
  9
$HANDLING
 70
     1
  9
$HANDSEED
  5
ED6
  9
$SURFTAB1
 70
     6
  9
$SURFTAB2
 70
     6
  9
$SURFTYPE
 70
     6
  9
$SURFU
 70
     6
  9
$SURFV
 70
     6
  9
$UCSNAME
  2

  9
$UCSORG
 10
0.0
 20
0.0
 30
0.0
  9
$UCSXDIR
 10
1.0
 20
0.0
 30
0.0
  9
$UCSYDIR
 10
0.0
 20
1.0
 30
0.0
  9
$PUCSNAME
  2

  9
$PUCSORG
 10
0.0
 20
0.0
 30
0.0
  9
$PUCSXDIR
 10
1.0
 20
0.0
 30
0.0
  9
$PUCSYDIR
 10
0.0
 20
1.0
 30
0.0
  9
$USERI1
 70
     0
  9
$USERI2
 70
     0
  9
$USERI3
 70
     0
  9
$USERI4
 70
     0
  9
$USERI5
 70
     0
  9
$USERR1
 40
0.0
  9
$USERR2
 40
0.0
  9
$USERR3
 40
0.0
  9
$USERR4
 40
0.0
  9
$USERR5
 40
0.0
  9
$WORLDVIEW
 70
     1
  9
$SHADEDGE
 70
     3
  9
$SHADEDIF
 70
    70
  9
$TILEMODE
 70
     1
  9
$MAXACTVP
 70
    16
  9
$PLIMCHECK
 70
     0
  9
$PEXTMIN
 10
1.000000E+020
 20
1.000000E+020
 30
1.000000E+020
  9
$PEXTMAX
 10
-1.000000E+020
 20
-1.000000E+020
 30
-1.000000E+020
  9
$PLIMMIN
 10
0.0
 20
0.0
  9
$PLIMMAX
 10
420.0
 20
297.0
  9
$UNITMODE
 70
     0
  9
$VISRETAIN
 70
     0
  9
$PLINEGEN
 70
     0
  9
$PSLTSCALE
 70
     1
  0
ENDSEC
  0
SECTION
  2
TABLES
  0
TABLE
  2
VPORT
 70
     2
  0
VPORT
  2
*ACTIVE
 70
     0
 10
0.0
 20
0.0
 11
1.0
 21
1.0
 12
134.005144
 22
99.000775
 13
0.0
 23
0.0
 14
0.25
 24
0.25
 15
0.5
 25
0.5
 16
0.0
 26
0.0
 36
1.0
 17
0.0
 27
0.0
 37
0.0
 40
198.049136
 41
1.353571
 42
50.0
 43
0.0
 44
0.0
 50
0.0
 51
0.0
 71
     0
 72
 20000
 73
     1
 74
     1
 75
     1
 76
     1
 77
     0
 78
     0
  0
ENDTAB
  0
TABLE
  2
LTYPE
 70
     3
  0
LTYPE
  2
CONTINUOUS
 70
     0
  3
Solid line
 72
    65
 73
     0
 40
0.0
  0
LTYPE
  2
TENSEN
 70
     0
  3

 72
    65
 73
     2
 40
2.5
 49
1.5
 49
-1.0
  0
LTYPE
  2
ITTEN
 70
     0
  3

 72
    65
 73
     4
 40
3.6
 49
2.0
 49
-0.5
 49
0.6
 49
-0.5
  0
ENDTAB
  0
TABLE
  2
LAYER
 70
     4
  0
LAYER
  2
0
 70
     0
 62
     7
  6
CONTINUOUS
  0
LAYER
  2
2
 70
     0
 62
     2
  6
TENSEN
  0
LAYER
  2
1
 70
     0
 62
     1
  6
ITTEN
  0
LAYER
  2
3
 70
     0
 62
     3
  6
CONTINUOUS
  0
ENDTAB
  0
TABLE
  2
STYLE
 70
     1
  0
STYLE
  2
STANDARD
 70
     0
 40
7.0
 41
0.8
 50
0.0
 71
     0
 42
7.0
  3
ISOCP
  4
B:\r13\com\fonts\bigfont.shx
  0
ENDTAB
  0
TABLE
  2
VIEW
 70
     0
  0
ENDTAB
  0
TABLE
  2
UCS
 70
     0
  0
ENDTAB
  0
TABLE
  2
APPID
 70
     1
  0
APPID
  2
ACAD
 70
     0
  0
ENDTAB
  0
TABLE
  2
DIMSTYLE
 70
     8
  0
DIMSTYLE
  2
STANDARD
 70
     0
  3

  4

  5

  6

  7

 40
1.0
 41
0.18
 42
0.0625
 43
0.38
 44
0.18
 45
0.0
 46
0.0
 47
0.0
 48
0.0
140
0.18
141
0.09
142
0.0
143
25.4
144
1.0
145
0.0
146
1.0
147
0.09
 71
     0
 72
     0
 73
     1
 74
     1
 75
     0
 76
     0
 77
     0
 78
     0
170
     0
171
     2
172
     0
173
     0
174
     0
175
     0
176
     0
177
     0
178
     0
  0
DIMSTYLE
  2
ISO-25
 70
     0
  3

  4

  5

  6

  7

 40
1.0
 41
2.5
 42
0.625
 43
3.75
 44
1.25
 45
0.0
 46
0.0
 47
0.0
 48
0.0
140
2.5
141
2.5
142
0.0
143
0.0394
144
1.0
145
1.0
146
1.0
147
0.625
 71
     0
 72
     0
 73
     1
 74
     0
 75
     0
 76
     0
 77
     1
 78
     8
170
     0
171
     2
172
     1
173
     0
174
     0
175
     0
176
     0
177
     0
178
     0
  0
DIMSTYLE
  2
ISO-35
 70
     0
  3

  4

  5

  6

  7

 40
1.0
 41
3.5
 42
0.875
 43
5.25
 44
1.75
 45
0.0
 46
0.0
 47
0.0
 48
0.0
140
3.5
141
3.5
142
0.0
143
0.0394
144
1.0
145
1.4
146
1.0
147
0.875
 71
     0
 72
     0
 73
     1
 74
     0
 75
     0
 76
     0
 77
     1
 78
     8
170
     0
171
     2
172
     1
173
     0
174
     0
175
     0
176
     0
177
     0
178
     0
  0
DIMSTYLE
  2
ISO-5
 70
     0
  3

  4

  5

  6

  7

 40
1.0
 41
5.0
 42
1.25
 43
7.5
 44
2.5
 45
0.0
 46
0.0
 47
0.0
 48
0.0
140
5.0
141
5.0
142
0.0
143
0.0394
144
1.0
145
2.0
146
1.0
147
1.25
 71
     0
 72
     0
 73
     1
 74
     0
 75
     0
 76
     0
 77
     1
 78
     8
170
     0
171
     2
172
     1
173
     0
174
     0
175
     0
176
     0
177
     0
178
     0
  0
DIMSTYLE
  2
ISO-7
 70
     0
  3

  4

  5

  6

  7

 40
1.0
 41
7.0
 42
1.75
 43
10.5
 44
3.5
 45
0.0
 46
0.0
 47
0.0
 48
0.0
140
7.0
141
7.0
142
0.0
143
0.0394
144
1.0
145
2.8
146
1.0
147
1.75
 71
     0
 72
     0
 73
     1
 74
     0
 75
     0
 76
     0
 77
     1
 78
     8
170
     0
171
     2
172
     1
173
     0
174
     0
175
     0
176
     0
177
     0
178
     0
  0
DIMSTYLE
  2
ISO1
 70
     0
  3

  4

  5

  6

  7

 40
1.0
 41
10.0
 42
2.5
 43
15.0
 44
5.0
 45
0.0
 46
0.0
 47
0.0
 48
0.0
140
10.0
141
10.0
142
0.0
143
0.0394
144
1.0
145
4.0
146
1.0
147
2.5
 71
     0
 72
     0
 73
     1
 74
     0
 75
     0
 76
     0
 77
     1
 78
     8
170
     0
171
     2
172
     1
173
     0
174
     0
175
     0
176
     0
177
     0
178
     0
  0
DIMSTYLE
  2
ISO1-4
 70
     0
  3

  4

  5

  6

  7

 40
1.0
 41
14.0
 42
3.5
 43
21.0
 44
7.0
 45
0.0
 46
0.0
 47
0.0
 48
0.0
140
14.0
141
14.0
142
0.0
143
0.0394
144
1.0
145
5.6
146
1.0
147
3.5
 71
     0
 72
     0
 73
     1
 74
     0
 75
     0
 76
     0
 77
     1
 78
     8
170
     0
171
     2
172
     1
173
     0
174
     0
175
     0
176
     0
177
     0
178
     0
  0
DIMSTYLE
  2
ISO2
 70
     0
  3

  4

  5

  6

  7

 40
1.0
 41
20.0
 42
5.0
 43
30.0
 44
10.0
 45
0.0
 46
0.0
 47
0.0
 48
0.0
140
20.0
141
20.0
142
0.0
143
0.0394
144
1.0
145
8.0
146
1.0
147
5.0
 71
     0
 72
     0
 73
     1
 74
     0
 75
     0
 76
     0
 77
     1
 78
     8
170
     0
171
     2
172
     1
173
     0
174
     0
175
     0
176
     0
177
     0
178
     0
  0
ENDTAB
  0
ENDSEC
  0
SECTION
  2
BLOCKS
  0
BLOCK
  8
0
  2
$MODEL_SPACE
 70
     0
 10
0.0
 20
0.0
 30
0.0
  3
$MODEL_SPACE
  1

  0
ENDBLK
  5
EC8
  8
0
  0
BLOCK
 67
     1
  8
0
  2
$PAPER_SPACE
 70
     0
 10
0.0
 20
0.0
 30
0.0
  3
$PAPER_SPACE
  1

  0
ENDBLK
  5
EC6
 67
     1
  8
0
  0
ENDSEC
  0
SECTION
  2
ENTITIES
  0
TEXT
  5
37
  8
0
 10
135.007298
 20
54.595271
 30
0.0
 40
4.55
  1
部品名称
 41
0.8
  0
TEXT
  5
38
  8
0
 10
135.007298
 20
38.635271
 30
0.0
 40
4.55
  1
品番
 41
0.8
  0
TEXT
  5
39
  8
0
 10
135.507298
 20
25.175271
 30
0.0
 40
4.55
  1
尺度
 41
0.8
  0
TEXT
  5
3A
  8
0
 10
136.007298
 20
10.715271
 30
0.0
 40
4.55
  1
図番
 41
0.8
  0
TEXT
  5
3F
  8
0
 10
135.1
 20
17.0
 30
0.0
 40
7.0
  1
１／１
 41
0.8
  0
TEXT
  5
E46
  8
0
 10
134.25
 20
47.0
 30
0.0
 40
7.0
  1
セットカラー（ステンレス）
 41
0.8
  0
LINE
  5
E49
  8
1
 10
55.5
 20
103.5
 30
0.0
 11
69.75
 21
103.5
 31
0.0
  0
LINE
  5
E4A
  8
0
 10
58.5
 20
103.5
 30
0.0
 11
58.5
 21
109.0
 31
0.0
  0
LINE
  5
E4B
  8
0
 10
59.0
 20
109.5
 30
0.0
 11
66.0
 21
109.5
 31
0.0
  0
LINE
  5
E4C
  8
0
 10
66.5
 20
109.0
 30
0.0
 11
66.5
 21
103.5
 31
0.0
  0
LINE
  5
E4D
  8
0
 10
66.0
 20
109.5
 30
0.0
 11
66.5
 21
109.0
 31
0.0
  0
LINE
  5
E4E
  8
0
 10
59.0
 20
109.5
 30
0.0
 11
58.5
 21
109.0
 31
0.0
  0
CIRCLE
  5
E4F
  8
0
 10
84.5
 20
103.5
 30
0.0
 40
6.0
  0
CIRCLE
  5
E50
  8
0
 10
84.5
 20
103.5
 30
0.0
 40
2.0
  0
LINE
  5
E51
  8
1
 10
84.5
 20
94.75
 30
0.0
 11
84.5
 21
112.0
 31
0.0
  0
LINE
  5
E52
  8
1
 10
75.0
 20
103.5
 30
0.0
 11
94.0
 21
103.5
 31
0.0
  0
LINE
  5
E53
  8
2
 10
58.5
 20
105.5
 30
0.0
 11
66.5
 21
105.5
 31
0.0
  0
LINE
  5
E54
  8
2
 10
86.5
 20
104.0
 30
0.0
 11
86.5
 21
109.156854
 31
0.0
  0
LINE
  5
E55
  8
2
 10
85.75
 20
105.061249
 30
0.0
 11
85.75
 21
109.368347
 31
0.0
  0
LINE
  5
E56
  8
2
 10
82.5
 20
104.0
 30
0.0
 11
82.5
 21
109.156854
 31
0.0
  0
LINE
  5
E57
  8
2
 10
83.25
 20
105.061249
 30
0.0
 11
83.25
 21
109.368347
 31
0.0
  0
LINE
  5
E58
  8
1
 10
62.5
 20
112.5
 30
0.0
 11
62.5
 21
94.75
 31
0.0
  0
LINE
  5
E59
  8
0
 10
58.5
 20
103.5
 30
0.0
 11
58.5
 21
98.0
 31
0.0
  0
LINE
  5
E5A
  8
0
 10
66.5
 20
98.0
 30
0.0
 11
66.5
 21
103.5
 31
0.0
  0
LINE
  5
E5B
  8
2
 10
58.5
 20
101.5
 30
0.0
 11
66.5
 21
101.5
 31
0.0
  0
LINE
  5
E5C
  8
0
 10
59.0
 20
97.5
 30
0.0
 11
66.0
 21
97.5
 31
0.0
  0
LINE
  5
E5D
  8
0
 10
59.0
 20
97.5
 30
0.0
 11
58.5
 21
98.0
 31
0.0
  0
LINE
  5
E5E
  8
0
 10
66.0
 20
97.5
 30
0.0
 11
66.5
 21
98.0
 31
0.0
  0
LINE
  5
E5F
  8
2
 10
64.5
 20
109.5
 30
0.0
 11
64.5
 21
105.5
 31
0.0
  0
LINE
  5
E60
  8
2
 10
63.75
 20
109.5
 30
0.0
 11
63.75
 21
105.5
 31
0.0
  0
LINE
  5
E61
  8
2
 10
61.25
 20
109.5
 30
0.0
 11
61.25
 21
105.5
 31
0.0
  0
LINE
  5
E62
  8
2
 10
60.5
 20
109.5
 30
0.0
 11
60.5
 21
105.5
 31
0.0
  0
LINE
  5
E63
  8
1
 10
28.0
 20
103.5
 30
0.0
 11
47.0
 21
103.5
 31
0.0
  0
LINE
  5
E64
  8
1
 10
37.5
 20
94.75
 30
0.0
 11
37.5
 21
112.0
 31
0.0
  0
CIRCLE
  5
E65
  8
0
 10
37.5
 20
103.5
 30
0.0
 40
6.0
  0
CIRCLE
  5
E66
  8
0
 10
37.5
 20
103.5
 30
0.0
 40
2.0
  0
LINE
  5
E67
  8
2
 10
35.5
 20
104.0
 30
0.0
 11
35.5
 21
109.156854
 31
0.0
  0
LINE
  5
E68
  8
2
 10
36.25
 20
105.061249
 30
0.0
 11
36.25
 21
109.368347
 31
0.0
  0
LINE
  5
E69
  8
2
 10
39.5
 20
104.0
 30
0.0
 11
39.5
 21
109.156854
 31
0.0
  0
LINE
  5
E6A
  8
2
 10
38.75
 20
105.061249
 30
0.0
 11
38.75
 21
109.368347
 31
0.0
  0
LINE
  5
E6B
  8
1
 10
62.5
 20
139.5
 30
0.0
 11
62.5
 21
121.75
 31
0.0
  0
LINE
  5
E6C
  8
2
 10
58.5
 20
132.5
 30
0.0
 11
66.5
 21
132.5
 31
0.0
  0
LINE
  5
E6D
  8
0
 10
59.0
 20
136.5
 30
0.0
 11
66.0
 21
136.5
 31
0.0
  0
LINE
  5
E6E
  8
2
 10
58.5
 20
128.5
 30
0.0
 11
66.5
 21
128.5
 31
0.0
  0
LINE
  5
E6F
  8
0
 10
59.0
 20
124.5
 30
0.0
 11
66.0
 21
124.5
 31
0.0
  0
LINE
  5
E70
  8
1
 10
55.5
 20
130.5
 30
0.0
 11
69.75
 21
130.5
 31
0.0
  0
LINE
  5
E71
  8
0
 10
58.5
 20
130.5
 30
0.0
 11
58.5
 21
125.0
 31
0.0
  0
LINE
  5
E72
  8
0
 10
59.0
 20
124.5
 30
0.0
 11
58.5
 21
125.0
 31
0.0
  0
LINE
  5
E73
  8
0
 10
58.5
 20
130.5
 30
0.0
 11
58.5
 21
136.0
 31
0.0
  0
LINE
  5
E74
  8
0
 10
59.0
 20
136.5
 30
0.0
 11
58.5
 21
136.0
 31
0.0
  0
LINE
  5
E75
  8
0
 10
66.5
 20
125.0
 30
0.0
 11
66.5
 21
130.5
 31
0.0
  0
LINE
  5
E76
  8
0
 10
66.0
 20
124.5
 30
0.0
 11
66.5
 21
125.0
 31
0.0
  0
LINE
  5
E77
  8
0
 10
66.5
 20
136.0
 30
0.0
 11
66.5
 21
130.5
 31
0.0
  0
LINE
  5
E7C
  8
0
 10
66.0
 20
136.5
 30
0.0
 11
66.5
 21
136.0
 31
0.0
  0
LINE
  5
E7F
  8
1
 10
62.5
 20
78.75
 30
0.0
 11
62.5
 21
61.0
 31
0.0
  0
LINE
  5
E80
  8
1
 10
55.5
 20
69.75
 30
0.0
 11
69.75
 21
69.75
 31
0.0
  0
LINE
  5
E81
  8
0
 10
66.0
 20
63.75
 30
0.0
 11
66.5
 21
64.25
 31
0.0
  0
LINE
  5
E82
  8
0
 10
59.0
 20
63.75
 30
0.0
 11
58.5
 21
64.25
 31
0.0
  0
LINE
  5
E83
  8
0
 10
59.0
 20
63.75
 30
0.0
 11
66.0
 21
63.75
 31
0.0
  0
CIRCLE
  5
E84
  8
2
 10
62.5
 20
69.75
 30
0.0
 40
1.25
  0
CIRCLE
  5
E85
  8
2
 10
62.5
 20
69.75
 30
0.0
 40
2.0
  0
LINE
  5
E86
  8
0
 10
66.5
 20
75.25
 30
0.0
 11
66.5
 21
69.75
 31
0.0
  0
LINE
  5
E87
  8
0
 10
58.5
 20
69.75
 30
0.0
 11
58.5
 21
75.25
 31
0.0
  0
LINE
  5
E88
  8
2
 10
58.5
 20
67.75
 30
0.0
 11
66.5
 21
67.75
 31
0.0
  0
LINE
  5
E89
  8
0
 10
58.5
 20
69.75
 30
0.0
 11
58.5
 21
64.25
 31
0.0
  0
LINE
  5
E8A
  8
0
 10
66.5
 20
64.25
 30
0.0
 11
66.5
 21
69.75
 31
0.0
  0
LINE
  5
E8B
  8
0
 10
59.0
 20
75.75
 30
0.0
 11
66.0
 21
75.75
 31
0.0
  0
LINE
  5
E8C
  8
2
 10
58.5
 20
71.75
 30
0.0
 11
66.5
 21
71.75
 31
0.0
  0
LINE
  5
E8D
  8
0
 10
59.0
 20
75.75
 30
0.0
 11
58.5
 21
75.25
 31
0.0
  0
LINE
  5
E8E
  8
0
 10
66.0
 20
75.75
 30
0.0
 11
66.5
 21
75.25
 31
0.0
  0
CIRCLE
  5
E8F
  8
0
 10
62.5
 20
130.5
 30
0.0
 40
2.0
  0
CIRCLE
  5
E90
  8
0
 10
62.5
 20
130.5
 30
0.0
 40
1.25
  0
TEXT
  5
ECE
  8
0
 10
134.75
 20
31.0
 30
0.0
 40
7.0
  1
SC-0408
 41
0.8
  0
TEXT
  5
ECF
  8
0
 10
136.5
 20
2.1
 30
0.0
 40
7.0
  1
MSC00000
 41
0.8
  0
VIEWPORT
  5
22
 67
     1
  8
0
 10
261.517699
 20
148.5
 30
0.0
 40
523.035398
 41
297.0
 68
    -1
 69
     1
1001
ACAD
1000
MVIEW
1002
{
1070
    16
1010
0.0
1020
0.0
1030
0.0
1010
0.0
1020
0.0
1030
1.0
1040
0.0
1040
297.0
1040
261.517699
1040
148.5
1040
50.0
1040
0.0
1040
0.0
1070
     0
1070
   100
1070
     1
1070
     1
1070
     0
1070
     0
1070
     0
1070
     0
1040
0.0
1040
0.0
1040
0.0
1040
1.0
1040
1.0
1040
10.0
1040
10.0
1070
     0
1002
{
1002
}
1002
}
  0
ENDSEC
  0
EOF
