  0
SECTION
  2
HEADER
  9
$ACADVER
  1
AC1014
  9
$ACADMAINTVER
 70
     0
  9
$DWGCODEPAGE
  3
ANSI_932
  9
$INSBASE
 10
0.0
 20
0.0
 30
0.0
  9
$EXTMIN
 10
270.97589
 20
194.57227
 30
0.0
  9
$EXTMAX
 10
485.753846
 20
356.292434
 30
0.0
  9
$LIMMIN
 10
0.0
 20
0.0
  9
$LIMMAX
 10
200.0
 20
200.0
  9
$ORTHOMODE
 70
     0
  9
$REGENMODE
 70
     1
  9
$FILLMODE
 70
     1
  9
$QTEXTMODE
 70
     0
  9
$MIRRTEXT
 70
     1
  9
$DRAGMODE
 70
     2
  9
$LTSCALE
 40
15.0
  9
$OSMODE
 70
    37
  9
$ATTMODE
 70
     1
  9
$TEXTSIZE
 40
3.0
  9
$TRACEWID
 40
0.05
  9
$TEXTSTYLE
  7
BIGFONT
  9
$CLAYER
  8
0
  9
$CELTYPE
  6
BYLAYER
  9
$CECOLOR
 62
   256
  9
$CELTSCALE
 40
1.0
  9
$DELOBJ
 70
     1
  9
$DISPSILH
 70
     0
  9
$DIMSCALE
 40
1.0
  9
$DIMASZ
 40
2.0
  9
$DIMEXO
 40
1.3889
  9
$DIMDLI
 40
8.4444
  9
$DIMRND
 40
0.0
  9
$DIMDLE
 40
0.0
  9
$DIMEXE
 40
1.0
  9
$DIMTP
 40
0.0
  9
$DIMTM
 40
0.0
  9
$DIMTXT
 40
3.0
  9
$DIMCEN
 40
0.02
  9
$DIMTSZ
 40
0.0
  9
$DIMTOL
 70
     0
  9
$DIMLIM
 70
     0
  9
$DIMTIH
 70
     0
  9
$DIMTOH
 70
     0
  9
$DIMSE1
 70
     0
  9
$DIMSE2
 70
     0
  9
$DIMTAD
 70
     3
  9
$DIMZIN
 70
     8
  9
$DIMBLK
  1

  9
$DIMASO
 70
     1
  9
$DIMSHO
 70
     1
  9
$DIMPOST
  1

  9
$DIMAPOST
  1

  9
$DIMALT
 70
     0
  9
$DIMALTD
 70
     2
  9
$DIMALTF
 40
25.4
  9
$DIMLFAC
 40
1.0
  9
$DIMTOFL
 70
     0
  9
$DIMTVP
 40
0.75
  9
$DIMTIX
 70
     0
  9
$DIMSOXD
 70
     0
  9
$DIMSAH
 70
     0
  9
$DIMBLK1
  1

  9
$DIMBLK2
  1

  9
$DIMSTYLE
  2
STAIL1
  9
$DIMCLRD
 70
     0
  9
$DIMCLRE
 70
     0
  9
$DIMCLRT
 70
     0
  9
$DIMTFAC
 40
1.0
  9
$DIMGAP
 40
2.0
  9
$DIMJUST
 70
     0
  9
$DIMSD1
 70
     0
  9
$DIMSD2
 70
     0
  9
$DIMTOLJ
 70
     1
  9
$DIMTZIN
 70
     0
  9
$DIMALTZ
 70
     0
  9
$DIMALTTZ
 70
     0
  9
$DIMFIT
 70
     3
  9
$DIMUPT
 70
     0
  9
$DIMUNIT
 70
     2
  9
$DIMDEC
 70
     4
  9
$DIMTDEC
 70
     4
  9
$DIMALTU
 70
     2
  9
$DIMALTTD
 70
     2
  9
$DIMTXSTY
  7
BIGFONT
  9
$DIMAUNIT
 70
     0
  9
$LUNITS
 70
     2
  9
$LUPREC
 70
     4
  9
$SKETCHINC
 40
0.1
  9
$FILLETRAD
 40
0.0
  9
$AUNITS
 70
     0
  9
$AUPREC
 70
     0
  9
$MENU
  1
acad
  9
$ELEVATION
 40
0.0
  9
$PELEVATION
 40
0.0
  9
$THICKNESS
 40
0.0
  9
$LIMCHECK
 70
     0
  9
$BLIPMODE
 70
     0
  9
$CHAMFERA
 40
1.0
  9
$CHAMFERB
 40
1.0
  9
$CHAMFERC
 40
0.0
  9
$CHAMFERD
 40
0.0
  9
$SKPOLY
 70
     0
  9
$TDCREATE
 40
2450262.347638888
  9
$TDUPDATE
 40
2453594.448775497
  9
$TDINDWG
 40
0.2756104167
  9
$TDUSRTIMER
 40
0.2756104167
  9
$USRTIMER
 70
     1
  9
$ANGBASE
 50
0.0
  9
$ANGDIR
 70
     0
  9
$PDMODE
 70
     0
  9
$PDSIZE
 40
0.0
  9
$PLINEWID
 40
0.0
  9
$COORDS
 70
     1
  9
$SPLFRAME
 70
     0
  9
$SPLINETYPE
 70
     6
  9
$SPLINESEGS
 70
     8
  9
$ATTDIA
 70
     0
  9
$ATTREQ
 70
     1
  9
$HANDLING
 70
     1
  9
$HANDSEED
  5
2A02B328
  9
$SURFTAB1
 70
     6
  9
$SURFTAB2
 70
     6
  9
$SURFTYPE
 70
     6
  9
$SURFU
 70
     6
  9
$SURFV
 70
     6
  9
$UCSNAME
  2

  9
$UCSORG
 10
0.0
 20
0.0
 30
0.0
  9
$UCSXDIR
 10
1.0
 20
0.0
 30
0.0
  9
$UCSYDIR
 10
0.0
 20
1.0
 30
0.0
  9
$PUCSNAME
  2

  9
$PUCSORG
 10
0.0
 20
0.0
 30
0.0
  9
$PUCSXDIR
 10
1.0
 20
0.0
 30
0.0
  9
$PUCSYDIR
 10
0.0
 20
1.0
 30
0.0
  9
$USERI1
 70
     0
  9
$USERI2
 70
     0
  9
$USERI3
 70
     0
  9
$USERI4
 70
     0
  9
$USERI5
 70
     0
  9
$USERR1
 40
0.0
  9
$USERR2
 40
0.0
  9
$USERR3
 40
0.0
  9
$USERR4
 40
0.0
  9
$USERR5
 40
0.0
  9
$WORLDVIEW
 70
     1
  9
$SHADEDGE
 70
     3
  9
$SHADEDIF
 70
    70
  9
$TILEMODE
 70
     1
  9
$MAXACTVP
 70
    16
  9
$PINSBASE
 10
0.0
 20
0.0
 30
0.0
  9
$PLIMCHECK
 70
     0
  9
$PEXTMIN
 10
0.0
 20
0.0
 30
0.0
  9
$PEXTMAX
 10
420.0
 20
297.0
 30
0.0
  9
$PLIMMIN
 10
0.0
 20
0.0
  9
$PLIMMAX
 10
420.0
 20
297.0
  9
$UNITMODE
 70
     0
  9
$VISRETAIN
 70
     0
  9
$PLINEGEN
 70
     0
  9
$PSLTSCALE
 70
     0
  9
$TREEDEPTH
 70
  3020
  9
$PICKSTYLE
 70
     1
  9
$CMLSTYLE
  2
STANDARD
  9
$CMLJUST
 70
     0
  9
$CMLSCALE
 40
1.0
  9
$PROXYGRAPHICS
 70
     1
  9
$MEASUREMENT
 70
     0
  0
ENDSEC
  0
SECTION
  2
CLASSES
  0
CLASS
  1
LWPOLYLINE
  2
AcDbPolyline
  3
"AutoCAD"
 90
        0
280
     0
281
     1
  0
CLASS
  1
ACDBDICTIONARYWDFLT
  2
AcDbDictionaryWithDefault
  3
AutoCAD 2000
 90
        0
280
     0
281
     0
  0
CLASS
  1
ACDBPLACEHOLDER
  2
AcDbPlaceHolder
  3
AutoCAD 2000
 90
        0
280
     0
281
     0
  0
CLASS
  1
LAYOUT
  2
AcDbLayout
  3
AutoCAD 2000
 90
        0
280
     0
281
     0
  0
CLASS
  1
LONG_TRANSACTION
  2
AcDbLongTransaction
  3
AutoCAD 2000
 90
        0
280
     0
281
     0
  0
CLASS
  1
LWPOLYLINE
  2
AcDbPolyline
  3
"AutoCAD"
 90
        0
280
     0
281
     1
  0
CLASS
  1
HATCH
  2
AcDbHatch
  3
"ACAD_SEDONA"
 90
        0
280
     0
281
     1
  0
CLASS
  1
XRECORD
  2
AcDbXrecord
  3
"<Built In>"
 90
        0
280
     0
281
     0
  0
ENDSEC
  0
SECTION
  2
TABLES
  0
TABLE
  2
VPORT
  5
2A02A1F1
100
AcDbSymbolTable
 70
     2
  0
VPORT
  5
2A02B327
100
AcDbSymbolTableRecord
100
AcDbViewportTableRecord
  2
*ACTIVE
 70
     0
 10
0.0
 20
0.0
 11
1.0
 21
1.0
 12
473.273419
 22
279.556258
 13
0.0
 23
0.0
 14
11.0
 24
11.0
 15
0.0
 25
0.0
 16
0.0
 26
0.0
 36
1.0
 17
0.0
 27
0.0
 37
0.0
 40
358.93817
 41
1.434944
 42
50.0
 43
0.0
 44
0.0
 50
0.0
 51
0.0
 71
     0
 72
   100
 73
     1
 74
     0
 75
     0
 76
     0
 77
     0
 78
     0
  0
ENDTAB
  0
TABLE
  2
LTYPE
  5
2A02A1EE
100
AcDbSymbolTable
 70
     4
  0
LTYPE
  5
2A02A1FB
100
AcDbSymbolTableRecord
100
AcDbLinetypeTableRecord
  2
BYBLOCK
 70
     0
  3

 72
    65
 73
     0
 40
0.0
  0
LTYPE
  5
2A02A1FC
100
AcDbSymbolTableRecord
100
AcDbLinetypeTableRecord
  2
BYLAYER
 70
     0
  3

 72
    65
 73
     0
 40
0.0
  0
LTYPE
  5
2A02A1FD
100
AcDbSymbolTableRecord
100
AcDbLinetypeTableRecord
  2
CONTINUOUS
 70
     0
  3
Solid line
 72
    65
 73
     0
 40
0.0
  0
LTYPE
  5
2A02A21C
100
AcDbSymbolTableRecord
100
AcDbLinetypeTableRecord
  2
CENTER
 70
     0
  3
____ _ ____ _ ____ _ ____ _ ____ _ ____ _ ____ 
 72
    65
 73
     4
 40
2.0
 49
1.25
 74
     0
 49
-0.25
 74
     0
 49
0.25
 74
     0
 49
-0.25
 74
     0
  0
LTYPE
  5
2A02A220
100
AcDbSymbolTableRecord
100
AcDbLinetypeTableRecord
  2
DASHDOT2
 70
     0
  3
_._._._._._._._._._._._._._._._._._._._._._._._
 72
    65
 73
     4
 40
0.5
 49
0.25
 74
     0
 49
-0.125
 74
     0
 49
0.0
 74
     0
 49
-0.125
 74
     0
  0
LTYPE
  5
2A02A22C
100
AcDbSymbolTableRecord
100
AcDbLinetypeTableRecord
  2
HIDDEN2
 70
     0
  3
_ _ _ _ _ _ _ _ _ _ _ _ _ _ _ _ _ _ _ _ _ _ _ _
 72
    65
 73
     2
 40
0.1875
 49
0.125
 74
     0
 49
-0.0625
 74
     0
  0
ENDTAB
  0
TABLE
  2
LAYER
  5
2A02A1EB
100
AcDbSymbolTable
 70
     6
  0
LAYER
  5
2A02A1F8
100
AcDbSymbolTableRecord
100
AcDbLayerTableRecord
  2
0
 70
     0
 62
     7
  6
CONTINUOUS
  0
LAYER
  5
2A02A236
100
AcDbSymbolTableRecord
100
AcDbLayerTableRecord
  2
VIEWPORT
 70
     0
 62
     7
  6
CONTINUOUS
  0
LAYER
  5
2A02A237
100
AcDbSymbolTableRecord
100
AcDbLayerTableRecord
  2
ZI05
 70
     0
 62
     7
  6
CONTINUOUS
  0
LAYER
  5
2A02A238
100
AcDbSymbolTableRecord
100
AcDbLayerTableRecord
  2
DIM
 70
     0
 62
     4
  6
CONTINUOUS
  0
LAYER
  5
2A02A243
100
AcDbSymbolTableRecord
100
AcDbLayerTableRecord
  2
CENTR
 70
     0
 62
     2
  6
CONTINUOUS
  0
LAYER
  5
2A02A245
100
AcDbSymbolTableRecord
100
AcDbLayerTableRecord
  2
DEFPOINTS
 70
     0
 62
     7
  6
CONTINUOUS
  0
ENDTAB
  0
TABLE
  2
STYLE
  5
2A02A1EC
100
AcDbSymbolTable
 70
     3
  0
STYLE
  5
2A02A1F9
100
AcDbSymbolTableRecord
100
AcDbTextStyleTableRecord
  2
STANDARD
 70
     0
 40
0.0
 41
1.0
 50
0.0
 71
     0
 42
4.444444
  3
txt
  4

  0
STYLE
  5
2A02A218
100
AcDbSymbolTableRecord
100
AcDbTextStyleTableRecord
  2
BIGFONT
 70
     0
 40
0.0
 41
1.0
 50
0.0
 71
     0
 42
3.0
  3
txt.shx
  4
bigfont.shx
  0
STYLE
  5
2A02B1BA
100
AcDbSymbolTableRecord
100
AcDbTextStyleTableRecord
  2

 70
     1
 40
0.0
 41
1.0
 50
0.0
 71
     0
 42
2.5
  3
ltypeshp.shx
  4

  0
ENDTAB
  0
TABLE
  2
VIEW
  5
2A02A1EF
100
AcDbSymbolTable
 70
     0
  0
ENDTAB
  0
TABLE
  2
UCS
  5
2A02A1F0
100
AcDbSymbolTable
 70
     0
  0
ENDTAB
  0
TABLE
  2
APPID
  5
2A02A1F2
100
AcDbSymbolTable
 70
    37
  0
APPID
  5
2A02A1FA
100
AcDbSymbolTableRecord
100
AcDbRegAppTableRecord
  2
ACAD
 70
     0
  0
APPID
  5
2A02B034
100
AcDbSymbolTableRecord
100
AcDbRegAppTableRecord
  2
DCO15
 70
     0
  0
APPID
  5
2A02B1C4
100
AcDbSymbolTableRecord
100
AcDbRegAppTableRecord
  2
MCAD_NO_VIS
 70
     0
  0
APPID
  5
2A02B1C5
100
AcDbSymbolTableRecord
100
AcDbRegAppTableRecord
  2
ACAD_TEMP_GRAPHIC
 70
     0
  0
APPID
  5
2A02B1C6
100
AcDbSymbolTableRecord
100
AcDbRegAppTableRecord
  2
GEVID966397200
 70
     0
  0
APPID
  5
2A02B1C7
100
AcDbSymbolTableRecord
100
AcDbRegAppTableRecord
  2
GEVDC
 70
     0
  0
APPID
  5
2A02B1C8
100
AcDbSymbolTableRecord
100
AcDbRegAppTableRecord
  2
GEVCON
 70
     0
  0
APPID
  5
2A02B1C9
100
AcDbSymbolTableRecord
100
AcDbRegAppTableRecord
  2
GEVID966397201
 70
     0
  0
APPID
  5
2A02B1CA
100
AcDbSymbolTableRecord
100
AcDbRegAppTableRecord
  2
GEVID966397202
 70
     0
  0
APPID
  5
2A02B1CB
100
AcDbSymbolTableRecord
100
AcDbRegAppTableRecord
  2
GEVID966397203
 70
     0
  0
APPID
  5
2A02B1CC
100
AcDbSymbolTableRecord
100
AcDbRegAppTableRecord
  2
GEVID966397204
 70
     0
  0
APPID
  5
2A02B1CD
100
AcDbSymbolTableRecord
100
AcDbRegAppTableRecord
  2
GEVID966397205
 70
     0
  0
APPID
  5
2A02B1CE
100
AcDbSymbolTableRecord
100
AcDbRegAppTableRecord
  2
GEVID966397206
 70
     0
  0
APPID
  5
2A02B1CF
100
AcDbSymbolTableRecord
100
AcDbRegAppTableRecord
  2
GENIUS_GENBH_13
 70
     0
  0
APPID
  5
2A02B1D0
100
AcDbSymbolTableRecord
100
AcDbRegAppTableRecord
  2
GENIUS_GENODEF_13
 70
     0
  0
APPID
  5
2A02B1D1
100
AcDbSymbolTableRecord
100
AcDbRegAppTableRecord
  2
GENIUS_GENOBJ-NBEHI-BHF_13
 70
     0
  0
APPID
  5
2A02B1D2
100
AcDbSymbolTableRecord
100
AcDbRegAppTableRecord
  2
GENIUS_GENOENT_13
 70
     0
  0
APPID
  5
2A02B1D3
100
AcDbSymbolTableRecord
100
AcDbRegAppTableRecord
  2
GENIUS_GENOREF_13
 70
     0
  0
APPID
  5
2A02B1D4
100
AcDbSymbolTableRecord
100
AcDbRegAppTableRecord
  2
GENIUS_GENOLIS_13
 70
     0
  0
APPID
  5
2A02B1D5
100
AcDbSymbolTableRecord
100
AcDbRegAppTableRecord
  2
GENIUS_GENOBJ-NBEHI-BHB_13
 70
     0
  0
APPID
  5
2A02B1D6
100
AcDbSymbolTableRecord
100
AcDbRegAppTableRecord
  2
GEVID966397207
 70
     0
  0
APPID
  5
2A02B1D7
100
AcDbSymbolTableRecord
100
AcDbRegAppTableRecord
  2
GENIUS_GENOBJ-F-SCPASSM_13
 70
     0
  0
APPID
  5
2A02B1D8
100
AcDbSymbolTableRecord
100
AcDbRegAppTableRecord
  2
GENIUS_GENDTOL_13
 70
     0
  0
APPID
  5
2A02B1D9
100
AcDbSymbolTableRecord
100
AcDbRegAppTableRecord
  2
GEVID966521051
 70
     0
  0
APPID
  5
2A02B1DA
100
AcDbSymbolTableRecord
100
AcDbRegAppTableRecord
  2
GEVID966521052
 70
     0
  0
APPID
  5
2A02B1DB
100
AcDbSymbolTableRecord
100
AcDbRegAppTableRecord
  2
GEVID966521054
 70
     0
  0
APPID
  5
2A02B1DC
100
AcDbSymbolTableRecord
100
AcDbRegAppTableRecord
  2
GEVID966521055
 70
     0
  0
APPID
  5
2A02B1DD
100
AcDbSymbolTableRecord
100
AcDbRegAppTableRecord
  2
GEVID966521056
 70
     0
  0
APPID
  5
2A02B1DE
100
AcDbSymbolTableRecord
100
AcDbRegAppTableRecord
  2
GEVID966521057
 70
     0
  0
APPID
  5
2A02B1DF
100
AcDbSymbolTableRecord
100
AcDbRegAppTableRecord
  2
GEVID966521058
 70
     0
  0
APPID
  5
2A02B1E0
100
AcDbSymbolTableRecord
100
AcDbRegAppTableRecord
  2
GEVID966521059
 70
     0
  0
APPID
  5
2A02B1E1
100
AcDbSymbolTableRecord
100
AcDbRegAppTableRecord
  2
GEVID966521062
 70
     0
  0
APPID
  5
2A02B1E2
100
AcDbSymbolTableRecord
100
AcDbRegAppTableRecord
  2
GEVID966521063
 70
     0
  0
APPID
  5
2A02B1E3
100
AcDbSymbolTableRecord
100
AcDbRegAppTableRecord
  2
GEVID966521064
 70
     0
  0
APPID
  5
2A02B1E4
100
AcDbSymbolTableRecord
100
AcDbRegAppTableRecord
  2
GEVID966521065
 70
     0
  0
APPID
  5
2A02B1E5
100
AcDbSymbolTableRecord
100
AcDbRegAppTableRecord
  2
GEVID966521066
 70
     0
  0
APPID
  5
2A02B2B8
100
AcDbSymbolTableRecord
100
AcDbRegAppTableRecord
  2
ADE
 70
     0
  0
ENDTAB
  0
TABLE
  2
DIMSTYLE
  5
2A02A1F3
100
AcDbSymbolTable
 70
     2
  0
DIMSTYLE
105
2A02A232
100
AcDbSymbolTableRecord
100
AcDbDimStyleTableRecord
  2
STAIL1
 70
     0
  3

  4

  5

  6

  7

 40
1.0
 41
2.0
 42
1.3889
 43
8.444444
 44
1.0
 45
0.0
 46
0.0
 47
0.0
 48
0.0
140
4.0
141
0.0
142
0.0
143
25.4
144
1.0
145
0.75
146
1.0
147
2.0
 71
     0
 72
     0
 73
     0
 74
     0
 75
     0
 76
     0
 77
     0
 78
     0
170
     0
171
     2
172
     0
173
     0
174
     0
175
     0
176
     0
177
     0
178
     0
270
     2
271
     4
272
     4
273
     2
274
     2
340
2A02A218
275
     0
280
     0
281
     0
282
     0
283
     1
284
     0
285
     0
286
     0
287
     5
288
     0
  0
DIMSTYLE
105
2A02B1BD
100
AcDbSymbolTableRecord
100
AcDbDimStyleTableRecord
  2
AM_JIS
 70
     0
  3

  4
"
  5
OPEN30
  6
OPEN30
  7
OPEN30
 40
1.0
 41
2.5
 42
1.0
 43
10.0
 44
1.0
 45
0.0
 46
0.0
 47
0.1
 48
0.1
140
3.5
141
0.0
142
0.0
143
0.03937
144
1.0
145
0.0
146
0.71
147
1.5
 71
     0
 72
     0
 73
     0
 74
     0
 75
     0
 76
     0
 77
     3
 78
     8
170
     0
171
     2
172
     1
173
     0
174
     0
175
     0
176
   256
177
   256
178
     2
270
     2
271
     2
272
     3
273
     2
274
     4
340
2A02A1F9
275
     0
280
     0
281
     0
282
     0
283
     0
284
     0
285
     0
286
     0
287
     3
288
     0
  0
ENDTAB
  0
TABLE
  2
BLOCK_RECORD
  5
2A02A1EA
100
AcDbSymbolTable
 70
    12
  0
BLOCK_RECORD
  5
2A02A201
102
{ACAD_XDICTIONARY
360
2A02B2BD
102
}
100
AcDbSymbolTableRecord
100
AcDbBlockTableRecord
  2
*MODEL_SPACE
  0
BLOCK_RECORD
  5
2A02A1FE
102
{ACAD_XDICTIONARY
360
2A02B2BB
102
}
100
AcDbSymbolTableRecord
100
AcDbBlockTableRecord
  2
*PAPER_SPACE
  0
BLOCK_RECORD
  5
2A02AF3D
100
AcDbSymbolTableRecord
100
AcDbBlockTableRecord
  2
*D0
  0
BLOCK_RECORD
  5
2A02AF4A
100
AcDbSymbolTableRecord
100
AcDbBlockTableRecord
  2
*D1
  0
BLOCK_RECORD
  5
2A02AF57
100
AcDbSymbolTableRecord
100
AcDbBlockTableRecord
  2
*D2
  0
BLOCK_RECORD
  5
2A02AF64
100
AcDbSymbolTableRecord
100
AcDbBlockTableRecord
  2
*D3
  0
BLOCK_RECORD
  5
2A02AF71
100
AcDbSymbolTableRecord
100
AcDbBlockTableRecord
  2
*D4
  0
BLOCK_RECORD
  5
2A02AF7E
100
AcDbSymbolTableRecord
100
AcDbBlockTableRecord
  2
*D5
  0
BLOCK_RECORD
  5
2A02AFB0
100
AcDbSymbolTableRecord
100
AcDbBlockTableRecord
  2
*D6
  0
BLOCK_RECORD
  5
2A02AFBE
100
AcDbSymbolTableRecord
100
AcDbBlockTableRecord
  2
*D7
  0
BLOCK_RECORD
  5
2A02AFCB
100
AcDbSymbolTableRecord
100
AcDbBlockTableRecord
  2
*D8
  0
BLOCK_RECORD
  5
2A02AFE2
100
AcDbSymbolTableRecord
100
AcDbBlockTableRecord
  2
*D9
  0
BLOCK_RECORD
  5
2A02B1A7
100
AcDbSymbolTableRecord
100
AcDbBlockTableRecord
  2
_OPEN30
  0
BLOCK_RECORD
  5
2A02B1AD
100
AcDbSymbolTableRecord
100
AcDbBlockTableRecord
  2
GENAXEH
  0
ENDTAB
  0
ENDSEC
  0
SECTION
  2
BLOCKS
  0
BLOCK
  5
2A02A248
100
AcDbEntity
  8
0
100
AcDbBlockBegin
  2
*MODEL_SPACE
 70
     0
 10
0.0
 20
0.0
 30
0.0
  3
*MODEL_SPACE
  1

  0
ENDBLK
  5
2A02A249
100
AcDbEntity
  8
0
100
AcDbBlockEnd
  0
BLOCK
  5
2A02A246
100
AcDbEntity
 67
     1
  8
0
100
AcDbBlockBegin
  2
*PAPER_SPACE
 70
     0
 10
0.0
 20
0.0
 30
0.0
  3
*PAPER_SPACE
  1

  0
ENDBLK
  5
2A02A247
100
AcDbEntity
 67
     1
  8
0
100
AcDbBlockEnd
  0
BLOCK
  5
2A02AF9A
100
AcDbEntity
  8
0
100
AcDbBlockBegin
  2
*D0
 70
     1
 10
0.0
 20
0.0
 30
0.0
  3
*D0
  1

  0
LINE
  5
2A02B2BF
100
AcDbEntity
  8
DIM
 62
     0
100
AcDbLine
 10
337.113035
 20
323.21224
 30
0.0
 11
327.911789
 21
323.21224
 31
0.0
  0
LINE
  5
2A02B2C0
100
AcDbEntity
  8
DIM
 62
     0
100
AcDbLine
 10
337.113035
 20
273.21224
 30
0.0
 11
327.911789
 21
273.21224
 31
0.0
  0
LINE
  5
2A02B2C1
100
AcDbEntity
  8
DIM
 62
     0
100
AcDbLine
 10
328.911789
 20
321.21224
 30
0.0
 11
328.911789
 21
275.21224
 31
0.0
  0
SOLID
  5
2A02B2C2
100
AcDbEntity
  8
DIM
 62
     0
100
AcDbTrace
 10
328.578456
 20
321.21224
 30
0.0
 11
329.245123
 21
321.21224
 31
0.0
 12
328.911789
 22
323.21224
 32
0.0
 13
328.911789
 23
323.21224
 33
0.0
  0
SOLID
  5
2A02B2C3
100
AcDbEntity
  8
DIM
 62
     0
100
AcDbTrace
 10
328.578456
 20
275.21224
 30
0.0
 11
329.245123
 21
275.21224
 31
0.0
 12
328.911789
 22
273.21224
 32
0.0
 13
328.911789
 23
273.21224
 33
0.0
  0
MTEXT
  5
2A02B2C4
100
AcDbEntity
  8
DIM
 62
     0
100
AcDbMText
 10
325.411789
 20
298.21224
 30
0.0
 40
3.0
 41
0.0
 71
     5
 72
     5
  1
\A1;%%c50
  7
BIGFONT
 11
0.0
 21
1.0
 31
0.0
  0
POINT
  5
2A02B2C5
100
AcDbEntity
  8
DEFPOINTS
 62
     0
100
AcDbPoint
 10
338.501935
 20
323.21224
 30
0.0
  0
POINT
  5
2A02B2C6
100
AcDbEntity
  8
DEFPOINTS
 62
     0
100
AcDbPoint
 10
338.501935
 20
273.21224
 30
0.0
  0
POINT
  5
2A02B2C7
100
AcDbEntity
  8
DEFPOINTS
 62
     0
100
AcDbPoint
 10
328.911789
 20
273.21224
 30
0.0
  0
ENDBLK
  5
2A02AFA4
100
AcDbEntity
  8
0
100
AcDbBlockEnd
  0
BLOCK
  5
2A02AFA5
100
AcDbEntity
  8
0
100
AcDbBlockBegin
  2
*D1
 70
     1
 10
0.0
 20
0.0
 30
0.0
  3
*D1
  1

  0
LINE
  5
2A02B2C8
100
AcDbEntity
  8
DIM
 62
     0
100
AcDbLine
 10
337.113035
 20
340.71224
 30
0.0
 11
320.58522
 21
340.71224
 31
0.0
  0
LINE
  5
2A02B2C9
100
AcDbEntity
  8
DIM
 62
     0
100
AcDbLine
 10
337.113035
 20
255.71224
 30
0.0
 11
320.58522
 21
255.71224
 31
0.0
  0
LINE
  5
2A02B2CA
100
AcDbEntity
  8
DIM
 62
     0
100
AcDbLine
 10
321.58522
 20
338.71224
 30
0.0
 11
321.58522
 21
257.71224
 31
0.0
  0
SOLID
  5
2A02B2CB
100
AcDbEntity
  8
DIM
 62
     0
100
AcDbTrace
 10
321.251887
 20
338.71224
 30
0.0
 11
321.918553
 21
338.71224
 31
0.0
 12
321.58522
 22
340.71224
 32
0.0
 13
321.58522
 23
340.71224
 33
0.0
  0
SOLID
  5
2A02B2CC
100
AcDbEntity
  8
DIM
 62
     0
100
AcDbTrace
 10
321.251887
 20
257.71224
 30
0.0
 11
321.918553
 21
257.71224
 31
0.0
 12
321.58522
 22
255.71224
 32
0.0
 13
321.58522
 23
255.71224
 33
0.0
  0
MTEXT
  5
2A02B2CD
100
AcDbEntity
  8
DIM
 62
     0
100
AcDbMText
 10
318.08522
 20
298.21224
 30
0.0
 40
3.0
 41
0.0
 71
     5
 72
     5
  1
\A1;%%c85
  7
BIGFONT
 11
0.0
 21
1.0
 31
0.0
  0
POINT
  5
2A02B2CE
100
AcDbEntity
  8
DEFPOINTS
 62
     0
100
AcDbPoint
 10
338.501935
 20
340.71224
 30
0.0
  0
POINT
  5
2A02B2CF
100
AcDbEntity
  8
DEFPOINTS
 62
     0
100
AcDbPoint
 10
338.501935
 20
255.71224
 30
0.0
  0
POINT
  5
2A02B2D0
100
AcDbEntity
  8
DEFPOINTS
 62
     0
100
AcDbPoint
 10
321.58522
 20
255.71224
 30
0.0
  0
ENDBLK
  5
2A02AFAF
100
AcDbEntity
  8
0
100
AcDbBlockEnd
  0
BLOCK
  5
2A02AF8F
100
AcDbEntity
  8
0
100
AcDbBlockBegin
  2
*D2
 70
     1
 10
0.0
 20
0.0
 30
0.0
  3
*D2
  1

  0
LINE
  5
2A02B2D1
100
AcDbEntity
  8
DIM
 62
     0
100
AcDbLine
 10
339.501935
 20
257.450126
 30
0.0
 11
339.501935
 21
242.772878
 31
0.0
  0
LINE
  5
2A02B2D2
100
AcDbEntity
  8
DIM
 62
     0
100
AcDbLine
 10
357.501935
 20
257.450126
 30
0.0
 11
357.501935
 21
242.772878
 31
0.0
  0
LINE
  5
2A02B2D3
100
AcDbEntity
  8
DIM
 62
     0
100
AcDbLine
 10
341.501935
 20
243.772878
 30
0.0
 11
355.501935
 21
243.772878
 31
0.0
  0
SOLID
  5
2A02B2D4
100
AcDbEntity
  8
DIM
 62
     0
100
AcDbTrace
 10
341.501935
 20
244.106212
 30
0.0
 11
341.501935
 21
243.439545
 31
0.0
 12
339.501935
 22
243.772878
 32
0.0
 13
339.501935
 23
243.772878
 33
0.0
  0
SOLID
  5
2A02B2D5
100
AcDbEntity
  8
DIM
 62
     0
100
AcDbTrace
 10
355.501935
 20
244.106212
 30
0.0
 11
355.501935
 21
243.439545
 31
0.0
 12
357.501935
 22
243.772878
 32
0.0
 13
357.501935
 23
243.772878
 33
0.0
  0
MTEXT
  5
2A02B2D6
100
AcDbEntity
  8
DIM
 62
     0
100
AcDbMText
 10
348.501935
 20
247.272878
 30
0.0
 40
3.0
 41
0.0
 71
     5
 72
     5
  1
\A1;   18
  7
BIGFONT
  0
POINT
  5
2A02B2D7
100
AcDbEntity
  8
DEFPOINTS
 62
     0
100
AcDbPoint
 10
339.501935
 20
258.839026
 30
0.0
  0
POINT
  5
2A02B2D8
100
AcDbEntity
  8
DEFPOINTS
 62
     0
100
AcDbPoint
 10
357.501935
 20
258.839026
 30
0.0
  0
POINT
  5
2A02B2D9
100
AcDbEntity
  8
DEFPOINTS
 62
     0
100
AcDbPoint
 10
357.501935
 20
243.772878
 30
0.0
  0
ENDBLK
  5
2A02AF99
100
AcDbEntity
  8
0
100
AcDbBlockEnd
  0
BLOCK
  5
2A02AF65
100
AcDbEntity
  8
0
100
AcDbBlockBegin
  2
*D3
 70
     1
 10
0.0
 20
0.0
 30
0.0
  3
*D3
  1

  0
LINE
  5
2A02B2DA
100
AcDbEntity
  8
DIM
 62
     0
100
AcDbLine
 10
348.501935
 20
249.32334
 30
0.0
 11
348.501935
 21
234.118438
 31
0.0
  0
LINE
  5
2A02B2DB
100
AcDbEntity
  8
DIM
 62
     0
100
AcDbLine
 10
337.501935
 20
255.32334
 30
0.0
 11
337.501935
 21
234.118438
 31
0.0
  0
LINE
  5
2A02B2DC
100
AcDbEntity
  8
DIM
 62
     0
100
AcDbLine
 10
346.501935
 20
235.118438
 30
0.0
 11
339.501935
 21
235.118438
 31
0.0
  0
SOLID
  5
2A02B2DD
100
AcDbEntity
  8
DIM
 62
     0
100
AcDbTrace
 10
346.501935
 20
235.451771
 30
0.0
 11
346.501935
 21
234.785105
 31
0.0
 12
348.501935
 22
235.118438
 32
0.0
 13
348.501935
 23
235.118438
 33
0.0
  0
SOLID
  5
2A02B2DE
100
AcDbEntity
  8
DIM
 62
     0
100
AcDbTrace
 10
339.501935
 20
235.451771
 30
0.0
 11
339.501935
 21
234.785105
 31
0.0
 12
337.501935
 22
235.118438
 32
0.0
 13
337.501935
 23
235.118438
 33
0.0
  0
MTEXT
  5
2A02B2DF
100
AcDbEntity
  8
DIM
 62
     0
100
AcDbMText
 10
343.001935
 20
238.618438
 30
0.0
 40
3.0
 41
0.0
 71
     5
 72
     5
  1
\A1;11
  7
BIGFONT
  0
POINT
  5
2A02B2E0
100
AcDbEntity
  8
DEFPOINTS
 62
     0
100
AcDbPoint
 10
348.501935
 20
250.71224
 30
0.0
  0
POINT
  5
2A02B2E1
100
AcDbEntity
  8
DEFPOINTS
 62
     0
100
AcDbPoint
 10
337.501935
 20
256.71224
 30
0.0
  0
POINT
  5
2A02B2E2
100
AcDbEntity
  8
DEFPOINTS
 62
     0
100
AcDbPoint
 10
337.501935
 20
235.118438
 30
0.0
  0
ENDBLK
  5
2A02AF6F
100
AcDbEntity
  8
0
100
AcDbBlockEnd
  0
BLOCK
  5
2A02AF72
100
AcDbEntity
  8
0
100
AcDbBlockBegin
  2
*D4
 70
     1
 10
0.0
 20
0.0
 30
0.0
  3
*D4
  1

  0
LINE
  5
2A02B2E3
100
AcDbEntity
  8
DIM
 62
     0
100
AcDbLine
 10
348.501935
 20
249.32334
 30
0.0
 11
348.501935
 21
234.118438
 31
0.0
  0
LINE
  5
2A02B2E4
100
AcDbEntity
  8
DIM
 62
     0
100
AcDbLine
 10
359.501935
 20
255.32334
 30
0.0
 11
359.501935
 21
234.118438
 31
0.0
  0
LINE
  5
2A02B2E5
100
AcDbEntity
  8
DIM
 62
     0
100
AcDbLine
 10
350.501935
 20
235.118438
 30
0.0
 11
357.501935
 21
235.118438
 31
0.0
  0
SOLID
  5
2A02B2E6
100
AcDbEntity
  8
DIM
 62
     0
100
AcDbTrace
 10
350.501935
 20
235.451771
 30
0.0
 11
350.501935
 21
234.785105
 31
0.0
 12
348.501935
 22
235.118438
 32
0.0
 13
348.501935
 23
235.118438
 33
0.0
  0
SOLID
  5
2A02B2E7
100
AcDbEntity
  8
DIM
 62
     0
100
AcDbTrace
 10
357.501935
 20
235.451771
 30
0.0
 11
357.501935
 21
234.785105
 31
0.0
 12
359.501935
 22
235.118438
 32
0.0
 13
359.501935
 23
235.118438
 33
0.0
  0
MTEXT
  5
2A02B2E8
100
AcDbEntity
  8
DIM
 62
     0
100
AcDbMText
 10
354.001935
 20
238.618438
 30
0.0
 40
3.0
 41
0.0
 71
     5
 72
     5
  1
\A1;11
  7
BIGFONT
  0
POINT
  5
2A02B2E9
100
AcDbEntity
  8
DEFPOINTS
 62
     0
100
AcDbPoint
 10
348.501935
 20
250.71224
 30
0.0
  0
POINT
  5
2A02B2EA
100
AcDbEntity
  8
DEFPOINTS
 62
     0
100
AcDbPoint
 10
359.501935
 20
256.71224
 30
0.0
  0
POINT
  5
2A02B2EB
100
AcDbEntity
  8
DEFPOINTS
 62
     0
100
AcDbPoint
 10
359.501935
 20
235.118438
 30
0.0
  0
ENDBLK
  5
2A02AF7C
100
AcDbEntity
  8
0
100
AcDbBlockEnd
  0
BLOCK
  5
2A02AF7F
100
AcDbEntity
  8
0
100
AcDbBlockBegin
  2
*D5
 70
     1
 10
0.0
 20
0.0
 30
0.0
  3
*D5
  1

  0
LINE
  5
2A02B2EC
100
AcDbEntity
  8
DIM
 62
     0
100
AcDbLine
 10
337.501935
 20
255.32334
 30
0.0
 11
337.501935
 21
225.907815
 31
0.0
  0
LINE
  5
2A02B2ED
100
AcDbEntity
  8
DIM
 62
     0
100
AcDbLine
 10
359.501935
 20
255.32334
 30
0.0
 11
359.501935
 21
225.907815
 31
0.0
  0
LINE
  5
2A02B2EE
100
AcDbEntity
  8
DIM
 62
     0
100
AcDbLine
 10
339.501935
 20
226.907815
 30
0.0
 11
357.501935
 21
226.907815
 31
0.0
  0
SOLID
  5
2A02B2EF
100
AcDbEntity
  8
DIM
 62
     0
100
AcDbTrace
 10
339.501935
 20
227.241149
 30
0.0
 11
339.501935
 21
226.574482
 31
0.0
 12
337.501935
 22
226.907815
 32
0.0
 13
337.501935
 23
226.907815
 33
0.0
  0
SOLID
  5
2A02B2F0
100
AcDbEntity
  8
DIM
 62
     0
100
AcDbTrace
 10
357.501935
 20
227.241149
 30
0.0
 11
357.501935
 21
226.574482
 31
0.0
 12
359.501935
 22
226.907815
 32
0.0
 13
359.501935
 23
226.907815
 33
0.0
  0
MTEXT
  5
2A02B2F1
100
AcDbEntity
  8
DIM
 62
     0
100
AcDbMText
 10
348.501935
 20
230.407815
 30
0.0
 40
3.0
 41
0.0
 71
     5
 72
     5
  1
\A1;22
  7
BIGFONT
  0
POINT
  5
2A02B2F2
100
AcDbEntity
  8
DEFPOINTS
 62
     0
100
AcDbPoint
 10
337.501935
 20
256.71224
 30
0.0
  0
POINT
  5
2A02B2F3
100
AcDbEntity
  8
DEFPOINTS
 62
     0
100
AcDbPoint
 10
359.501935
 20
256.71224
 30
0.0
  0
POINT
  5
2A02B2F4
100
AcDbEntity
  8
DEFPOINTS
 62
     0
100
AcDbPoint
 10
359.501935
 20
226.907815
 30
0.0
  0
ENDBLK
  5
2A02AF89
100
AcDbEntity
  8
0
100
AcDbBlockEnd
  0
BLOCK
  5
2A02AFB1
100
AcDbEntity
  8
0
100
AcDbBlockBegin
  2
*D6
 70
     1
 10
0.0
 20
0.0
 30
0.0
  3
*D6
  1

  0
LINE
  5
2A02B2F5
100
AcDbEntity
  8
DIM
 62
     0
100
AcDbLine
 10
436.753846
 20
254.349819
 30
0.0
 11
436.753846
 21
234.118438
 31
0.0
  0
LINE
  5
2A02B2F6
100
AcDbEntity
  8
DIM
 62
     0
100
AcDbLine
 10
439.753846
 20
254.349819
 30
0.0
 11
439.753846
 21
234.118438
 31
0.0
  0
LINE
  5
2A02B2F7
100
AcDbEntity
  8
DIM
 62
     0
100
AcDbLine
 10
434.753846
 20
235.118438
 30
0.0
 11
432.753846
 21
235.118438
 31
0.0
  0
LINE
  5
2A02B2F8
100
AcDbEntity
  8
DIM
 62
     0
100
AcDbLine
 10
441.753846
 20
235.118438
 30
0.0
 11
449.753846
 21
235.118438
 31
0.0
  0
SOLID
  5
2A02B2F9
100
AcDbEntity
  8
DIM
 62
     0
100
AcDbTrace
 10
434.753846
 20
235.451771
 30
0.0
 11
434.753846
 21
234.785105
 31
0.0
 12
436.753846
 22
235.118438
 32
0.0
 13
436.753846
 23
235.118438
 33
0.0
  0
SOLID
  5
2A02B2FA
100
AcDbEntity
  8
DIM
 62
     0
100
AcDbTrace
 10
441.753846
 20
235.451771
 30
0.0
 11
441.753846
 21
234.785105
 31
0.0
 12
439.753846
 22
235.118438
 32
0.0
 13
439.753846
 23
235.118438
 33
0.0
  0
MTEXT
  5
2A02B2FB
100
AcDbEntity
  8
DIM
 62
     0
100
AcDbMText
 10
446.753846
 20
238.618438
 30
0.0
 40
3.0
 41
0.0
 71
     5
 72
     5
  1
\A1;3
  7
BIGFONT
  0
POINT
  5
2A02B2FC
100
AcDbEntity
  8
DEFPOINTS
 62
     0
100
AcDbPoint
 10
436.753846
 20
255.738719
 30
0.0
  0
POINT
  5
2A02B2FD
100
AcDbEntity
  8
DEFPOINTS
 62
     0
100
AcDbPoint
 10
439.753846
 20
255.738719
 30
0.0
  0
POINT
  5
2A02B2FE
100
AcDbEntity
  8
DEFPOINTS
 62
     0
100
AcDbPoint
 10
439.753846
 20
235.118438
 30
0.0
  0
ENDBLK
  5
2A02AFBC
100
AcDbEntity
  8
0
100
AcDbBlockEnd
  0
BLOCK
  5
2A02AFBF
100
AcDbEntity
  8
0
100
AcDbBlockBegin
  2
*D7
 70
     1
 10
0.0
 20
0.0
 30
0.0
  3
*D7
  1

  0
LINE
  5
2A02B2FF
100
AcDbEntity
  8
DIM
 62
     0
100
AcDbLine
 10
438.253846
 20
249.32334
 30
0.0
 11
438.253846
 21
225.907815
 31
0.0
  0
LINE
  5
2A02B300
100
AcDbEntity
  8
DIM
 62
     0
100
AcDbLine
 10
422.253846
 20
257.450126
 30
0.0
 11
422.253846
 21
225.907815
 31
0.0
  0
LINE
  5
2A02B301
100
AcDbEntity
  8
DIM
 62
     0
100
AcDbLine
 10
436.253846
 20
226.907815
 30
0.0
 11
424.253846
 21
226.907815
 31
0.0
  0
SOLID
  5
2A02B302
100
AcDbEntity
  8
DIM
 62
     0
100
AcDbTrace
 10
436.253846
 20
227.241149
 30
0.0
 11
436.253846
 21
226.574482
 31
0.0
 12
438.253846
 22
226.907815
 32
0.0
 13
438.253846
 23
226.907815
 33
0.0
  0
SOLID
  5
2A02B303
100
AcDbEntity
  8
DIM
 62
     0
100
AcDbTrace
 10
424.253846
 20
227.241149
 30
0.0
 11
424.253846
 21
226.574482
 31
0.0
 12
422.253846
 22
226.907815
 32
0.0
 13
422.253846
 23
226.907815
 33
0.0
  0
MTEXT
  5
2A02B304
100
AcDbEntity
  8
DIM
 62
     0
100
AcDbMText
 10
430.253846
 20
230.407815
 30
0.0
 40
3.0
 41
0.0
 71
     5
 72
     5
  1
\A1;16
  7
BIGFONT
  0
POINT
  5
2A02B305
100
AcDbEntity
  8
DEFPOINTS
 62
     0
100
AcDbPoint
 10
438.253846
 20
250.71224
 30
0.0
  0
POINT
  5
2A02B306
100
AcDbEntity
  8
DEFPOINTS
 62
     0
100
AcDbPoint
 10
422.253846
 20
258.839026
 30
0.0
  0
POINT
  5
2A02B307
100
AcDbEntity
  8
DEFPOINTS
 62
     0
100
AcDbPoint
 10
422.253846
 20
226.907815
 30
0.0
  0
ENDBLK
  5
2A02AFC9
100
AcDbEntity
  8
0
100
AcDbBlockEnd
  0
BLOCK
  5
2A02AFCC
100
AcDbEntity
  8
0
100
AcDbBlockBegin
  2
*D8
 70
     1
 10
0.0
 20
0.0
 30
0.0
  3
*D8
  1

  0
LINE
  5
2A02B308
100
AcDbEntity
  8
DIM
 62
     0
100
AcDbLine
 10
389.364946
 20
298.21224
 30
0.0
 11
383.847787
 21
298.21224
 31
0.0
  0
LINE
  5
2A02B309
100
AcDbEntity
  8
DIM
 62
     0
100
AcDbLine
 10
401.761527
 20
266.21224
 30
0.0
 11
383.847787
 21
266.21224
 31
0.0
  0
LINE
  5
2A02B30A
100
AcDbEntity
  8
DIM
 62
     0
100
AcDbLine
 10
384.847787
 20
296.21224
 30
0.0
 11
384.847787
 21
268.21224
 31
0.0
  0
SOLID
  5
2A02B30B
100
AcDbEntity
  8
DIM
 62
     0
100
AcDbTrace
 10
384.514454
 20
296.21224
 30
0.0
 11
385.18112
 21
296.21224
 31
0.0
 12
384.847787
 22
298.21224
 32
0.0
 13
384.847787
 23
298.21224
 33
0.0
  0
SOLID
  5
2A02B30C
100
AcDbEntity
  8
DIM
 62
     0
100
AcDbTrace
 10
384.514454
 20
268.21224
 30
0.0
 11
385.18112
 21
268.21224
 31
0.0
 12
384.847787
 22
266.21224
 32
0.0
 13
384.847787
 23
266.21224
 33
0.0
  0
MTEXT
  5
2A02B30D
100
AcDbEntity
  8
DIM
 62
     0
100
AcDbMText
 10
381.347787
 20
282.21224
 30
0.0
 40
3.0
 41
0.0
 71
     5
 72
     5
  1
\A1;32
  7
BIGFONT
 11
0.0
 21
1.0
 31
0.0
  0
POINT
  5
2A02B30E
100
AcDbEntity
  8
DEFPOINTS
 62
     0
100
AcDbPoint
 10
390.753846
 20
298.21224
 30
0.0
  0
POINT
  5
2A02B30F
100
AcDbEntity
  8
DEFPOINTS
 62
     0
100
AcDbPoint
 10
403.150427
 20
266.21224
 30
0.0
  0
POINT
  5
2A02B310
100
AcDbEntity
  8
DEFPOINTS
 62
     0
100
AcDbPoint
 10
384.847787
 20
266.21224
 30
0.0
  0
ENDBLK
  5
2A02AFD6
100
AcDbEntity
  8
0
100
AcDbBlockEnd
  0
BLOCK
  5
2A02AFE3
100
AcDbEntity
  8
0
100
AcDbBlockBegin
  2
*D9
 70
     1
 10
0.0
 20
0.0
 30
0.0
  3
*D9
  1

  0
LINE
  5
2A02B311
100
AcDbEntity
  8
DIM
 62
     0
100
AcDbLine
 10
370.096033
 20
280.534831
 30
0.0
 11
357.668859
 21
272.292332
 31
0.0
  0
MTEXT
  5
2A02B312
100
AcDbEntity
  8
DIM
 62
     0
100
AcDbMText
 10
364.411354
 20
280.964269
 30
0.0
 40
3.0
 41
0.0
 71
     5
 72
     5
  1
\A1;R9
  7
BIGFONT
 11
0.833357
 21
0.552736
 31
0.0
  0
SOLID
  5
2A02B313
100
AcDbEntity
  8
DIM
 62
     0
100
AcDbTrace
 10
357.484614
 20
272.570117
 30
0.0
 11
357.853104
 21
272.014546
 31
0.0
 12
356.002145
 22
271.186861
 32
0.0
 13
356.002145
 23
271.186861
 33
0.0
  0
LINE
  5
2A02B314
100
AcDbEntity
  8
DIM
 62
     0
100
AcDbLine
 10
348.481935
 20
266.21224
 30
0.0
 11
348.521935
 21
266.21224
 31
0.0
  0
LINE
  5
2A02B315
100
AcDbEntity
  8
DIM
 62
     0
100
AcDbLine
 10
348.501935
 20
266.19224
 30
0.0
 11
348.501935
 21
266.23224
 31
0.0
  0
POINT
  5
2A02B316
100
AcDbEntity
  8
DEFPOINTS
 62
     0
100
AcDbPoint
 10
356.002145
 20
271.186861
 30
0.0
  0
POINT
  5
2A02B317
100
AcDbEntity
  8
DEFPOINTS
 62
     0
100
AcDbPoint
 10
348.501935
 20
266.21224
 30
0.0
  0
ENDBLK
  5
2A02AFEB
100
AcDbEntity
  8
0
100
AcDbBlockEnd
  0
BLOCK
  5
2A02B1AB
100
AcDbEntity
  8
0
100
AcDbBlockBegin
  2
_OPEN30
 70
     0
 10
0.0
 20
0.0
 30
0.0
  3
_OPEN30
  1

  0
LINE
  5
2A02B1A8
100
AcDbEntity
  8
0
 62
     0
100
AcDbLine
 10
-1.0
 20
0.267949
 30
0.0
 11
0.0
 21
0.0
 31
0.0
  0
LINE
  5
2A02B1A9
100
AcDbEntity
  8
0
 62
     0
100
AcDbLine
 10
0.0
 20
0.0
 30
0.0
 11
-1.0
 21
-0.267949
 31
0.0
  0
LINE
  5
2A02B1AA
100
AcDbEntity
  8
0
 62
     0
100
AcDbLine
 10
0.0
 20
0.0
 30
0.0
 11
-1.0
 21
0.0
 31
0.0
  0
ENDBLK
  5
2A02B1AC
100
AcDbEntity
  8
0
100
AcDbBlockEnd
  0
BLOCK
  5
2A02B1AF
100
AcDbEntity
  8
0
100
AcDbBlockBegin
  2
GENAXEH
 70
     0
 10
0.0
 20
0.0
 30
0.0
  3
GENAXEH
  1

  0
LINE
  5
2A02B1AE
100
AcDbEntity
  8
0
100
AcDbLine
 10
-1.0
 20
0.0
 30
0.0
 11
1.0
 21
0.0
 31
0.0
  0
ENDBLK
  5
2A02B1B0
100
AcDbEntity
  8
0
100
AcDbBlockEnd
  0
ENDSEC
  0
SECTION
  2
ENTITIES
  0
TEXT
  5
113A22E6
100
AcDbEntity
  8
ZI05
100
AcDbText
 10
1520.391177
 20
245.612188
 30
0.0
 40
6.0
  1

 50
26.0
  7
BIGFONT
100
AcDbText
  0
TEXT
  5
113A22E7
100
AcDbEntity
  8
ZI05
100
AcDbText
 10
1540.530951
 20
267.719659
 30
0.0
 40
6.0
  1

 50
69.333333
  7
BIGFONT
100
AcDbText
  0
TEXT
  5
113A22E8
100
AcDbEntity
  8
ZI05
100
AcDbText
 10
1543.068626
 20
279.658482
 30
0.0
 40
6.0
  1

 50
86.666667
  7
BIGFONT
100
AcDbText
  0
TEXT
  5
113A22E9
100
AcDbEntity
  8
ZI05
100
AcDbText
 10
1533.661946
 20
308.046245
 30
0.0
 40
6.0
  1

 50
130.0
  7
BIGFONT
100
AcDbText
  0
TEXT
  5
113A22EA
100
AcDbEntity
  8
DIM
100
AcDbText
 10
1617.494663
 20
229.003249
 30
0.0
 40
6.0
  1

  7
BIGFONT
100
AcDbText
  0
TEXT
  5
113A22EB
100
AcDbEntity
  8
DIM
100
AcDbText
 10
1647.494663
 20
229.003249
 30
0.0
 40
6.0
  1

  7
BIGFONT
100
AcDbText
  0
TEXT
  5
113A22EC
100
AcDbEntity
  8
DIM
100
AcDbText
 10
1659.494663
 20
229.003249
 30
0.0
 40
6.0
  1

  7
BIGFONT
100
AcDbText
  0
TEXT
  5
113A22ED
100
AcDbEntity
  8
ZI05
100
AcDbText
 10
2191.642281
 20
257.691235
 30
0.0
 40
6.0
  1

 50
26.0
  7
BIGFONT
100
AcDbText
  0
TEXT
  5
113A22EE
100
AcDbEntity
  8
ZI05
100
AcDbText
 10
2211.782055
 20
279.798706
 30
0.0
 40
6.0
  1

 50
69.333333
  7
BIGFONT
100
AcDbText
  0
TEXT
  5
113A22EF
100
AcDbEntity
  8
ZI05
100
AcDbText
 10
2214.31973
 20
291.737528
 30
0.0
 40
6.0
  1

 50
86.666667
  7
BIGFONT
100
AcDbText
  0
TEXT
  5
113A22F0
100
AcDbEntity
  8
ZI05
100
AcDbText
 10
2204.91305
 20
320.125292
 30
0.0
 40
6.0
  1

 50
130.0
  7
BIGFONT
100
AcDbText
  0
TEXT
  5
113A22F7
100
AcDbEntity
  8
ZI05
100
AcDbText
 10
2064.282311
 20
250.288123
 30
0.0
 40
6.0
  1

 50
26.0
  7
BIGFONT
100
AcDbText
  0
TEXT
  5
113A22F8
100
AcDbEntity
  8
ZI05
100
AcDbText
 10
2084.422085
 20
272.395594
 30
0.0
 40
6.0
  1

 50
69.333333
  7
BIGFONT
100
AcDbText
  0
TEXT
  5
113A22F9
100
AcDbEntity
  8
ZI05
100
AcDbText
 10
2086.95976
 20
284.334417
 30
0.0
 40
6.0
  1

 50
86.666667
  7
BIGFONT
100
AcDbText
  0
TEXT
  5
113A22FA
100
AcDbEntity
  8
ZI05
100
AcDbText
 10
2077.55308
 20
312.72218
 30
0.0
 40
6.0
  1

 50
130.0
  7
BIGFONT
100
AcDbText
  0
TEXT
  5
113A22FB
100
AcDbEntity
  8
DIM
100
AcDbText
 10
2161.385797
 20
233.679184
 30
0.0
 40
6.0
  1

  7
BIGFONT
100
AcDbText
  0
TEXT
  5
113A22FC
100
AcDbEntity
  8
DIM
100
AcDbText
 10
2191.385797
 20
233.679184
 30
0.0
 40
6.0
  1

  7
BIGFONT
100
AcDbText
  0
TEXT
  5
113A22FD
100
AcDbEntity
  8
DIM
100
AcDbText
 10
2203.385797
 20
233.679184
 30
0.0
 40
6.0
  1

  7
BIGFONT
100
AcDbText
  0
TEXT
  5
113A22FE
100
AcDbEntity
  8
ZI05
100
AcDbText
 10
2735.533415
 20
262.36717
 30
0.0
 40
6.0
  1

 50
26.0
  7
BIGFONT
100
AcDbText
  0
TEXT
  5
113A22FF
100
AcDbEntity
  8
ZI05
100
AcDbText
 10
2755.673189
 20
284.474641
 30
0.0
 40
6.0
  1

 50
69.333333
  7
BIGFONT
100
AcDbText
  0
TEXT
  5
113A2300
100
AcDbEntity
  8
ZI05
100
AcDbText
 10
2758.210864
 20
296.413463
 30
0.0
 40
6.0
  1

 50
86.666667
  7
BIGFONT
100
AcDbText
  0
TEXT
  5
113A2301
100
AcDbEntity
  8
ZI05
100
AcDbText
 10
2748.804183
 20
324.801227
 30
0.0
 40
6.0
  1

 50
130.0
  7
BIGFONT
100
AcDbText
  0
TEXT
  5
113A2302
100
AcDbEntity
  8
ZI05
100
AcDbText
 10
2552.588713
 20
242.382361
 30
0.0
 40
6.0
  1

 50
26.0
  7
BIGFONT
100
AcDbText
  0
TEXT
  5
113A2303
100
AcDbEntity
  8
ZI05
100
AcDbText
 10
2572.728487
 20
264.489832
 30
0.0
 40
6.0
  1

 50
69.333333
  7
BIGFONT
100
AcDbText
  0
TEXT
  5
113A2304
100
AcDbEntity
  8
ZI05
100
AcDbText
 10
2575.266162
 20
276.428655
 30
0.0
 40
6.0
  1

 50
86.666667
  7
BIGFONT
100
AcDbText
  0
TEXT
  5
113A2305
100
AcDbEntity
  8
ZI05
100
AcDbText
 10
2565.859481
 20
304.816418
 30
0.0
 40
6.0
  1

 50
130.0
  7
BIGFONT
100
AcDbText
  0
TEXT
  5
113A2306
100
AcDbEntity
  8
DIM
100
AcDbText
 10
2649.692199
 20
225.773422
 30
0.0
 40
6.0
  1

  7
BIGFONT
100
AcDbText
  0
TEXT
  5
113A2307
100
AcDbEntity
  8
DIM
100
AcDbText
 10
2679.692199
 20
225.773422
 30
0.0
 40
6.0
  1

  7
BIGFONT
100
AcDbText
  0
TEXT
  5
113A2308
100
AcDbEntity
  8
DIM
100
AcDbText
 10
2691.692199
 20
225.773422
 30
0.0
 40
6.0
  1

  7
BIGFONT
100
AcDbText
  0
TEXT
  5
113A2309
100
AcDbEntity
  8
ZI05
100
AcDbText
 10
3223.839817
 20
254.461408
 30
0.0
 40
6.0
  1

 50
26.0
  7
BIGFONT
100
AcDbText
  0
TEXT
  5
113A230A
100
AcDbEntity
  8
ZI05
100
AcDbText
 10
3243.979591
 20
276.568879
 30
0.0
 40
6.0
  1

 50
69.333333
  7
BIGFONT
100
AcDbText
  0
TEXT
  5
113A230B
100
AcDbEntity
  8
ZI05
100
AcDbText
 10
3246.517266
 20
288.507701
 30
0.0
 40
6.0
  1

 50
86.666667
  7
BIGFONT
100
AcDbText
  0
TEXT
  5
113A230C
100
AcDbEntity
  8
ZI05
100
AcDbText
 10
3237.110585
 20
316.895465
 30
0.0
 40
6.0
  1

 50
130.0
  7
BIGFONT
100
AcDbText
  0
TEXT
  5
113A230D
100
AcDbEntity
  8
ZI05
100
AcDbText
 10
3022.257881
 20
244.117121
 30
0.0
 40
6.0
  1

 50
26.0
  7
BIGFONT
100
AcDbText
  0
TEXT
  5
113A230E
100
AcDbEntity
  8
ZI05
100
AcDbText
 10
3042.397655
 20
266.224592
 30
0.0
 40
6.0
  1

 50
69.333333
  7
BIGFONT
100
AcDbText
  0
TEXT
  5
113A230F
100
AcDbEntity
  8
ZI05
100
AcDbText
 10
3044.93533
 20
278.163414
 30
0.0
 40
6.0
  1

 50
86.666667
  7
BIGFONT
100
AcDbText
  0
TEXT
  5
113A2310
100
AcDbEntity
  8
ZI05
100
AcDbText
 10
3035.528649
 20
306.551178
 30
0.0
 40
6.0
  1

 50
130.0
  7
BIGFONT
100
AcDbText
  0
TEXT
  5
113A2311
100
AcDbEntity
  8
DIM
100
AcDbText
 10
3119.361367
 20
227.508181
 30
0.0
 40
6.0
  1

  7
BIGFONT
100
AcDbText
  0
TEXT
  5
113A2312
100
AcDbEntity
  8
DIM
100
AcDbText
 10
3149.361367
 20
227.508181
 30
0.0
 40
6.0
  1

  7
BIGFONT
100
AcDbText
  0
TEXT
  5
113A2313
100
AcDbEntity
  8
DIM
100
AcDbText
 10
3161.361367
 20
227.508181
 30
0.0
 40
6.0
  1

  7
BIGFONT
100
AcDbText
  0
TEXT
  5
113A2314
100
AcDbEntity
  8
ZI05
100
AcDbText
 10
3693.508984
 20
256.196167
 30
0.0
 40
6.0
  1

 50
26.0
  7
BIGFONT
100
AcDbText
  0
TEXT
  5
113A2315
100
AcDbEntity
  8
ZI05
100
AcDbText
 10
3713.648758
 20
278.303638
 30
0.0
 40
6.0
  1

 50
69.333333
  7
BIGFONT
100
AcDbText
  0
TEXT
  5
113A2316
100
AcDbEntity
  8
ZI05
100
AcDbText
 10
3716.186433
 20
290.24246
 30
0.0
 40
6.0
  1

 50
86.666667
  7
BIGFONT
100
AcDbText
  0
TEXT
  5
113A2317
100
AcDbEntity
  8
ZI05
100
AcDbText
 10
3706.779753
 20
318.630224
 30
0.0
 40
6.0
  1

 50
130.0
  7
BIGFONT
100
AcDbText
  0
TEXT
  5
113A2318
100
AcDbEntity
  8
ZI05
100
AcDbText
 10
3049.354383
 20
373.859701
 30
0.0
 40
6.0
  1

 50
26.0
  7
BIGFONT
100
AcDbText
  0
TEXT
  5
113A2319
100
AcDbEntity
  8
ZI05
100
AcDbText
 10
3069.494157
 20
395.967172
 30
0.0
 40
6.0
  1

 50
69.333333
  7
BIGFONT
100
AcDbText
  0
TEXT
  5
113A231A
100
AcDbEntity
  8
ZI05
100
AcDbText
 10
3072.031832
 20
407.905994
 30
0.0
 40
6.0
  1

 50
86.666667
  7
BIGFONT
100
AcDbText
  0
TEXT
  5
113A231B
100
AcDbEntity
  8
ZI05
100
AcDbText
 10
3062.625152
 20
436.293758
 30
0.0
 40
6.0
  1

 50
130.0
  7
BIGFONT
100
AcDbText
  0
TEXT
  5
113A231C
100
AcDbEntity
  8
DIM
100
AcDbText
 10
3146.457869
 20
357.250761
 30
0.0
 40
6.0
  1

  7
BIGFONT
100
AcDbText
  0
TEXT
  5
113A231D
100
AcDbEntity
  8
DIM
100
AcDbText
 10
3176.457869
 20
357.250761
 30
0.0
 40
6.0
  1

  7
BIGFONT
100
AcDbText
  0
TEXT
  5
113A231E
100
AcDbEntity
  8
DIM
100
AcDbText
 10
3188.457869
 20
357.250761
 30
0.0
 40
6.0
  1

  7
BIGFONT
100
AcDbText
  0
TEXT
  5
113A231F
100
AcDbEntity
  8
ZI05
100
AcDbText
 10
3720.605487
 20
385.938747
 30
0.0
 40
6.0
  1

 50
26.0
  7
BIGFONT
100
AcDbText
  0
TEXT
  5
113A2320
100
AcDbEntity
  8
ZI05
100
AcDbText
 10
3740.745261
 20
408.046218
 30
0.0
 40
6.0
  1

 50
69.333333
  7
BIGFONT
100
AcDbText
  0
TEXT
  5
113A2321
100
AcDbEntity
  8
ZI05
100
AcDbText
 10
3743.282936
 20
419.985041
 30
0.0
 40
6.0
  1

 50
86.666667
  7
BIGFONT
100
AcDbText
  0
TEXT
  5
113A2322
100
AcDbEntity
  8
ZI05
100
AcDbText
 10
3733.876256
 20
448.372804
 30
0.0
 40
6.0
  1

 50
130.0
  7
BIGFONT
100
AcDbText
  0
TEXT
  5
113A2323
100
AcDbEntity
  8
ZI05
100
AcDbText
 10
3720.311116
 20
522.446285
 30
0.0
 40
6.0
  1

 50
26.0
  7
BIGFONT
100
AcDbText
  0
TEXT
  5
113A2324
100
AcDbEntity
  8
ZI05
100
AcDbText
 10
3740.45089
 20
544.553756
 30
0.0
 40
6.0
  1

 50
69.333333
  7
BIGFONT
100
AcDbText
  0
TEXT
  5
113A2325
100
AcDbEntity
  8
ZI05
100
AcDbText
 10
3742.988565
 20
556.492579
 30
0.0
 40
6.0
  1

 50
86.666667
  7
BIGFONT
100
AcDbText
  0
TEXT
  5
113A2326
100
AcDbEntity
  8
ZI05
100
AcDbText
 10
3733.581884
 20
584.880342
 30
0.0
 40
6.0
  1

 50
130.0
  7
BIGFONT
100
AcDbText
  0
TEXT
  5
113A2327
100
AcDbEntity
  8
DIM
100
AcDbText
 10
3817.414602
 20
505.837346
 30
0.0
 40
6.0
  1

  7
BIGFONT
100
AcDbText
  0
TEXT
  5
113A2328
100
AcDbEntity
  8
DIM
100
AcDbText
 10
3847.414602
 20
505.837346
 30
0.0
 40
6.0
  1

  7
BIGFONT
100
AcDbText
  0
TEXT
  5
113A2329
100
AcDbEntity
  8
DIM
100
AcDbText
 10
3859.414602
 20
505.837346
 30
0.0
 40
6.0
  1

  7
BIGFONT
100
AcDbText
  0
TEXT
  5
113A232A
100
AcDbEntity
  8
ZI05
100
AcDbText
 10
4391.562219
 20
534.525332
 30
0.0
 40
6.0
  1

 50
26.0
  7
BIGFONT
100
AcDbText
  0
TEXT
  5
113A232B
100
AcDbEntity
  8
ZI05
100
AcDbText
 10
4411.701993
 20
556.632803
 30
0.0
 40
6.0
  1

 50
69.333333
  7
BIGFONT
100
AcDbText
  0
TEXT
  5
113A232C
100
AcDbEntity
  8
ZI05
100
AcDbText
 10
4414.239668
 20
568.571625
 30
0.0
 40
6.0
  1

 50
86.666667
  7
BIGFONT
100
AcDbText
  0
TEXT
  5
113A232D
100
AcDbEntity
  8
ZI05
100
AcDbText
 10
4404.832988
 20
596.959389
 30
0.0
 40
6.0
  1

 50
130.0
  7
BIGFONT
100
AcDbText
  0
TEXT
  5
113A232E
100
AcDbEntity
  8
ZI05
100
AcDbText
 10
4485.771251
 20
518.32868
 30
0.0
 40
6.0
  1

 50
26.0
  7
BIGFONT
100
AcDbText
  0
TEXT
  5
113A232F
100
AcDbEntity
  8
ZI05
100
AcDbText
 10
4505.911025
 20
540.436152
 30
0.0
 40
6.0
  1

 50
69.333333
  7
BIGFONT
100
AcDbText
  0
TEXT
  5
113A2330
100
AcDbEntity
  8
ZI05
100
AcDbText
 10
4508.4487
 20
552.374974
 30
0.0
 40
6.0
  1

 50
86.666667
  7
BIGFONT
100
AcDbText
  0
TEXT
  5
113A2331
100
AcDbEntity
  8
ZI05
100
AcDbText
 10
4499.042019
 20
580.762738
 30
0.0
 40
6.0
  1

 50
130.0
  7
BIGFONT
100
AcDbText
  0
TEXT
  5
113A2332
100
AcDbEntity
  8
DIM
100
AcDbText
 10
4582.874737
 20
501.719741
 30
0.0
 40
6.0
  1

  7
BIGFONT
100
AcDbText
  0
TEXT
  5
113A2333
100
AcDbEntity
  8
DIM
100
AcDbText
 10
4612.874737
 20
501.719741
 30
0.0
 40
6.0
  1

  7
BIGFONT
100
AcDbText
  0
TEXT
  5
113A2334
100
AcDbEntity
  8
DIM
100
AcDbText
 10
4624.874737
 20
501.719741
 30
0.0
 40
6.0
  1

  7
BIGFONT
100
AcDbText
  0
TEXT
  5
113A2335
100
AcDbEntity
  8
ZI05
100
AcDbText
 10
5157.022354
 20
530.407727
 30
0.0
 40
6.0
  1

 50
26.0
  7
BIGFONT
100
AcDbText
  0
TEXT
  5
113A2336
100
AcDbEntity
  8
ZI05
100
AcDbText
 10
5177.162128
 20
552.515198
 30
0.0
 40
6.0
  1

 50
69.333333
  7
BIGFONT
100
AcDbText
  0
TEXT
  5
113A2337
100
AcDbEntity
  8
ZI05
100
AcDbText
 10
5179.699803
 20
564.45402
 30
0.0
 40
6.0
  1

 50
86.666667
  7
BIGFONT
100
AcDbText
  0
TEXT
  5
113A2338
100
AcDbEntity
  8
ZI05
100
AcDbText
 10
5170.293123
 20
592.841784
 30
0.0
 40
6.0
  1

 50
130.0
  7
BIGFONT
100
AcDbText
  0
TEXT
  5
113A233A
100
AcDbEntity
  8
ZI05
100
AcDbText
 10
3699.718848
 20
521.673197
 30
0.0
 40
6.0
  1

 50
26.0
  7
BIGFONT
100
AcDbText
  0
TEXT
  5
113A233B
100
AcDbEntity
  8
ZI05
100
AcDbText
 10
3719.858622
 20
543.780668
 30
0.0
 40
6.0
  1

 50
69.333333
  7
BIGFONT
100
AcDbText
  0
TEXT
  5
113A233C
100
AcDbEntity
  8
ZI05
100
AcDbText
 10
3722.396297
 20
555.71949
 30
0.0
 40
6.0
  1

 50
86.666667
  7
BIGFONT
100
AcDbText
  0
TEXT
  5
113A233D
100
AcDbEntity
  8
ZI05
100
AcDbText
 10
3712.989617
 20
584.107254
 30
0.0
 40
6.0
  1

 50
130.0
  7
BIGFONT
100
AcDbText
  0
TEXT
  5
113A233E
100
AcDbEntity
  8
DIM
100
AcDbText
 10
3796.822334
 20
505.064257
 30
0.0
 40
6.0
  1

  7
BIGFONT
100
AcDbText
  0
TEXT
  5
113A233F
100
AcDbEntity
  8
DIM
100
AcDbText
 10
3826.822334
 20
505.064257
 30
0.0
 40
6.0
  1

  7
BIGFONT
100
AcDbText
  0
TEXT
  5
113A2340
100
AcDbEntity
  8
DIM
100
AcDbText
 10
3838.822334
 20
505.064257
 30
0.0
 40
6.0
  1

  7
BIGFONT
100
AcDbText
  0
TEXT
  5
113A2341
100
AcDbEntity
  8
ZI05
100
AcDbText
 10
4370.969952
 20
533.752243
 30
0.0
 40
6.0
  1

 50
26.0
  7
BIGFONT
100
AcDbText
  0
TEXT
  5
113A2342
100
AcDbEntity
  8
ZI05
100
AcDbText
 10
4391.109726
 20
555.859714
 30
0.0
 40
6.0
  1

 50
69.333333
  7
BIGFONT
100
AcDbText
  0
TEXT
  5
113A2343
100
AcDbEntity
  8
ZI05
100
AcDbText
 10
4393.647401
 20
567.798536
 30
0.0
 40
6.0
  1

 50
86.666667
  7
BIGFONT
100
AcDbText
  0
TEXT
  5
113A2344
100
AcDbEntity
  8
ZI05
100
AcDbText
 10
4384.240721
 20
596.1863
 30
0.0
 40
6.0
  1

 50
130.0
  7
BIGFONT
100
AcDbText
  0
TEXT
  5
113A238D
100
AcDbEntity
  8
ZI05
100
AcDbText
 10
1758.004998
 20
250.401135
 30
0.0
 40
6.0
  1

 50
26.0
  7
BIGFONT
100
AcDbText
  0
TEXT
  5
113A238E
100
AcDbEntity
  8
ZI05
100
AcDbText
 10
1778.144772
 20
272.508606
 30
0.0
 40
6.0
  1

 50
69.333333
  7
BIGFONT
100
AcDbText
  0
TEXT
  5
113A238F
100
AcDbEntity
  8
ZI05
100
AcDbText
 10
1780.682447
 20
284.447429
 30
0.0
 40
6.0
  1

 50
86.666667
  7
BIGFONT
100
AcDbText
  0
TEXT
  5
113A2390
100
AcDbEntity
  8
ZI05
100
AcDbText
 10
1771.275767
 20
312.835193
 30
0.0
 40
6.0
  1

 50
130.0
  7
BIGFONT
100
AcDbText
  0
TEXT
  5
113A2391
100
AcDbEntity
  8
DIM
100
AcDbText
 10
1855.108484
 20
233.792196
 30
0.0
 40
6.0
  1

  7
BIGFONT
100
AcDbText
  0
TEXT
  5
113A2392
100
AcDbEntity
  8
DIM
100
AcDbText
 10
1885.108484
 20
233.792196
 30
0.0
 40
6.0
  1

  7
BIGFONT
100
AcDbText
  0
TEXT
  5
113A2393
100
AcDbEntity
  8
DIM
100
AcDbText
 10
1897.108484
 20
233.792196
 30
0.0
 40
6.0
  1

  7
BIGFONT
100
AcDbText
  0
TEXT
  5
113A2394
100
AcDbEntity
  8
ZI05
100
AcDbText
 10
2429.256102
 20
262.480182
 30
0.0
 40
6.0
  1

 50
26.0
  7
BIGFONT
100
AcDbText
  0
TEXT
  5
113A2395
100
AcDbEntity
  8
ZI05
100
AcDbText
 10
2449.395876
 20
284.587653
 30
0.0
 40
6.0
  1

 50
69.333333
  7
BIGFONT
100
AcDbText
  0
TEXT
  5
113A2396
100
AcDbEntity
  8
ZI05
100
AcDbText
 10
2451.933551
 20
296.526475
 30
0.0
 40
6.0
  1

 50
86.666667
  7
BIGFONT
100
AcDbText
  0
TEXT
  5
113A2397
100
AcDbEntity
  8
ZI05
100
AcDbText
 10
2442.526871
 20
324.914239
 30
0.0
 40
6.0
  1

 50
130.0
  7
BIGFONT
100
AcDbText
  0
TEXT
  5
113A2398
100
AcDbEntity
  8
ZI05
100
AcDbText
 10
2301.896132
 20
255.07707
 30
0.0
 40
6.0
  1

 50
26.0
  7
BIGFONT
100
AcDbText
  0
TEXT
  5
113A2399
100
AcDbEntity
  8
ZI05
100
AcDbText
 10
2322.035906
 20
277.184541
 30
0.0
 40
6.0
  1

 50
69.333333
  7
BIGFONT
100
AcDbText
  0
TEXT
  5
113A239A
100
AcDbEntity
  8
ZI05
100
AcDbText
 10
2324.573581
 20
289.123364
 30
0.0
 40
6.0
  1

 50
86.666667
  7
BIGFONT
100
AcDbText
  0
TEXT
  5
113A239B
100
AcDbEntity
  8
ZI05
100
AcDbText
 10
2315.166901
 20
317.511127
 30
0.0
 40
6.0
  1

 50
130.0
  7
BIGFONT
100
AcDbText
  0
TEXT
  5
113A239C
100
AcDbEntity
  8
DIM
100
AcDbText
 10
2398.999618
 20
238.468131
 30
0.0
 40
6.0
  1

  7
BIGFONT
100
AcDbText
  0
TEXT
  5
113A239D
100
AcDbEntity
  8
DIM
100
AcDbText
 10
2428.999618
 20
238.468131
 30
0.0
 40
6.0
  1

  7
BIGFONT
100
AcDbText
  0
TEXT
  5
113A239E
100
AcDbEntity
  8
DIM
100
AcDbText
 10
2440.999618
 20
238.468131
 30
0.0
 40
6.0
  1

  7
BIGFONT
100
AcDbText
  0
TEXT
  5
113A239F
100
AcDbEntity
  8
ZI05
100
AcDbText
 10
2973.147236
 20
267.156117
 30
0.0
 40
6.0
  1

 50
26.0
  7
BIGFONT
100
AcDbText
  0
TEXT
  5
113A23A0
100
AcDbEntity
  8
ZI05
100
AcDbText
 10
2993.28701
 20
289.263588
 30
0.0
 40
6.0
  1

 50
69.333333
  7
BIGFONT
100
AcDbText
  0
TEXT
  5
113A23A1
100
AcDbEntity
  8
ZI05
100
AcDbText
 10
2995.824685
 20
301.20241
 30
0.0
 40
6.0
  1

 50
86.666667
  7
BIGFONT
100
AcDbText
  0
TEXT
  5
113A23A2
100
AcDbEntity
  8
ZI05
100
AcDbText
 10
2986.418004
 20
329.590174
 30
0.0
 40
6.0
  1

 50
130.0
  7
BIGFONT
100
AcDbText
  0
TEXT
  5
113A23A3
100
AcDbEntity
  8
ZI05
100
AcDbText
 10
2790.202534
 20
247.171308
 30
0.0
 40
6.0
  1

 50
26.0
  7
BIGFONT
100
AcDbText
  0
TEXT
  5
113A23A4
100
AcDbEntity
  8
ZI05
100
AcDbText
 10
2810.342308
 20
269.278779
 30
0.0
 40
6.0
  1

 50
69.333333
  7
BIGFONT
100
AcDbText
  0
TEXT
  5
113A23A5
100
AcDbEntity
  8
ZI05
100
AcDbText
 10
2812.879983
 20
281.217602
 30
0.0
 40
6.0
  1

 50
86.666667
  7
BIGFONT
100
AcDbText
  0
TEXT
  5
113A23A6
100
AcDbEntity
  8
ZI05
100
AcDbText
 10
2803.473302
 20
309.605365
 30
0.0
 40
6.0
  1

 50
130.0
  7
BIGFONT
100
AcDbText
  0
TEXT
  5
113A23A7
100
AcDbEntity
  8
DIM
100
AcDbText
 10
2887.30602
 20
230.562369
 30
0.0
 40
6.0
  1

  7
BIGFONT
100
AcDbText
  0
TEXT
  5
113A23A8
100
AcDbEntity
  8
DIM
100
AcDbText
 10
2917.30602
 20
230.562369
 30
0.0
 40
6.0
  1

  7
BIGFONT
100
AcDbText
  0
TEXT
  5
113A23A9
100
AcDbEntity
  8
DIM
100
AcDbText
 10
2929.30602
 20
230.562369
 30
0.0
 40
6.0
  1

  7
BIGFONT
100
AcDbText
  0
TEXT
  5
113A23AA
100
AcDbEntity
  8
ZI05
100
AcDbText
 10
3461.453638
 20
259.250355
 30
0.0
 40
6.0
  1

 50
26.0
  7
BIGFONT
100
AcDbText
  0
TEXT
  5
113A23AB
100
AcDbEntity
  8
ZI05
100
AcDbText
 10
3481.593411
 20
281.357826
 30
0.0
 40
6.0
  1

 50
69.333333
  7
BIGFONT
100
AcDbText
  0
TEXT
  5
113A23AC
100
AcDbEntity
  8
ZI05
100
AcDbText
 10
3484.131087
 20
293.296648
 30
0.0
 40
6.0
  1

 50
86.666667
  7
BIGFONT
100
AcDbText
  0
TEXT
  5
113A23AD
100
AcDbEntity
  8
ZI05
100
AcDbText
 10
3474.724406
 20
321.684412
 30
0.0
 40
6.0
  1

 50
130.0
  7
BIGFONT
100
AcDbText
  0
TEXT
  5
113A23AE
100
AcDbEntity
  8
ZI05
100
AcDbText
 10
3259.871702
 20
248.906068
 30
0.0
 40
6.0
  1

 50
26.0
  7
BIGFONT
100
AcDbText
  0
TEXT
  5
113A23AF
100
AcDbEntity
  8
ZI05
100
AcDbText
 10
3280.011476
 20
271.013539
 30
0.0
 40
6.0
  1

 50
69.333333
  7
BIGFONT
100
AcDbText
  0
TEXT
  5
113A23B0
100
AcDbEntity
  8
ZI05
100
AcDbText
 10
3282.549151
 20
282.952361
 30
0.0
 40
6.0
  1

 50
86.666667
  7
BIGFONT
100
AcDbText
  0
TEXT
  5
113A23B1
100
AcDbEntity
  8
ZI05
100
AcDbText
 10
3273.14247
 20
311.340125
 30
0.0
 40
6.0
  1

 50
130.0
  7
BIGFONT
100
AcDbText
  0
TEXT
  5
113A23B2
100
AcDbEntity
  8
DIM
100
AcDbText
 10
3356.975188
 20
232.297128
 30
0.0
 40
6.0
  1

  7
BIGFONT
100
AcDbText
  0
TEXT
  5
113A23B3
100
AcDbEntity
  8
DIM
100
AcDbText
 10
3386.975188
 20
232.297128
 30
0.0
 40
6.0
  1

  7
BIGFONT
100
AcDbText
  0
TEXT
  5
113A23B4
100
AcDbEntity
  8
DIM
100
AcDbText
 10
3398.975188
 20
232.297128
 30
0.0
 40
6.0
  1

  7
BIGFONT
100
AcDbText
  0
TEXT
  5
113A23B5
100
AcDbEntity
  8
ZI05
100
AcDbText
 10
3931.122805
 20
260.985114
 30
0.0
 40
6.0
  1

 50
26.0
  7
BIGFONT
100
AcDbText
  0
TEXT
  5
113A23B6
100
AcDbEntity
  8
ZI05
100
AcDbText
 10
3951.262579
 20
283.092585
 30
0.0
 40
6.0
  1

 50
69.333333
  7
BIGFONT
100
AcDbText
  0
TEXT
  5
113A23B7
100
AcDbEntity
  8
ZI05
100
AcDbText
 10
3953.800254
 20
295.031408
 30
0.0
 40
6.0
  1

 50
86.666667
  7
BIGFONT
100
AcDbText
  0
TEXT
  5
113A23B8
100
AcDbEntity
  8
ZI05
100
AcDbText
 10
3944.393574
 20
323.419171
 30
0.0
 40
6.0
  1

 50
130.0
  7
BIGFONT
100
AcDbText
  0
TEXT
  5
113A23B9
100
AcDbEntity
  8
ZI05
100
AcDbText
 10
3286.968204
 20
378.648648
 30
0.0
 40
6.0
  1

 50
26.0
  7
BIGFONT
100
AcDbText
  0
TEXT
  5
113A23BA
100
AcDbEntity
  8
ZI05
100
AcDbText
 10
3307.107978
 20
400.756119
 30
0.0
 40
6.0
  1

 50
69.333333
  7
BIGFONT
100
AcDbText
  0
TEXT
  5
113A23BB
100
AcDbEntity
  8
ZI05
100
AcDbText
 10
3309.645653
 20
412.694941
 30
0.0
 40
6.0
  1

 50
86.666667
  7
BIGFONT
100
AcDbText
  0
TEXT
  5
113A23BC
100
AcDbEntity
  8
ZI05
100
AcDbText
 10
3300.238973
 20
441.082705
 30
0.0
 40
6.0
  1

 50
130.0
  7
BIGFONT
100
AcDbText
  0
TEXT
  5
113A23BD
100
AcDbEntity
  8
DIM
100
AcDbText
 10
3384.07169
 20
362.039708
 30
0.0
 40
6.0
  1

  7
BIGFONT
100
AcDbText
  0
TEXT
  5
113A23BE
100
AcDbEntity
  8
DIM
100
AcDbText
 10
3414.07169
 20
362.039708
 30
0.0
 40
6.0
  1

  7
BIGFONT
100
AcDbText
  0
TEXT
  5
113A23BF
100
AcDbEntity
  8
DIM
100
AcDbText
 10
3426.07169
 20
362.039708
 30
0.0
 40
6.0
  1

  7
BIGFONT
100
AcDbText
  0
TEXT
  5
113A23C0
100
AcDbEntity
  8
ZI05
100
AcDbText
 10
3958.219308
 20
390.727694
 30
0.0
 40
6.0
  1

 50
26.0
  7
BIGFONT
100
AcDbText
  0
TEXT
  5
113A23C1
100
AcDbEntity
  8
ZI05
100
AcDbText
 10
3978.359082
 20
412.835165
 30
0.0
 40
6.0
  1

 50
69.333333
  7
BIGFONT
100
AcDbText
  0
TEXT
  5
113A23C2
100
AcDbEntity
  8
ZI05
100
AcDbText
 10
3980.896757
 20
424.773988
 30
0.0
 40
6.0
  1

 50
86.666667
  7
BIGFONT
100
AcDbText
  0
TEXT
  5
113A23C3
100
AcDbEntity
  8
ZI05
100
AcDbText
 10
3971.490077
 20
453.161751
 30
0.0
 40
6.0
  1

 50
130.0
  7
BIGFONT
100
AcDbText
  0
TEXT
  5
113A23C4
100
AcDbEntity
  8
ZI05
100
AcDbText
 10
3957.924937
 20
527.235232
 30
0.0
 40
6.0
  1

 50
26.0
  7
BIGFONT
100
AcDbText
  0
TEXT
  5
113A23C5
100
AcDbEntity
  8
ZI05
100
AcDbText
 10
3978.064711
 20
549.342703
 30
0.0
 40
6.0
  1

 50
69.333333
  7
BIGFONT
100
AcDbText
  0
TEXT
  5
113A23C6
100
AcDbEntity
  8
ZI05
100
AcDbText
 10
3980.602386
 20
561.281526
 30
0.0
 40
6.0
  1

 50
86.666667
  7
BIGFONT
100
AcDbText
  0
TEXT
  5
113A23C7
100
AcDbEntity
  8
ZI05
100
AcDbText
 10
3971.195705
 20
589.669289
 30
0.0
 40
6.0
  1

 50
130.0
  7
BIGFONT
100
AcDbText
  0
TEXT
  5
113A23C8
100
AcDbEntity
  8
DIM
100
AcDbText
 10
4055.028423
 20
510.626293
 30
0.0
 40
6.0
  1

  7
BIGFONT
100
AcDbText
  0
TEXT
  5
113A23C9
100
AcDbEntity
  8
DIM
100
AcDbText
 10
4085.028423
 20
510.626293
 30
0.0
 40
6.0
  1

  7
BIGFONT
100
AcDbText
  0
TEXT
  5
113A23CA
100
AcDbEntity
  8
DIM
100
AcDbText
 10
4097.028423
 20
510.626293
 30
0.0
 40
6.0
  1

  7
BIGFONT
100
AcDbText
  0
TEXT
  5
113A23CB
100
AcDbEntity
  8
ZI05
100
AcDbText
 10
4629.17604
 20
539.314279
 30
0.0
 40
6.0
  1

 50
26.0
  7
BIGFONT
100
AcDbText
  0
TEXT
  5
113A23CC
100
AcDbEntity
  8
ZI05
100
AcDbText
 10
4649.315814
 20
561.42175
 30
0.0
 40
6.0
  1

 50
69.333333
  7
BIGFONT
100
AcDbText
  0
TEXT
  5
113A23CD
100
AcDbEntity
  8
ZI05
100
AcDbText
 10
4651.853489
 20
573.360572
 30
0.0
 40
6.0
  1

 50
86.666667
  7
BIGFONT
100
AcDbText
  0
TEXT
  5
113A23CE
100
AcDbEntity
  8
ZI05
100
AcDbText
 10
4642.446809
 20
601.748336
 30
0.0
 40
6.0
  1

 50
130.0
  7
BIGFONT
100
AcDbText
  0
TEXT
  5
113A23CF
100
AcDbEntity
  8
ZI05
100
AcDbText
 10
4723.385072
 20
523.117628
 30
0.0
 40
6.0
  1

 50
26.0
  7
BIGFONT
100
AcDbText
  0
TEXT
  5
113A23D0
100
AcDbEntity
  8
ZI05
100
AcDbText
 10
4743.524846
 20
545.225099
 30
0.0
 40
6.0
  1

 50
69.333333
  7
BIGFONT
100
AcDbText
  0
TEXT
  5
113A23D1
100
AcDbEntity
  8
ZI05
100
AcDbText
 10
4746.062521
 20
557.163921
 30
0.0
 40
6.0
  1

 50
86.666667
  7
BIGFONT
100
AcDbText
  0
TEXT
  5
113A23D2
100
AcDbEntity
  8
ZI05
100
AcDbText
 10
4736.65584
 20
585.551685
 30
0.0
 40
6.0
  1

 50
130.0
  7
BIGFONT
100
AcDbText
  0
TEXT
  5
113A23D3
100
AcDbEntity
  8
DIM
100
AcDbText
 10
4820.488558
 20
506.508688
 30
0.0
 40
6.0
  1

  7
BIGFONT
100
AcDbText
  0
TEXT
  5
113A23D4
100
AcDbEntity
  8
DIM
100
AcDbText
 10
4850.488558
 20
506.508688
 30
0.0
 40
6.0
  1

  7
BIGFONT
100
AcDbText
  0
TEXT
  5
113A23D5
100
AcDbEntity
  8
DIM
100
AcDbText
 10
4862.488558
 20
506.508688
 30
0.0
 40
6.0
  1

  7
BIGFONT
100
AcDbText
  0
TEXT
  5
113A23D6
100
AcDbEntity
  8
ZI05
100
AcDbText
 10
5394.636175
 20
535.196674
 30
0.0
 40
6.0
  1

 50
26.0
  7
BIGFONT
100
AcDbText
  0
TEXT
  5
113A23D7
100
AcDbEntity
  8
ZI05
100
AcDbText
 10
5414.775949
 20
557.304145
 30
0.0
 40
6.0
  1

 50
69.333333
  7
BIGFONT
100
AcDbText
  0
TEXT
  5
113A23D8
100
AcDbEntity
  8
ZI05
100
AcDbText
 10
5417.313624
 20
569.242967
 30
0.0
 40
6.0
  1

 50
86.666667
  7
BIGFONT
100
AcDbText
  0
TEXT
  5
113A23D9
100
AcDbEntity
  8
ZI05
100
AcDbText
 10
5407.906944
 20
597.630731
 30
0.0
 40
6.0
  1

 50
130.0
  7
BIGFONT
100
AcDbText
  0
TEXT
  5
113A23DA
100
AcDbEntity
  8
ZI05
100
AcDbText
 10
3937.332669
 20
526.462144
 30
0.0
 40
6.0
  1

 50
26.0
  7
BIGFONT
100
AcDbText
  0
TEXT
  5
113A23DB
100
AcDbEntity
  8
ZI05
100
AcDbText
 10
3957.472443
 20
548.569615
 30
0.0
 40
6.0
  1

 50
69.333333
  7
BIGFONT
100
AcDbText
  0
TEXT
  5
113A23DC
100
AcDbEntity
  8
ZI05
100
AcDbText
 10
3960.010118
 20
560.508437
 30
0.0
 40
6.0
  1

 50
86.666667
  7
BIGFONT
100
AcDbText
  0
TEXT
  5
113A23DD
100
AcDbEntity
  8
ZI05
100
AcDbText
 10
3950.603438
 20
588.896201
 30
0.0
 40
6.0
  1

 50
130.0
  7
BIGFONT
100
AcDbText
  0
TEXT
  5
113A23DE
100
AcDbEntity
  8
DIM
100
AcDbText
 10
4034.436155
 20
509.853204
 30
0.0
 40
6.0
  1

  7
BIGFONT
100
AcDbText
  0
TEXT
  5
113A23DF
100
AcDbEntity
  8
DIM
100
AcDbText
 10
4064.436155
 20
509.853204
 30
0.0
 40
6.0
  1

  7
BIGFONT
100
AcDbText
  0
TEXT
  5
113A23E0
100
AcDbEntity
  8
DIM
100
AcDbText
 10
4076.436155
 20
509.853204
 30
0.0
 40
6.0
  1

  7
BIGFONT
100
AcDbText
  0
TEXT
  5
113A23E1
100
AcDbEntity
  8
ZI05
100
AcDbText
 10
4608.583773
 20
538.54119
 30
0.0
 40
6.0
  1

 50
26.0
  7
BIGFONT
100
AcDbText
  0
TEXT
  5
113A23E2
100
AcDbEntity
  8
ZI05
100
AcDbText
 10
4628.723547
 20
560.648661
 30
0.0
 40
6.0
  1

 50
69.333333
  7
BIGFONT
100
AcDbText
  0
TEXT
  5
113A23E3
100
AcDbEntity
  8
ZI05
100
AcDbText
 10
4631.261222
 20
572.587483
 30
0.0
 40
6.0
  1

 50
86.666667
  7
BIGFONT
100
AcDbText
  0
TEXT
  5
113A23E4
100
AcDbEntity
  8
ZI05
100
AcDbText
 10
4621.854542
 20
600.975247
 30
0.0
 40
6.0
  1

 50
130.0
  7
BIGFONT
100
AcDbText
  0
TEXT
  5
27FB2773
100
AcDbEntity
  8
ZI05
100
AcDbText
 10
1258.438859
 20
237.500591
 30
0.0
 40
6.0
  1

 50
26.0
  7
BIGFONT
100
AcDbText
  0
TEXT
  5
27FB2774
100
AcDbEntity
  8
ZI05
100
AcDbText
 10
1278.578633
 20
259.608062
 30
0.0
 40
6.0
  1

 50
69.333333
  7
BIGFONT
100
AcDbText
  0
TEXT
  5
27FB2775
100
AcDbEntity
  8
ZI05
100
AcDbText
 10
1281.116308
 20
271.546884
 30
0.0
 40
6.0
  1

 50
86.666667
  7
BIGFONT
100
AcDbText
  0
TEXT
  5
27FB2776
100
AcDbEntity
  8
ZI05
100
AcDbText
 10
1271.709628
 20
299.934648
 30
0.0
 40
6.0
  1

 50
130.0
  7
BIGFONT
100
AcDbText
  0
TEXT
  5
27FB2778
100
AcDbEntity
  8
DIM
100
AcDbText
 10
1355.542345
 20
220.891651
 30
0.0
 40
6.0
  1

  7
BIGFONT
100
AcDbText
  0
TEXT
  5
27FB2779
100
AcDbEntity
  8
DIM
100
AcDbText
 10
1385.542345
 20
220.891651
 30
0.0
 40
6.0
  1

  7
BIGFONT
100
AcDbText
  0
TEXT
  5
27FB277A
100
AcDbEntity
  8
DIM
100
AcDbText
 10
1397.542345
 20
220.891651
 30
0.0
 40
6.0
  1

  7
BIGFONT
100
AcDbText
  0
TEXT
  5
27FB277B
100
AcDbEntity
  8
ZI05
100
AcDbText
 10
1929.689963
 20
249.579638
 30
0.0
 40
6.0
  1

 50
26.0
  7
BIGFONT
100
AcDbText
  0
TEXT
  5
27FB277C
100
AcDbEntity
  8
ZI05
100
AcDbText
 10
1949.829737
 20
271.687109
 30
0.0
 40
6.0
  1

 50
69.333333
  7
BIGFONT
100
AcDbText
  0
TEXT
  5
27FB277D
100
AcDbEntity
  8
ZI05
100
AcDbText
 10
1952.367412
 20
283.625931
 30
0.0
 40
6.0
  1

 50
86.666667
  7
BIGFONT
100
AcDbText
  0
TEXT
  5
27FB277E
100
AcDbEntity
  8
ZI05
100
AcDbText
 10
1942.960731
 20
312.013695
 30
0.0
 40
6.0
  1

 50
130.0
  7
BIGFONT
100
AcDbText
  0
TEXT
  5
27FB27EA
100
AcDbEntity
  8
ZI05
100
AcDbText
 10
1700.177588
 20
243.934656
 30
0.0
 40
6.0
  1

 50
26.0
  7
BIGFONT
100
AcDbText
  0
TEXT
  5
27FB27EB
100
AcDbEntity
  8
ZI05
100
AcDbText
 10
1720.317362
 20
266.042127
 30
0.0
 40
6.0
  1

 50
69.333333
  7
BIGFONT
100
AcDbText
  0
TEXT
  5
27FB27EC
100
AcDbEntity
  8
ZI05
100
AcDbText
 10
1722.855037
 20
277.98095
 30
0.0
 40
6.0
  1

 50
86.666667
  7
BIGFONT
100
AcDbText
  0
TEXT
  5
27FB27ED
100
AcDbEntity
  8
ZI05
100
AcDbText
 10
1713.448357
 20
306.368713
 30
0.0
 40
6.0
  1

 50
130.0
  7
BIGFONT
100
AcDbText
  0
TEXT
  5
27FB27FB
100
AcDbEntity
  8
DIM
100
AcDbText
 10
1797.281074
 20
227.325717
 30
0.0
 40
6.0
  1

  7
BIGFONT
100
AcDbText
  0
TEXT
  5
27FB27FC
100
AcDbEntity
  8
DIM
100
AcDbText
 10
1827.281074
 20
227.325717
 30
0.0
 40
6.0
  1

  7
BIGFONT
100
AcDbText
  0
TEXT
  5
27FB27FD
100
AcDbEntity
  8
DIM
100
AcDbText
 10
1839.281074
 20
227.325717
 30
0.0
 40
6.0
  1

  7
BIGFONT
100
AcDbText
  0
TEXT
  5
27FB27FE
100
AcDbEntity
  8
ZI05
100
AcDbText
 10
2371.428692
 20
256.013703
 30
0.0
 40
6.0
  1

 50
26.0
  7
BIGFONT
100
AcDbText
  0
TEXT
  5
27FB27FF
100
AcDbEntity
  8
ZI05
100
AcDbText
 10
2391.568466
 20
278.121174
 30
0.0
 40
6.0
  1

 50
69.333333
  7
BIGFONT
100
AcDbText
  0
TEXT
  5
27FB2800
100
AcDbEntity
  8
ZI05
100
AcDbText
 10
2394.106141
 20
290.059996
 30
0.0
 40
6.0
  1

 50
86.666667
  7
BIGFONT
100
AcDbText
  0
TEXT
  5
27FB2801
100
AcDbEntity
  8
ZI05
100
AcDbText
 10
2384.69946
 20
318.44776
 30
0.0
 40
6.0
  1

 50
130.0
  7
BIGFONT
100
AcDbText
  0
TEXT
  5
27FB2912
100
AcDbEntity
  8
ZI05
100
AcDbText
 10
1583.051203
 20
272.237834
 30
0.0
 40
6.0
  1

 50
26.0
  7
BIGFONT
100
AcDbText
  0
TEXT
  5
27FB2913
100
AcDbEntity
  8
ZI05
100
AcDbText
 10
1603.190977
 20
294.345305
 30
0.0
 40
6.0
  1

 50
69.333333
  7
BIGFONT
100
AcDbText
  0
TEXT
  5
27FB2914
100
AcDbEntity
  8
ZI05
100
AcDbText
 10
1605.728652
 20
306.284127
 30
0.0
 40
6.0
  1

 50
86.666667
  7
BIGFONT
100
AcDbText
  0
TEXT
  5
27FB2915
100
AcDbEntity
  8
ZI05
100
AcDbText
 10
1596.321972
 20
334.671891
 30
0.0
 40
6.0
  1

 50
130.0
  7
BIGFONT
100
AcDbText
  0
TEXT
  5
27FB2916
100
AcDbEntity
  8
DIM
100
AcDbText
 10
1680.154689
 20
255.628894
 30
0.0
 40
6.0
  1

  7
BIGFONT
100
AcDbText
  0
TEXT
  5
27FB2917
100
AcDbEntity
  8
DIM
100
AcDbText
 10
1710.154689
 20
255.628894
 30
0.0
 40
6.0
  1

  7
BIGFONT
100
AcDbText
  0
TEXT
  5
27FB2918
100
AcDbEntity
  8
DIM
100
AcDbText
 10
1722.154689
 20
255.628894
 30
0.0
 40
6.0
  1

  7
BIGFONT
100
AcDbText
  0
TEXT
  5
27FB2919
100
AcDbEntity
  8
ZI05
100
AcDbText
 10
2254.302307
 20
284.31688
 30
0.0
 40
6.0
  1

 50
26.0
  7
BIGFONT
100
AcDbText
  0
TEXT
  5
27FB291A
100
AcDbEntity
  8
ZI05
100
AcDbText
 10
2274.442081
 20
306.424351
 30
0.0
 40
6.0
  1

 50
69.333333
  7
BIGFONT
100
AcDbText
  0
TEXT
  5
27FB291B
100
AcDbEntity
  8
ZI05
100
AcDbText
 10
2276.979756
 20
318.363174
 30
0.0
 40
6.0
  1

 50
86.666667
  7
BIGFONT
100
AcDbText
  0
TEXT
  5
27FB291C
100
AcDbEntity
  8
ZI05
100
AcDbText
 10
2267.573075
 20
346.750937
 30
0.0
 40
6.0
  1

 50
130.0
  7
BIGFONT
100
AcDbText
  0
TEXT
  5
27FB291E
100
AcDbEntity
  8
ZI05
100
AcDbText
 10
2126.942337
 20
276.913769
 30
0.0
 40
6.0
  1

 50
26.0
  7
BIGFONT
100
AcDbText
  0
TEXT
  5
27FB291F
100
AcDbEntity
  8
ZI05
100
AcDbText
 10
2147.082111
 20
299.02124
 30
0.0
 40
6.0
  1

 50
69.333333
  7
BIGFONT
100
AcDbText
  0
TEXT
  5
27FB2920
100
AcDbEntity
  8
ZI05
100
AcDbText
 10
2149.619786
 20
310.960062
 30
0.0
 40
6.0
  1

 50
86.666667
  7
BIGFONT
100
AcDbText
  0
TEXT
  5
27FB2921
100
AcDbEntity
  8
ZI05
100
AcDbText
 10
2140.213105
 20
339.347826
 30
0.0
 40
6.0
  1

 50
130.0
  7
BIGFONT
100
AcDbText
  0
TEXT
  5
27FB2922
100
AcDbEntity
  8
DIM
100
AcDbText
 10
2224.045823
 20
260.304829
 30
0.0
 40
6.0
  1

  7
BIGFONT
100
AcDbText
  0
TEXT
  5
27FB2923
100
AcDbEntity
  8
DIM
100
AcDbText
 10
2254.045823
 20
260.304829
 30
0.0
 40
6.0
  1

  7
BIGFONT
100
AcDbText
  0
TEXT
  5
27FB2924
100
AcDbEntity
  8
DIM
100
AcDbText
 10
2266.045823
 20
260.304829
 30
0.0
 40
6.0
  1

  7
BIGFONT
100
AcDbText
  0
TEXT
  5
27FB2925
100
AcDbEntity
  8
ZI05
100
AcDbText
 10
2798.19344
 20
288.992815
 30
0.0
 40
6.0
  1

 50
26.0
  7
BIGFONT
100
AcDbText
  0
TEXT
  5
27FB2926
100
AcDbEntity
  8
ZI05
100
AcDbText
 10
2818.333214
 20
311.100286
 30
0.0
 40
6.0
  1

 50
69.333333
  7
BIGFONT
100
AcDbText
  0
TEXT
  5
27FB2927
100
AcDbEntity
  8
ZI05
100
AcDbText
 10
2820.870889
 20
323.039108
 30
0.0
 40
6.0
  1

 50
86.666667
  7
BIGFONT
100
AcDbText
  0
TEXT
  5
27FB2928
100
AcDbEntity
  8
ZI05
100
AcDbText
 10
2811.464209
 20
351.426872
 30
0.0
 40
6.0
  1

 50
130.0
  7
BIGFONT
100
AcDbText
  0
TEXT
  5
27FB2929
100
AcDbEntity
  8
ZI05
100
AcDbText
 10
2615.248739
 20
269.008007
 30
0.0
 40
6.0
  1

 50
26.0
  7
BIGFONT
100
AcDbText
  0
TEXT
  5
27FB292A
100
AcDbEntity
  8
ZI05
100
AcDbText
 10
2635.388513
 20
291.115478
 30
0.0
 40
6.0
  1

 50
69.333333
  7
BIGFONT
100
AcDbText
  0
TEXT
  5
27FB292B
100
AcDbEntity
  8
ZI05
100
AcDbText
 10
2637.926188
 20
303.0543
 30
0.0
 40
6.0
  1

 50
86.666667
  7
BIGFONT
100
AcDbText
  0
TEXT
  5
27FB292C
100
AcDbEntity
  8
ZI05
100
AcDbText
 10
2628.519507
 20
331.442064
 30
0.0
 40
6.0
  1

 50
130.0
  7
BIGFONT
100
AcDbText
  0
TEXT
  5
27FB292D
100
AcDbEntity
  8
DIM
100
AcDbText
 10
2712.352225
 20
252.399067
 30
0.0
 40
6.0
  1

  7
BIGFONT
100
AcDbText
  0
TEXT
  5
27FB292E
100
AcDbEntity
  8
DIM
100
AcDbText
 10
2742.352225
 20
252.399067
 30
0.0
 40
6.0
  1

  7
BIGFONT
100
AcDbText
  0
TEXT
  5
27FB292F
100
AcDbEntity
  8
DIM
100
AcDbText
 10
2754.352225
 20
252.399067
 30
0.0
 40
6.0
  1

  7
BIGFONT
100
AcDbText
  0
TEXT
  5
27FB2930
100
AcDbEntity
  8
ZI05
100
AcDbText
 10
3286.499842
 20
281.087053
 30
0.0
 40
6.0
  1

 50
26.0
  7
BIGFONT
100
AcDbText
  0
TEXT
  5
27FB2931
100
AcDbEntity
  8
ZI05
100
AcDbText
 10
3306.639616
 20
303.194524
 30
0.0
 40
6.0
  1

 50
69.333333
  7
BIGFONT
100
AcDbText
  0
TEXT
  5
27FB2932
100
AcDbEntity
  8
ZI05
100
AcDbText
 10
3309.177291
 20
315.133346
 30
0.0
 40
6.0
  1

 50
86.666667
  7
BIGFONT
100
AcDbText
  0
TEXT
  5
27FB2933
100
AcDbEntity
  8
ZI05
100
AcDbText
 10
3299.770611
 20
343.52111
 30
0.0
 40
6.0
  1

 50
130.0
  7
BIGFONT
100
AcDbText
  0
TEXT
  5
27FB2934
100
AcDbEntity
  8
ZI05
100
AcDbText
 10
3084.917906
 20
270.742766
 30
0.0
 40
6.0
  1

 50
26.0
  7
BIGFONT
100
AcDbText
  0
TEXT
  5
27FB2935
100
AcDbEntity
  8
ZI05
100
AcDbText
 10
3105.05768
 20
292.850237
 30
0.0
 40
6.0
  1

 50
69.333333
  7
BIGFONT
100
AcDbText
  0
TEXT
  5
27FB2936
100
AcDbEntity
  8
ZI05
100
AcDbText
 10
3107.595355
 20
304.789059
 30
0.0
 40
6.0
  1

 50
86.666667
  7
BIGFONT
100
AcDbText
  0
TEXT
  5
27FB2937
100
AcDbEntity
  8
ZI05
100
AcDbText
 10
3098.188675
 20
333.176823
 30
0.0
 40
6.0
  1

 50
130.0
  7
BIGFONT
100
AcDbText
  0
TEXT
  5
27FB2938
100
AcDbEntity
  8
DIM
100
AcDbText
 10
3182.021392
 20
254.133826
 30
0.0
 40
6.0
  1

  7
BIGFONT
100
AcDbText
  0
TEXT
  5
27FB2939
100
AcDbEntity
  8
DIM
100
AcDbText
 10
3212.021392
 20
254.133826
 30
0.0
 40
6.0
  1

  7
BIGFONT
100
AcDbText
  0
TEXT
  5
27FB293A
100
AcDbEntity
  8
DIM
100
AcDbText
 10
3224.021392
 20
254.133826
 30
0.0
 40
6.0
  1

  7
BIGFONT
100
AcDbText
  0
TEXT
  5
27FB293B
100
AcDbEntity
  8
ZI05
100
AcDbText
 10
3756.16901
 20
282.821813
 30
0.0
 40
6.0
  1

 50
26.0
  7
BIGFONT
100
AcDbText
  0
TEXT
  5
27FB293C
100
AcDbEntity
  8
ZI05
100
AcDbText
 10
3776.308784
 20
304.929284
 30
0.0
 40
6.0
  1

 50
69.333333
  7
BIGFONT
100
AcDbText
  0
TEXT
  5
27FB293D
100
AcDbEntity
  8
ZI05
100
AcDbText
 10
3778.846459
 20
316.868106
 30
0.0
 40
6.0
  1

 50
86.666667
  7
BIGFONT
100
AcDbText
  0
TEXT
  5
27FB293E
100
AcDbEntity
  8
ZI05
100
AcDbText
 10
3769.439779
 20
345.25587
 30
0.0
 40
6.0
  1

 50
130.0
  7
BIGFONT
100
AcDbText
  0
TEXT
  5
27FB293F
100
AcDbEntity
  8
ZI05
100
AcDbText
 10
3112.014409
 20
400.485346
 30
0.0
 40
6.0
  1

 50
26.0
  7
BIGFONT
100
AcDbText
  0
TEXT
  5
27FB2940
100
AcDbEntity
  8
ZI05
100
AcDbText
 10
3132.154183
 20
422.592817
 30
0.0
 40
6.0
  1

 50
69.333333
  7
BIGFONT
100
AcDbText
  0
TEXT
  5
27FB2941
100
AcDbEntity
  8
ZI05
100
AcDbText
 10
3134.691858
 20
434.53164
 30
0.0
 40
6.0
  1

 50
86.666667
  7
BIGFONT
100
AcDbText
  0
TEXT
  5
27FB2942
100
AcDbEntity
  8
ZI05
100
AcDbText
 10
3125.285178
 20
462.919403
 30
0.0
 40
6.0
  1

 50
130.0
  7
BIGFONT
100
AcDbText
  0
TEXT
  5
27FB2943
100
AcDbEntity
  8
DIM
100
AcDbText
 10
3209.117895
 20
383.876407
 30
0.0
 40
6.0
  1

  7
BIGFONT
100
AcDbText
  0
TEXT
  5
27FB2944
100
AcDbEntity
  8
DIM
100
AcDbText
 10
3239.117895
 20
383.876407
 30
0.0
 40
6.0
  1

  7
BIGFONT
100
AcDbText
  0
TEXT
  5
27FB2945
100
AcDbEntity
  8
DIM
100
AcDbText
 10
3251.117895
 20
383.876407
 30
0.0
 40
6.0
  1

  7
BIGFONT
100
AcDbText
  0
TEXT
  5
27FB2946
100
AcDbEntity
  8
ZI05
100
AcDbText
 10
3783.265513
 20
412.564393
 30
0.0
 40
6.0
  1

 50
26.0
  7
BIGFONT
100
AcDbText
  0
TEXT
  5
27FB2947
100
AcDbEntity
  8
ZI05
100
AcDbText
 10
3803.405287
 20
434.671864
 30
0.0
 40
6.0
  1

 50
69.333333
  7
BIGFONT
100
AcDbText
  0
TEXT
  5
27FB2948
100
AcDbEntity
  8
ZI05
100
AcDbText
 10
3805.942962
 20
446.610686
 30
0.0
 40
6.0
  1

 50
86.666667
  7
BIGFONT
100
AcDbText
  0
TEXT
  5
27FB2949
100
AcDbEntity
  8
ZI05
100
AcDbText
 10
3796.536281
 20
474.99845
 30
0.0
 40
6.0
  1

 50
130.0
  7
BIGFONT
100
AcDbText
  0
TEXT
  5
27FB294A
100
AcDbEntity
  8
ZI05
100
AcDbText
 10
3782.971141
 20
549.071931
 30
0.0
 40
6.0
  1

 50
26.0
  7
BIGFONT
100
AcDbText
  0
TEXT
  5
27FB294B
100
AcDbEntity
  8
ZI05
100
AcDbText
 10
3803.110915
 20
571.179402
 30
0.0
 40
6.0
  1

 50
69.333333
  7
BIGFONT
100
AcDbText
  0
TEXT
  5
27FB294C
100
AcDbEntity
  8
ZI05
100
AcDbText
 10
3805.64859
 20
583.118224
 30
0.0
 40
6.0
  1

 50
86.666667
  7
BIGFONT
100
AcDbText
  0
TEXT
  5
27FB294D
100
AcDbEntity
  8
ZI05
100
AcDbText
 10
3796.24191
 20
611.505988
 30
0.0
 40
6.0
  1

 50
130.0
  7
BIGFONT
100
AcDbText
  0
TEXT
  5
27FB294E
100
AcDbEntity
  8
DIM
100
AcDbText
 10
3880.074627
 20
532.462991
 30
0.0
 40
6.0
  1

  7
BIGFONT
100
AcDbText
  0
TEXT
  5
27FB294F
100
AcDbEntity
  8
DIM
100
AcDbText
 10
3910.074627
 20
532.462991
 30
0.0
 40
6.0
  1

  7
BIGFONT
100
AcDbText
  0
TEXT
  5
27FB2950
100
AcDbEntity
  8
DIM
100
AcDbText
 10
3922.074627
 20
532.462991
 30
0.0
 40
6.0
  1

  7
BIGFONT
100
AcDbText
  0
TEXT
  5
27FB2951
100
AcDbEntity
  8
ZI05
100
AcDbText
 10
4454.222245
 20
561.150977
 30
0.0
 40
6.0
  1

 50
26.0
  7
BIGFONT
100
AcDbText
  0
TEXT
  5
27FB2952
100
AcDbEntity
  8
ZI05
100
AcDbText
 10
4474.362019
 20
583.258448
 30
0.0
 40
6.0
  1

 50
69.333333
  7
BIGFONT
100
AcDbText
  0
TEXT
  5
27FB2953
100
AcDbEntity
  8
ZI05
100
AcDbText
 10
4476.899694
 20
595.197271
 30
0.0
 40
6.0
  1

 50
86.666667
  7
BIGFONT
100
AcDbText
  0
TEXT
  5
27FB2954
100
AcDbEntity
  8
ZI05
100
AcDbText
 10
4467.493014
 20
623.585034
 30
0.0
 40
6.0
  1

 50
130.0
  7
BIGFONT
100
AcDbText
  0
TEXT
  5
27FB2955
100
AcDbEntity
  8
ZI05
100
AcDbText
 10
4548.431276
 20
544.954326
 30
0.0
 40
6.0
  1

 50
26.0
  7
BIGFONT
100
AcDbText
  0
TEXT
  5
27FB2956
100
AcDbEntity
  8
ZI05
100
AcDbText
 10
4568.57105
 20
567.061797
 30
0.0
 40
6.0
  1

 50
69.333333
  7
BIGFONT
100
AcDbText
  0
TEXT
  5
27FB2957
100
AcDbEntity
  8
ZI05
100
AcDbText
 10
4571.108725
 20
579.000619
 30
0.0
 40
6.0
  1

 50
86.666667
  7
BIGFONT
100
AcDbText
  0
TEXT
  5
27FB2958
100
AcDbEntity
  8
ZI05
100
AcDbText
 10
4561.702045
 20
607.388383
 30
0.0
 40
6.0
  1

 50
130.0
  7
BIGFONT
100
AcDbText
  0
TEXT
  5
27FB2959
100
AcDbEntity
  8
DIM
100
AcDbText
 10
4645.534762
 20
528.345386
 30
0.0
 40
6.0
  1

  7
BIGFONT
100
AcDbText
  0
TEXT
  5
27FB295A
100
AcDbEntity
  8
DIM
100
AcDbText
 10
4675.534762
 20
528.345386
 30
0.0
 40
6.0
  1

  7
BIGFONT
100
AcDbText
  0
TEXT
  5
27FB295B
100
AcDbEntity
  8
DIM
100
AcDbText
 10
4687.534762
 20
528.345386
 30
0.0
 40
6.0
  1

  7
BIGFONT
100
AcDbText
  0
TEXT
  5
27FB295C
100
AcDbEntity
  8
ZI05
100
AcDbText
 10
5219.68238
 20
557.033372
 30
0.0
 40
6.0
  1

 50
26.0
  7
BIGFONT
100
AcDbText
  0
TEXT
  5
27FB295D
100
AcDbEntity
  8
ZI05
100
AcDbText
 10
5239.822154
 20
579.140843
 30
0.0
 40
6.0
  1

 50
69.333333
  7
BIGFONT
100
AcDbText
  0
TEXT
  5
27FB295E
100
AcDbEntity
  8
ZI05
100
AcDbText
 10
5242.359829
 20
591.079666
 30
0.0
 40
6.0
  1

 50
86.666667
  7
BIGFONT
100
AcDbText
  0
TEXT
  5
27FB295F
100
AcDbEntity
  8
ZI05
100
AcDbText
 10
5232.953149
 20
619.467429
 30
0.0
 40
6.0
  1

 50
130.0
  7
BIGFONT
100
AcDbText
  0
TEXT
  5
27FB2961
100
AcDbEntity
  8
ZI05
100
AcDbText
 10
3762.378874
 20
548.298842
 30
0.0
 40
6.0
  1

 50
26.0
  7
BIGFONT
100
AcDbText
  0
TEXT
  5
27FB2962
100
AcDbEntity
  8
ZI05
100
AcDbText
 10
3782.518648
 20
570.406313
 30
0.0
 40
6.0
  1

 50
69.333333
  7
BIGFONT
100
AcDbText
  0
TEXT
  5
27FB2963
100
AcDbEntity
  8
ZI05
100
AcDbText
 10
3785.056323
 20
582.345135
 30
0.0
 40
6.0
  1

 50
86.666667
  7
BIGFONT
100
AcDbText
  0
TEXT
  5
27FB2964
100
AcDbEntity
  8
ZI05
100
AcDbText
 10
3775.649643
 20
610.732899
 30
0.0
 40
6.0
  1

 50
130.0
  7
BIGFONT
100
AcDbText
  0
TEXT
  5
27FB2965
100
AcDbEntity
  8
DIM
100
AcDbText
 10
3859.48236
 20
531.689902
 30
0.0
 40
6.0
  1

  7
BIGFONT
100
AcDbText
  0
TEXT
  5
27FB2966
100
AcDbEntity
  8
DIM
100
AcDbText
 10
3889.48236
 20
531.689902
 30
0.0
 40
6.0
  1

  7
BIGFONT
100
AcDbText
  0
TEXT
  5
27FB2967
100
AcDbEntity
  8
DIM
100
AcDbText
 10
3901.48236
 20
531.689902
 30
0.0
 40
6.0
  1

  7
BIGFONT
100
AcDbText
  0
TEXT
  5
27FB2968
100
AcDbEntity
  8
ZI05
100
AcDbText
 10
4433.629978
 20
560.377888
 30
0.0
 40
6.0
  1

 50
26.0
  7
BIGFONT
100
AcDbText
  0
TEXT
  5
27FB2969
100
AcDbEntity
  8
ZI05
100
AcDbText
 10
4453.769752
 20
582.485359
 30
0.0
 40
6.0
  1

 50
69.333333
  7
BIGFONT
100
AcDbText
  0
TEXT
  5
27FB296A
100
AcDbEntity
  8
ZI05
100
AcDbText
 10
4456.307427
 20
594.424182
 30
0.0
 40
6.0
  1

 50
86.666667
  7
BIGFONT
100
AcDbText
  0
TEXT
  5
27FB296B
100
AcDbEntity
  8
ZI05
100
AcDbText
 10
4446.900746
 20
622.811945
 30
0.0
 40
6.0
  1

 50
130.0
  7
BIGFONT
100
AcDbText
  0
TEXT
  5
27FB296C
100
AcDbEntity
  8
ZI05
100
AcDbText
 10
1820.665024
 20
277.026781
 30
0.0
 40
6.0
  1

 50
26.0
  7
BIGFONT
100
AcDbText
  0
TEXT
  5
27FB296D
100
AcDbEntity
  8
ZI05
100
AcDbText
 10
1840.804798
 20
299.134252
 30
0.0
 40
6.0
  1

 50
69.333333
  7
BIGFONT
100
AcDbText
  0
TEXT
  5
27FB296E
100
AcDbEntity
  8
ZI05
100
AcDbText
 10
1843.342473
 20
311.073074
 30
0.0
 40
6.0
  1

 50
86.666667
  7
BIGFONT
100
AcDbText
  0
TEXT
  5
27FB296F
100
AcDbEntity
  8
ZI05
100
AcDbText
 10
1833.935793
 20
339.460838
 30
0.0
 40
6.0
  1

 50
130.0
  7
BIGFONT
100
AcDbText
  0
TEXT
  5
27FB2970
100
AcDbEntity
  8
DIM
100
AcDbText
 10
1917.76851
 20
260.417841
 30
0.0
 40
6.0
  1

  7
BIGFONT
100
AcDbText
  0
TEXT
  5
27FB2971
100
AcDbEntity
  8
DIM
100
AcDbText
 10
1947.76851
 20
260.417841
 30
0.0
 40
6.0
  1

  7
BIGFONT
100
AcDbText
  0
TEXT
  5
27FB2972
100
AcDbEntity
  8
DIM
100
AcDbText
 10
1959.76851
 20
260.417841
 30
0.0
 40
6.0
  1

  7
BIGFONT
100
AcDbText
  0
TEXT
  5
27FB2973
100
AcDbEntity
  8
ZI05
100
AcDbText
 10
2491.916128
 20
289.105827
 30
0.0
 40
6.0
  1

 50
26.0
  7
BIGFONT
100
AcDbText
  0
TEXT
  5
27FB2974
100
AcDbEntity
  8
ZI05
100
AcDbText
 10
2512.055902
 20
311.213298
 30
0.0
 40
6.0
  1

 50
69.333333
  7
BIGFONT
100
AcDbText
  0
TEXT
  5
27FB2975
100
AcDbEntity
  8
ZI05
100
AcDbText
 10
2514.593577
 20
323.152121
 30
0.0
 40
6.0
  1

 50
86.666667
  7
BIGFONT
100
AcDbText
  0
TEXT
  5
27FB2976
100
AcDbEntity
  8
ZI05
100
AcDbText
 10
2505.186896
 20
351.539884
 30
0.0
 40
6.0
  1

 50
130.0
  7
BIGFONT
100
AcDbText
  0
TEXT
  5
27FB2977
100
AcDbEntity
  8
ZI05
100
AcDbText
 10
2364.556158
 20
281.702716
 30
0.0
 40
6.0
  1

 50
26.0
  7
BIGFONT
100
AcDbText
  0
TEXT
  5
27FB2978
100
AcDbEntity
  8
ZI05
100
AcDbText
 10
2384.695932
 20
303.810187
 30
0.0
 40
6.0
  1

 50
69.333333
  7
BIGFONT
100
AcDbText
  0
TEXT
  5
27FB2979
100
AcDbEntity
  8
ZI05
100
AcDbText
 10
2387.233607
 20
315.749009
 30
0.0
 40
6.0
  1

 50
86.666667
  7
BIGFONT
100
AcDbText
  0
TEXT
  5
27FB297A
100
AcDbEntity
  8
ZI05
100
AcDbText
 10
2377.826926
 20
344.136773
 30
0.0
 40
6.0
  1

 50
130.0
  7
BIGFONT
100
AcDbText
  0
TEXT
  5
27FB297B
100
AcDbEntity
  8
DIM
100
AcDbText
 10
2461.659644
 20
265.093776
 30
0.0
 40
6.0
  1

  7
BIGFONT
100
AcDbText
  0
TEXT
  5
27FB297C
100
AcDbEntity
  8
DIM
100
AcDbText
 10
2491.659644
 20
265.093776
 30
0.0
 40
6.0
  1

  7
BIGFONT
100
AcDbText
  0
TEXT
  5
27FB297D
100
AcDbEntity
  8
DIM
100
AcDbText
 10
2503.659644
 20
265.093776
 30
0.0
 40
6.0
  1

  7
BIGFONT
100
AcDbText
  0
TEXT
  5
27FB297E
100
AcDbEntity
  8
ZI05
100
AcDbText
 10
3035.807261
 20
293.781762
 30
0.0
 40
6.0
  1

 50
26.0
  7
BIGFONT
100
AcDbText
  0
TEXT
  5
27FB297F
100
AcDbEntity
  8
ZI05
100
AcDbText
 10
3055.947035
 20
315.889233
 30
0.0
 40
6.0
  1

 50
69.333333
  7
BIGFONT
100
AcDbText
  0
TEXT
  5
27FB2980
100
AcDbEntity
  8
ZI05
100
AcDbText
 10
3058.48471
 20
327.828056
 30
0.0
 40
6.0
  1

 50
86.666667
  7
BIGFONT
100
AcDbText
  0
TEXT
  5
27FB2981
100
AcDbEntity
  8
ZI05
100
AcDbText
 10
3049.07803
 20
356.215819
 30
0.0
 40
6.0
  1

 50
130.0
  7
BIGFONT
100
AcDbText
  0
TEXT
  5
27FB2982
100
AcDbEntity
  8
ZI05
100
AcDbText
 10
2852.86256
 20
273.796954
 30
0.0
 40
6.0
  1

 50
26.0
  7
BIGFONT
100
AcDbText
  0
TEXT
  5
27FB2983
100
AcDbEntity
  8
ZI05
100
AcDbText
 10
2873.002334
 20
295.904425
 30
0.0
 40
6.0
  1

 50
69.333333
  7
BIGFONT
100
AcDbText
  0
TEXT
  5
27FB2984
100
AcDbEntity
  8
ZI05
100
AcDbText
 10
2875.540009
 20
307.843247
 30
0.0
 40
6.0
  1

 50
86.666667
  7
BIGFONT
100
AcDbText
  0
TEXT
  5
27FB2985
100
AcDbEntity
  8
ZI05
100
AcDbText
 10
2866.133328
 20
336.231011
 30
0.0
 40
6.0
  1

 50
130.0
  7
BIGFONT
100
AcDbText
  0
TEXT
  5
27FB2986
100
AcDbEntity
  8
DIM
100
AcDbText
 10
2949.966045
 20
257.188014
 30
0.0
 40
6.0
  1

  7
BIGFONT
100
AcDbText
  0
TEXT
  5
27FB2987
100
AcDbEntity
  8
DIM
100
AcDbText
 10
2979.966045
 20
257.188014
 30
0.0
 40
6.0
  1

  7
BIGFONT
100
AcDbText
  0
TEXT
  5
27FB2988
100
AcDbEntity
  8
DIM
100
AcDbText
 10
2991.966045
 20
257.188014
 30
0.0
 40
6.0
  1

  7
BIGFONT
100
AcDbText
  0
TEXT
  5
27FB2989
100
AcDbEntity
  8
ZI05
100
AcDbText
 10
3524.113663
 20
285.876
 30
0.0
 40
6.0
  1

 50
26.0
  7
BIGFONT
100
AcDbText
  0
TEXT
  5
27FB298A
100
AcDbEntity
  8
ZI05
100
AcDbText
 10
3544.253437
 20
307.983471
 30
0.0
 40
6.0
  1

 50
69.333333
  7
BIGFONT
100
AcDbText
  0
TEXT
  5
27FB298B
100
AcDbEntity
  8
ZI05
100
AcDbText
 10
3546.791112
 20
319.922294
 30
0.0
 40
6.0
  1

 50
86.666667
  7
BIGFONT
100
AcDbText
  0
TEXT
  5
27FB298C
100
AcDbEntity
  8
ZI05
100
AcDbText
 10
3537.384432
 20
348.310057
 30
0.0
 40
6.0
  1

 50
130.0
  7
BIGFONT
100
AcDbText
  0
TEXT
  5
27FB298D
100
AcDbEntity
  8
ZI05
100
AcDbText
 10
3322.531727
 20
275.531713
 30
0.0
 40
6.0
  1

 50
26.0
  7
BIGFONT
100
AcDbText
  0
TEXT
  5
27FB298E
100
AcDbEntity
  8
ZI05
100
AcDbText
 10
3342.671501
 20
297.639184
 30
0.0
 40
6.0
  1

 50
69.333333
  7
BIGFONT
100
AcDbText
  0
TEXT
  5
27FB298F
100
AcDbEntity
  8
ZI05
100
AcDbText
 10
3345.209176
 20
309.578006
 30
0.0
 40
6.0
  1

 50
86.666667
  7
BIGFONT
100
AcDbText
  0
TEXT
  5
27FB2990
100
AcDbEntity
  8
ZI05
100
AcDbText
 10
3335.802496
 20
337.96577
 30
0.0
 40
6.0
  1

 50
130.0
  7
BIGFONT
100
AcDbText
  0
TEXT
  5
27FB2991
100
AcDbEntity
  8
DIM
100
AcDbText
 10
3419.635213
 20
258.922773
 30
0.0
 40
6.0
  1

  7
BIGFONT
100
AcDbText
  0
TEXT
  5
27FB2992
100
AcDbEntity
  8
DIM
100
AcDbText
 10
3449.635213
 20
258.922773
 30
0.0
 40
6.0
  1

  7
BIGFONT
100
AcDbText
  0
TEXT
  5
27FB2993
100
AcDbEntity
  8
DIM
100
AcDbText
 10
3461.635213
 20
258.922773
 30
0.0
 40
6.0
  1

  7
BIGFONT
100
AcDbText
  0
TEXT
  5
27FB2994
100
AcDbEntity
  8
ZI05
100
AcDbText
 10
3993.782831
 20
287.61076
 30
0.0
 40
6.0
  1

 50
26.0
  7
BIGFONT
100
AcDbText
  0
TEXT
  5
27FB2995
100
AcDbEntity
  8
ZI05
100
AcDbText
 10
4013.922605
 20
309.718231
 30
0.0
 40
6.0
  1

 50
69.333333
  7
BIGFONT
100
AcDbText
  0
TEXT
  5
27FB2996
100
AcDbEntity
  8
ZI05
100
AcDbText
 10
4016.46028
 20
321.657053
 30
0.0
 40
6.0
  1

 50
86.666667
  7
BIGFONT
100
AcDbText
  0
TEXT
  5
27FB2997
100
AcDbEntity
  8
ZI05
100
AcDbText
 10
4007.0536
 20
350.044817
 30
0.0
 40
6.0
  1

 50
130.0
  7
BIGFONT
100
AcDbText
  0
TEXT
  5
27FB2998
100
AcDbEntity
  8
ZI05
100
AcDbText
 10
3349.62823
 20
405.274293
 30
0.0
 40
6.0
  1

 50
26.0
  7
BIGFONT
100
AcDbText
  0
TEXT
  5
27FB2999
100
AcDbEntity
  8
ZI05
100
AcDbText
 10
3369.768004
 20
427.381764
 30
0.0
 40
6.0
  1

 50
69.333333
  7
BIGFONT
100
AcDbText
  0
TEXT
  5
27FB299A
100
AcDbEntity
  8
ZI05
100
AcDbText
 10
3372.305679
 20
439.320587
 30
0.0
 40
6.0
  1

 50
86.666667
  7
BIGFONT
100
AcDbText
  0
TEXT
  5
27FB299B
100
AcDbEntity
  8
ZI05
100
AcDbText
 10
3362.898999
 20
467.70835
 30
0.0
 40
6.0
  1

 50
130.0
  7
BIGFONT
100
AcDbText
  0
TEXT
  5
27FB299C
100
AcDbEntity
  8
DIM
100
AcDbText
 10
3446.731716
 20
388.665354
 30
0.0
 40
6.0
  1

  7
BIGFONT
100
AcDbText
  0
TEXT
  5
27FB299D
100
AcDbEntity
  8
DIM
100
AcDbText
 10
3476.731716
 20
388.665354
 30
0.0
 40
6.0
  1

  7
BIGFONT
100
AcDbText
  0
TEXT
  5
27FB299E
100
AcDbEntity
  8
DIM
100
AcDbText
 10
3488.731716
 20
388.665354
 30
0.0
 40
6.0
  1

  7
BIGFONT
100
AcDbText
  0
TEXT
  5
27FB299F
100
AcDbEntity
  8
ZI05
100
AcDbText
 10
4020.879334
 20
417.35334
 30
0.0
 40
6.0
  1

 50
26.0
  7
BIGFONT
100
AcDbText
  0
TEXT
  5
27FB29A0
100
AcDbEntity
  8
ZI05
100
AcDbText
 10
4041.019108
 20
439.460811
 30
0.0
 40
6.0
  1

 50
69.333333
  7
BIGFONT
100
AcDbText
  0
TEXT
  5
27FB29A1
100
AcDbEntity
  8
ZI05
100
AcDbText
 10
4043.556783
 20
451.399633
 30
0.0
 40
6.0
  1

 50
86.666667
  7
BIGFONT
100
AcDbText
  0
TEXT
  5
27FB29A2
100
AcDbEntity
  8
ZI05
100
AcDbText
 10
4034.150102
 20
479.787397
 30
0.0
 40
6.0
  1

 50
130.0
  7
BIGFONT
100
AcDbText
  0
TEXT
  5
27FB29A3
100
AcDbEntity
  8
ZI05
100
AcDbText
 10
4020.584962
 20
553.860878
 30
0.0
 40
6.0
  1

 50
26.0
  7
BIGFONT
100
AcDbText
  0
TEXT
  5
27FB29A4
100
AcDbEntity
  8
ZI05
100
AcDbText
 10
4040.724736
 20
575.968349
 30
0.0
 40
6.0
  1

 50
69.333333
  7
BIGFONT
100
AcDbText
  0
TEXT
  5
27FB29A5
100
AcDbEntity
  8
ZI05
100
AcDbText
 10
4043.262411
 20
587.907171
 30
0.0
 40
6.0
  1

 50
86.666667
  7
BIGFONT
100
AcDbText
  0
TEXT
  5
27FB29A6
100
AcDbEntity
  8
ZI05
100
AcDbText
 10
4033.855731
 20
616.294935
 30
0.0
 40
6.0
  1

 50
130.0
  7
BIGFONT
100
AcDbText
  0
TEXT
  5
27FB29A7
100
AcDbEntity
  8
DIM
100
AcDbText
 10
4117.688448
 20
537.251938
 30
0.0
 40
6.0
  1

  7
BIGFONT
100
AcDbText
  0
TEXT
  5
27FB29A8
100
AcDbEntity
  8
DIM
100
AcDbText
 10
4147.688448
 20
537.251938
 30
0.0
 40
6.0
  1

  7
BIGFONT
100
AcDbText
  0
TEXT
  5
27FB29A9
100
AcDbEntity
  8
DIM
100
AcDbText
 10
4159.688448
 20
537.251938
 30
0.0
 40
6.0
  1

  7
BIGFONT
100
AcDbText
  0
TEXT
  5
27FB29AA
100
AcDbEntity
  8
ZI05
100
AcDbText
 10
4691.836066
 20
565.939924
 30
0.0
 40
6.0
  1

 50
26.0
  7
BIGFONT
100
AcDbText
  0
TEXT
  5
27FB29AB
100
AcDbEntity
  8
ZI05
100
AcDbText
 10
4711.97584
 20
588.047395
 30
0.0
 40
6.0
  1

 50
69.333333
  7
BIGFONT
100
AcDbText
  0
TEXT
  5
27FB29AC
100
AcDbEntity
  8
ZI05
100
AcDbText
 10
4714.513515
 20
599.986218
 30
0.0
 40
6.0
  1

 50
86.666667
  7
BIGFONT
100
AcDbText
  0
TEXT
  5
27FB29AD
100
AcDbEntity
  8
ZI05
100
AcDbText
 10
4705.106835
 20
628.373981
 30
0.0
 40
6.0
  1

 50
130.0
  7
BIGFONT
100
AcDbText
  0
TEXT
  5
27FB29AE
100
AcDbEntity
  8
ZI05
100
AcDbText
 10
4786.045097
 20
549.743273
 30
0.0
 40
6.0
  1

 50
26.0
  7
BIGFONT
100
AcDbText
  0
TEXT
  5
27FB29AF
100
AcDbEntity
  8
ZI05
100
AcDbText
 10
4806.184871
 20
571.850744
 30
0.0
 40
6.0
  1

 50
69.333333
  7
BIGFONT
100
AcDbText
  0
TEXT
  5
27FB29B0
100
AcDbEntity
  8
ZI05
100
AcDbText
 10
4808.722546
 20
583.789566
 30
0.0
 40
6.0
  1

 50
86.666667
  7
BIGFONT
100
AcDbText
  0
TEXT
  5
27FB29B1
100
AcDbEntity
  8
ZI05
100
AcDbText
 10
4799.315866
 20
612.17733
 30
0.0
 40
6.0
  1

 50
130.0
  7
BIGFONT
100
AcDbText
  0
TEXT
  5
27FB29B2
100
AcDbEntity
  8
DIM
100
AcDbText
 10
4883.148583
 20
533.134333
 30
0.0
 40
6.0
  1

  7
BIGFONT
100
AcDbText
  0
TEXT
  5
27FB29B3
100
AcDbEntity
  8
DIM
100
AcDbText
 10
4913.148583
 20
533.134333
 30
0.0
 40
6.0
  1

  7
BIGFONT
100
AcDbText
  0
TEXT
  5
27FB29B4
100
AcDbEntity
  8
DIM
100
AcDbText
 10
4925.148583
 20
533.134333
 30
0.0
 40
6.0
  1

  7
BIGFONT
100
AcDbText
  0
TEXT
  5
27FB29B5
100
AcDbEntity
  8
ZI05
100
AcDbText
 10
5457.296201
 20
561.822319
 30
0.0
 40
6.0
  1

 50
26.0
  7
BIGFONT
100
AcDbText
  0
TEXT
  5
27FB29B6
100
AcDbEntity
  8
ZI05
100
AcDbText
 10
5477.435975
 20
583.92979
 30
0.0
 40
6.0
  1

 50
69.333333
  7
BIGFONT
100
AcDbText
  0
TEXT
  5
27FB29B7
100
AcDbEntity
  8
ZI05
100
AcDbText
 10
5479.97365
 20
595.868613
 30
0.0
 40
6.0
  1

 50
86.666667
  7
BIGFONT
100
AcDbText
  0
TEXT
  5
27FB29B8
100
AcDbEntity
  8
ZI05
100
AcDbText
 10
5470.56697
 20
624.256377
 30
0.0
 40
6.0
  1

 50
130.0
  7
BIGFONT
100
AcDbText
  0
TEXT
  5
27FB29B9
100
AcDbEntity
  8
ZI05
100
AcDbText
 10
3999.992695
 20
553.087789
 30
0.0
 40
6.0
  1

 50
26.0
  7
BIGFONT
100
AcDbText
  0
TEXT
  5
27FB29BA
100
AcDbEntity
  8
ZI05
100
AcDbText
 10
4020.132469
 20
575.19526
 30
0.0
 40
6.0
  1

 50
69.333333
  7
BIGFONT
100
AcDbText
  0
TEXT
  5
27FB29BB
100
AcDbEntity
  8
ZI05
100
AcDbText
 10
4022.670144
 20
587.134082
 30
0.0
 40
6.0
  1

 50
86.666667
  7
BIGFONT
100
AcDbText
  0
TEXT
  5
27FB29BC
100
AcDbEntity
  8
ZI05
100
AcDbText
 10
4013.263464
 20
615.521846
 30
0.0
 40
6.0
  1

 50
130.0
  7
BIGFONT
100
AcDbText
  0
TEXT
  5
27FB29BD
100
AcDbEntity
  8
DIM
100
AcDbText
 10
4097.096181
 20
536.478849
 30
0.0
 40
6.0
  1

  7
BIGFONT
100
AcDbText
  0
TEXT
  5
27FB29BE
100
AcDbEntity
  8
DIM
100
AcDbText
 10
4127.096181
 20
536.478849
 30
0.0
 40
6.0
  1

  7
BIGFONT
100
AcDbText
  0
TEXT
  5
27FB29BF
100
AcDbEntity
  8
DIM
100
AcDbText
 10
4139.096181
 20
536.478849
 30
0.0
 40
6.0
  1

  7
BIGFONT
100
AcDbText
  0
TEXT
  5
27FB29C0
100
AcDbEntity
  8
ZI05
100
AcDbText
 10
4671.243799
 20
565.166835
 30
0.0
 40
6.0
  1

 50
26.0
  7
BIGFONT
100
AcDbText
  0
TEXT
  5
27FB29C1
100
AcDbEntity
  8
ZI05
100
AcDbText
 10
4691.383573
 20
587.274306
 30
0.0
 40
6.0
  1

 50
69.333333
  7
BIGFONT
100
AcDbText
  0
TEXT
  5
27FB29C2
100
AcDbEntity
  8
ZI05
100
AcDbText
 10
4693.921248
 20
599.213129
 30
0.0
 40
6.0
  1

 50
86.666667
  7
BIGFONT
100
AcDbText
  0
TEXT
  5
27FB29C3
100
AcDbEntity
  8
ZI05
100
AcDbText
 10
4684.514567
 20
627.600893
 30
0.0
 40
6.0
  1

 50
130.0
  7
BIGFONT
100
AcDbText
  0
TEXT
  5
27FB29CB
100
AcDbEntity
  8
DIM
100
AcDbText
 10
901.153733
 20
431.522754
 30
0.0
 40
6.0
  1

  7
BIGFONT
100
AcDbText
  0
TEXT
  5
27FB29CC
100
AcDbEntity
  8
DIM
100
AcDbText
 10
931.153733
 20
431.522754
 30
0.0
 40
6.0
  1

  7
BIGFONT
100
AcDbText
  0
TEXT
  5
27FB29CD
100
AcDbEntity
  8
DIM
100
AcDbText
 10
943.153733
 20
431.522754
 30
0.0
 40
6.0
  1

  7
BIGFONT
100
AcDbText
  0
TEXT
  5
27FB29CE
100
AcDbEntity
  8
ZI05
100
AcDbText
 10
1475.301351
 20
460.21074
 30
0.0
 40
6.0
  1

 50
26.0
  7
BIGFONT
100
AcDbText
  0
TEXT
  5
27FB29CF
100
AcDbEntity
  8
ZI05
100
AcDbText
 10
1495.441125
 20
482.318211
 30
0.0
 40
6.0
  1

 50
69.333333
  7
BIGFONT
100
AcDbText
  0
TEXT
  5
27FB29D0
100
AcDbEntity
  8
ZI05
100
AcDbText
 10
1497.9788
 20
494.257034
 30
0.0
 40
6.0
  1

 50
86.666667
  7
BIGFONT
100
AcDbText
  0
TEXT
  5
27FB29D1
100
AcDbEntity
  8
ZI05
100
AcDbText
 10
1488.57212
 20
522.644798
 30
0.0
 40
6.0
  1

 50
130.0
  7
BIGFONT
100
AcDbText
  0
TEXT
  5
27FB29D2
100
AcDbEntity
  8
DIM
100
AcDbText
 10
911.938219
 20
822.656444
 30
0.0
 40
6.0
  1

  7
BIGFONT
100
AcDbText
  0
TEXT
  5
27FB29D3
100
AcDbEntity
  8
DIM
100
AcDbText
 10
941.938219
 20
822.656444
 30
0.0
 40
6.0
  1

  7
BIGFONT
100
AcDbText
  0
TEXT
  5
27FB29D4
100
AcDbEntity
  8
DIM
100
AcDbText
 10
953.938219
 20
822.656444
 30
0.0
 40
6.0
  1

  7
BIGFONT
100
AcDbText
  0
TEXT
  5
27FB29D5
100
AcDbEntity
  8
ZI05
100
AcDbText
 10
1486.085837
 20
851.34443
 30
0.0
 40
6.0
  1

 50
26.0
  7
BIGFONT
100
AcDbText
  0
TEXT
  5
27FB29D6
100
AcDbEntity
  8
ZI05
100
AcDbText
 10
1506.225611
 20
873.451901
 30
0.0
 40
6.0
  1

 50
69.333333
  7
BIGFONT
100
AcDbText
  0
TEXT
  5
27FB29D7
100
AcDbEntity
  8
ZI05
100
AcDbText
 10
1508.763286
 20
885.390723
 30
0.0
 40
6.0
  1

 50
86.666667
  7
BIGFONT
100
AcDbText
  0
TEXT
  5
27FB29D8
100
AcDbEntity
  8
ZI05
100
AcDbText
 10
1499.356606
 20
913.778487
 30
0.0
 40
6.0
  1

 50
130.0
  7
BIGFONT
100
AcDbText
  0
TEXT
  5
2A02A1D1
100
AcDbEntity
  8
ZI05
100
AcDbText
 10
1877.148219
 20
233.884293
 30
0.0
 40
6.0
  1

 50
26.0
  7
BIGFONT
100
AcDbText
  0
TEXT
  5
2A02A1D2
100
AcDbEntity
  8
ZI05
100
AcDbText
 10
1897.287993
 20
255.991764
 30
0.0
 40
6.0
  1

 50
69.333333
  7
BIGFONT
100
AcDbText
  0
TEXT
  5
2A02A1D3
100
AcDbEntity
  8
ZI05
100
AcDbText
 10
1899.825668
 20
267.930586
 30
0.0
 40
6.0
  1

 50
86.666667
  7
BIGFONT
100
AcDbText
  0
TEXT
  5
2A02A1D4
100
AcDbEntity
  8
ZI05
100
AcDbText
 10
1890.418987
 20
296.31835
 30
0.0
 40
6.0
  1

 50
130.0
  7
BIGFONT
100
AcDbText
  0
TEXT
  5
2A02A1D5
100
AcDbEntity
  8
DIM
100
AcDbText
 10
1974.251705
 20
217.275353
 30
0.0
 40
6.0
  1

  7
BIGFONT
100
AcDbText
  0
TEXT
  5
2A02A1D6
100
AcDbEntity
  8
DIM
100
AcDbText
 10
2004.251705
 20
217.275353
 30
0.0
 40
6.0
  1

  7
BIGFONT
100
AcDbText
  0
TEXT
  5
2A02A1D7
100
AcDbEntity
  8
DIM
100
AcDbText
 10
2016.251705
 20
217.275353
 30
0.0
 40
6.0
  1

  7
BIGFONT
100
AcDbText
  0
TEXT
  5
2A02A1D8
100
AcDbEntity
  8
ZI05
100
AcDbText
 10
2548.399323
 20
245.96334
 30
0.0
 40
6.0
  1

 50
26.0
  7
BIGFONT
100
AcDbText
  0
TEXT
  5
2A02A1D9
100
AcDbEntity
  8
ZI05
100
AcDbText
 10
2568.539097
 20
268.070811
 30
0.0
 40
6.0
  1

 50
69.333333
  7
BIGFONT
100
AcDbText
  0
TEXT
  5
2A02A1DA
100
AcDbEntity
  8
ZI05
100
AcDbText
 10
2571.076772
 20
280.009633
 30
0.0
 40
6.0
  1

 50
86.666667
  7
BIGFONT
100
AcDbText
  0
TEXT
  5
2A02A1DB
100
AcDbEntity
  8
ZI05
100
AcDbText
 10
2561.670091
 20
308.397397
 30
0.0
 40
6.0
  1

 50
130.0
  7
BIGFONT
100
AcDbText
  0
TEXT
  5
2A02A1DC
100
AcDbEntity
  8
ZI05
100
AcDbText
 10
1091.095817
 20
237.228809
 30
0.0
 40
6.0
  1

 50
26.0
  7
BIGFONT
100
AcDbText
  0
TEXT
  5
2A02A1DD
100
AcDbEntity
  8
ZI05
100
AcDbText
 10
1111.235591
 20
259.33628
 30
0.0
 40
6.0
  1

 50
69.333333
  7
BIGFONT
100
AcDbText
  0
TEXT
  5
2A02A1DE
100
AcDbEntity
  8
ZI05
100
AcDbText
 10
1113.773266
 20
271.275102
 30
0.0
 40
6.0
  1

 50
86.666667
  7
BIGFONT
100
AcDbText
  0
TEXT
  5
2A02A1DF
100
AcDbEntity
  8
ZI05
100
AcDbText
 10
1104.366585
 20
299.662866
 30
0.0
 40
6.0
  1

 50
130.0
  7
BIGFONT
100
AcDbText
  0
TEXT
  5
2A02A1E3
100
AcDbEntity
  8
DIM
100
AcDbText
 10
1188.199303
 20
220.619869
 30
0.0
 40
6.0
  1

  7
BIGFONT
100
AcDbText
  0
TEXT
  5
2A02A1E4
100
AcDbEntity
  8
DIM
100
AcDbText
 10
1218.199303
 20
220.619869
 30
0.0
 40
6.0
  1

  7
BIGFONT
100
AcDbText
  0
TEXT
  5
2A02A1E5
100
AcDbEntity
  8
DIM
100
AcDbText
 10
1230.199303
 20
220.619869
 30
0.0
 40
6.0
  1

  7
BIGFONT
100
AcDbText
  0
TEXT
  5
2A02A1E6
100
AcDbEntity
  8
ZI05
100
AcDbText
 10
1762.34692
 20
249.307856
 30
0.0
 40
6.0
  1

 50
26.0
  7
BIGFONT
100
AcDbText
  0
TEXT
  5
2A02A1E7
100
AcDbEntity
  8
ZI05
100
AcDbText
 10
1782.486694
 20
271.415327
 30
0.0
 40
6.0
  1

 50
69.333333
  7
BIGFONT
100
AcDbText
  0
TEXT
  5
2A02A1E8
100
AcDbEntity
  8
ZI05
100
AcDbText
 10
1785.024369
 20
283.354149
 30
0.0
 40
6.0
  1

 50
86.666667
  7
BIGFONT
100
AcDbText
  0
TEXT
  5
2A02A1E9
100
AcDbEntity
  8
ZI05
100
AcDbText
 10
1775.617689
 20
311.741913
 30
0.0
 40
6.0
  1

 50
130.0
  7
BIGFONT
100
AcDbText
  0
LINE
  5
2A02A264
100
AcDbEntity
  8
CENTR
  6
CENTER
100
AcDbLine
 10
332.501935
 20
298.21224
 30
0.0
 11
364.501935
 21
298.21224
 31
0.0
  0
LINE
  5
2A02A265
100
AcDbEntity
  8
CENTR
  6
CENTER
100
AcDbLine
 10
348.501935
 20
250.71224
 30
0.0
 11
348.501935
 21
281.71224
 31
0.0
  0
LINE
  5
2A02A268
100
AcDbEntity
  8
CENTR
  6
CENTER
100
AcDbLine
 10
438.253846
 20
244.239941
 30
0.0
 11
438.253846
 21
345.71224
 31
0.0
  0
LINE
  5
2A02A269
100
AcDbEntity
  8
CENTR
  6
CENTER
100
AcDbLine
 10
390.753846
 20
298.21224
 30
0.0
 11
485.753846
 21
298.21224
 31
0.0
  0
LINE
  5
2A02A496
100
AcDbEntity
  8
CENTR
  6
CENTER
100
AcDbLine
 10
333.001935
 20
266.21224
 30
0.0
 11
364.001935
 21
266.21224
 31
0.0
  0
ARC
  5
2A02AEFA
100
AcDbEntity
  8
0
100
AcDbCircle
 10
438.253846
 20
298.21224
 30
0.0
 40
25.0
100
AcDbArc
 50
273.439813
 51
266.560187
  0
ARC
  5
2A02AEFB
100
AcDbEntity
  8
0
100
AcDbCircle
 10
438.253846
 20
298.21224
 30
0.0
 40
42.5
100
AcDbArc
 50
272.022624
 51
267.977376
  0
ARC
  5
2A02AEFD
100
AcDbEntity
  8
0
100
AcDbCircle
 10
438.253846
 20
298.21224
 30
0.0
 40
41.5
100
AcDbArc
 50
272.071383
 51
267.928617
  0
ARC
  5
2A02AEFE
100
AcDbEntity
  8
0
100
AcDbCircle
 10
438.253846
 20
298.21224
 30
0.0
 40
26.0
100
AcDbArc
 50
273.307362
 51
266.692638
  0
LINE
  5
2A02AF00
100
AcDbEntity
  8
CENTR
  6
CENTER
100
AcDbLine
 10
403.150427
 20
266.21224
 30
0.0
 11
473.357265
 21
266.21224
 31
0.0
  0
LINE
  5
2A02AF02
100
AcDbEntity
  8
0
100
AcDbLine
 10
436.753846
 20
255.738719
 30
0.0
 11
436.753846
 21
273.257281
 31
0.0
  0
LINE
  5
2A02AF04
100
AcDbEntity
  8
0
100
AcDbLine
 10
439.753846
 20
273.257281
 30
0.0
 11
439.753846
 21
255.738719
 31
0.0
  0
LINE
  5
2A02AF05
100
AcDbEntity
  8
0
100
AcDbLine
 10
337.501935
 20
256.71224
 30
0.0
 11
337.501935
 21
339.71224
 31
0.0
  0
LINE
  5
2A02AF06
100
AcDbEntity
  8
0
100
AcDbLine
 10
358.501935
 20
340.71224
 30
0.0
 11
338.501935
 21
340.71224
 31
0.0
  0
LINE
  5
2A02AF07
100
AcDbEntity
  8
0
100
AcDbLine
 10
338.501935
 20
340.71224
 30
0.0
 11
337.501935
 21
339.71224
 31
0.0
  0
LINE
  5
2A02AF08
100
AcDbEntity
  8
0
100
AcDbLine
 10
338.501935
 20
340.71224
 30
0.0
 11
338.501935
 21
255.71224
 31
0.0
  0
LINE
  5
2A02AF09
100
AcDbEntity
  8
0
100
AcDbLine
 10
358.501935
 20
340.71224
 30
0.0
 11
359.501935
 21
339.71224
 31
0.0
  0
LINE
  5
2A02AF0A
100
AcDbEntity
  8
0
100
AcDbLine
 10
358.501935
 20
340.71224
 30
0.0
 11
358.501935
 21
255.71224
 31
0.0
  0
LINE
  5
2A02AF0B
100
AcDbEntity
  8
0
100
AcDbLine
 10
359.501935
 20
256.71224
 30
0.0
 11
359.501935
 21
339.71224
 31
0.0
  0
LINE
  5
2A02AF0E
100
AcDbEntity
  8
0
100
AcDbLine
 10
358.501935
 20
255.71224
 30
0.0
 11
338.501935
 21
255.71224
 31
0.0
  0
LINE
  5
2A02AF0F
100
AcDbEntity
  8
0
100
AcDbLine
 10
338.501935
 20
255.71224
 30
0.0
 11
337.501935
 21
256.71224
 31
0.0
  0
LINE
  5
2A02AF10
100
AcDbEntity
  8
0
100
AcDbLine
 10
358.501935
 20
255.71224
 30
0.0
 11
359.501935
 21
256.71224
 31
0.0
  0
ARC
  5
2A02AF1E
100
AcDbEntity
  8
0
100
AcDbCircle
 10
348.501935
 20
266.21224
 30
0.0
 40
9.0
100
AcDbArc
 50
0.0
 51
180.0
  0
LINE
  5
2A02AF1F
100
AcDbEntity
  8
CENTR
  6
HIDDEN2
 62
     3
100
AcDbLine
 10
456.333671
 20
271.21224
 30
0.0
 11
471.075333
 21
271.21224
 31
0.0
  0
LINE
  5
2A02AF21
100
AcDbEntity
  8
0
  6
HIDDEN2
100
AcDbLine
 10
402.515211
 20
275.21224
 30
0.0
 11
422.253846
 21
275.21224
 31
0.0
  0
LINE
  5
2A02AF22
100
AcDbEntity
  8
CENTR
  6
HIDDEN2
 62
     3
100
AcDbLine
 10
456.333671
 20
261.21224
 30
0.0
 11
459.16437
 21
261.21224
 31
0.0
  0
LINE
  5
2A02AF25
100
AcDbEntity
  8
0
  6
HIDDEN2
100
AcDbLine
 10
422.253846
 20
258.21224
 30
0.0
 11
422.253846
 21
275.21224
 31
0.0
  0
LINE
  5
2A02AF27
100
AcDbEntity
  8
0
  6
HIDDEN2
100
AcDbLine
 10
422.253846
 20
271.71224
 30
0.0
 11
436.753846
 21
271.71224
 31
0.0
  0
LINE
  5
2A02AF28
100
AcDbEntity
  8
0
  6
HIDDEN2
100
AcDbLine
 10
422.253846
 20
260.71224
 30
0.0
 11
436.753846
 21
260.71224
 31
0.0
  0
LINE
  5
2A02AF2E
100
AcDbEntity
  8
0
  6
HIDDEN2
100
AcDbLine
 10
358.501935
 20
323.21224
 30
0.0
 11
338.501935
 21
323.21224
 31
0.0
  0
LINE
  5
2A02AF2F
100
AcDbEntity
  8
0
  6
HIDDEN2
100
AcDbLine
 10
358.501935
 20
323.21224
 30
0.0
 11
359.501935
 21
324.21224
 31
0.0
  0
LINE
  5
2A02AF30
100
AcDbEntity
  8
0
  6
HIDDEN2
100
AcDbLine
 10
338.501935
 20
323.21224
 30
0.0
 11
337.501935
 21
324.21224
 31
0.0
  0
LINE
  5
2A02AF31
100
AcDbEntity
  8
0
  6
HIDDEN2
100
AcDbLine
 10
358.501935
 20
273.21224
 30
0.0
 11
338.501935
 21
273.21224
 31
0.0
  0
LINE
  5
2A02AF32
100
AcDbEntity
  8
0
  6
HIDDEN2
100
AcDbLine
 10
338.501935
 20
273.21224
 30
0.0
 11
337.501935
 21
272.21224
 31
0.0
  0
LINE
  5
2A02AF33
100
AcDbEntity
  8
0
  6
HIDDEN2
100
AcDbLine
 10
358.501935
 20
273.21224
 30
0.0
 11
359.501935
 21
272.21224
 31
0.0
  0
LINE
  5
2A02AF34
100
AcDbEntity
  8
0
100
AcDbLine
 10
357.501935
 20
258.839026
 30
0.0
 11
351.62608
 21
258.839026
 31
0.0
  0
LINE
  5
2A02AF36
100
AcDbEntity
  8
0
100
AcDbLine
 10
339.501935
 20
266.21224
 30
0.0
 11
339.501935
 21
258.839026
 31
0.0
  0
LINE
  5
2A02AF37
100
AcDbEntity
  8
0
100
AcDbLine
 10
357.501935
 20
266.21224
 30
0.0
 11
357.501935
 21
258.839026
 31
0.0
  0
LINE
  5
2A02B160
100
AcDbEntity
  8
0
100
AcDbLine
 10
297.97589
 20
257.139374
 30
0.0
 11
297.97589
 21
272.639374
 31
0.0
  0
LINE
  5
2A02B163
100
AcDbEntity
  8
0
100
AcDbLine
 10
275.97589
 20
257.139374
 30
0.0
 11
275.97589
 21
272.639374
 31
0.0
  0
LINE
  5
2A02B165
100
AcDbEntity
  8
CENTR
  6
CENTER
100
AcDbLine
 10
286.97589
 20
251.139374
 30
0.0
 11
286.97589
 21
282.139374
 31
0.0
  0
LINE
  5
2A02B167
100
AcDbEntity
  8
0
100
AcDbLine
 10
296.97589
 20
273.639374
 30
0.0
 11
276.97589
 21
273.639374
 31
0.0
  0
LINE
  5
2A02B169
100
AcDbEntity
  8
0
100
AcDbLine
 10
296.97589
 20
256.139374
 30
0.0
 11
276.97589
 21
256.139374
 31
0.0
  0
LINE
  5
2A02B16A
100
AcDbEntity
  8
CENTR
  6
CENTER
100
AcDbLine
 10
271.47589
 20
266.639374
 30
0.0
 11
302.47589
 21
266.639374
 31
0.0
  0
LINE
  5
2A02B16B
100
AcDbEntity
  8
0
  6
HIDDEN2
100
AcDbLine
 10
276.97589
 20
273.639374
 30
0.0
 11
275.97589
 21
272.639374
 31
0.0
  0
LINE
  5
2A02B16C
100
AcDbEntity
  8
0
100
AcDbLine
 10
276.97589
 20
256.139374
 30
0.0
 11
275.97589
 21
257.139374
 31
0.0
  0
CIRCLE
  5
2A02B16D
100
AcDbEntity
  8
0
100
AcDbCircle
 10
286.97589
 20
266.639374
 30
0.0
 40
5.0
  0
CIRCLE
  5
2A02B16E
100
AcDbEntity
  8
0
100
AcDbCircle
 10
286.97589
 20
266.639374
 30
0.0
 40
5.5
  0
CIRCLE
  5
2A02B16F
100
AcDbEntity
  8
0
 62
     3
100
AcDbCircle
 10
286.97589
 20
266.639374
 30
0.0
 40
4.188
  0
LINE
  5
2A02B172
100
AcDbEntity
  8
0
100
AcDbLine
 10
296.97589
 20
256.139374
 30
0.0
 11
297.97589
 21
257.139374
 31
0.0
  0
LINE
  5
2A02B173
100
AcDbEntity
  8
0
  6
HIDDEN2
100
AcDbLine
 10
296.97589
 20
273.639374
 30
0.0
 11
297.97589
 21
272.639374
 31
0.0
  0
LINE
  5
2A02B174
100
AcDbEntity
  8
0
100
AcDbLine
 10
296.97589
 20
323.639374
 30
0.0
 11
276.97589
 21
323.639374
 31
0.0
  0
LINE
  5
2A02B175
100
AcDbEntity
  8
CENTR
  6
CENTER
100
AcDbLine
 10
270.97589
 20
298.639374
 30
0.0
 11
302.97589
 21
298.639374
 31
0.0
  0
LINE
  5
2A02B176
100
AcDbEntity
  8
0
  6
HIDDEN2
100
AcDbLine
 10
276.97589
 20
323.639374
 30
0.0
 11
275.97589
 21
324.639374
 31
0.0
  0
LINE
  5
2A02B177
100
AcDbEntity
  8
0
  6
HIDDEN2
100
AcDbLine
 10
296.97589
 20
323.639374
 30
0.0
 11
297.97589
 21
324.639374
 31
0.0
  0
LINE
  5
2A02B178
100
AcDbEntity
  8
0
100
AcDbLine
 10
296.97589
 20
341.139374
 30
0.0
 11
276.97589
 21
341.139374
 31
0.0
  0
LINE
  5
2A02B179
100
AcDbEntity
  8
0
100
AcDbLine
 10
276.97589
 20
341.139374
 30
0.0
 11
275.97589
 21
340.139374
 31
0.0
  0
LINE
  5
2A02B17A
100
AcDbEntity
  8
0
100
AcDbLine
 10
296.97589
 20
341.139374
 30
0.0
 11
297.97589
 21
340.139374
 31
0.0
  0
POINT
  5
2A02B1E6
100
AcDbEntity
  8
0
 60
     1
100
AcDbPoint
 10
519.717566
 20
364.682565
 30
0.0
 50
90.0
1001
GENIUS_GENOBJ-NBEHI-BHF_13
1002
{
1000
OWNER
1000
GENBEHI
1002
}
1001
GENIUS_GENOENT_13
1002
{
1000
MYREF
1005
2A02B1E6
1002
}
1002
{
1000
GRP
1005
0
1002
}
1001
GENIUS_GENOLIS_13
1002
{
1000
ENT
1005
0
1002
}
1001
GENIUS_GENBH_13
1002
{
1000
OIUMAP
1000
OIU
1002
}
1002
{
1000
FLAGS
1070
    32
1002
}
1002
{
1000
BGO
1005
2A02B1E7
1002
}
1001
GENIUS_GENODEF_13
1002
{
1000
HIER
1070
     1
1002
}
1002
{
1000
MANEDIT
1070
     1
1002
}
1002
{
1000
NOSEL
1070
     1
1002
}
1002
{
1000
BEHIND
1070
     0
1002
}
1002
{
1000
REACTOR
1002
}
  0
POINT
  5
2A02B1E7
100
AcDbEntity
  8
0
 60
     1
100
AcDbPoint
 10
519.717566
 20
364.682565
 30
0.0
 50
90.0
1001
GENIUS_GENOBJ-NBEHI-BHB_13
1002
{
1000
OWNER
1000
GENBEHI
1002
}
1001
GENIUS_GENOENT_13
1002
{
1000
MYREF
1005
2A02B1E7
1002
}
1002
{
1000
GRP
1005
0
1002
}
1001
GENIUS_GENOLIS_13
1002
{
1000
ENT
1002
}
1001
GENIUS_GENODEF_13
1002
{
1000
HIER
1070
     1
1002
}
1002
{
1000
MANEDIT
1070
     0
1002
}
1002
{
1000
NOSEL
1070
     1
1002
}
1002
{
1000
BEHIND
1070
     0
1002
}
1002
{
1000
REACTOR
1002
}
1002
{
1000
OTHER
1070
     1
1002
}
1001
GENIUS_GENBH_13
1002
{
1000
FGO
1005
2A02B1E6
1002
}
  0
POINT
  5
2A02B1E8
100
AcDbEntity
  8
0
 60
     1
100
AcDbPoint
 10
519.717566
 20
364.682565
 30
0.0
 50
90.0
1001
GENIUS_GENOBJ-NBEHI-BHF_13
1002
{
1000
OWNER
1000
GENBEHI
1002
}
1001
GENIUS_GENOENT_13
1002
{
1000
MYREF
1005
2A02B1E8
1002
}
1002
{
1000
GRP
1005
0
1002
}
1001
GENIUS_GENOLIS_13
1002
{
1000
ENT
1005
0
1002
}
1001
GENIUS_GENODEF_13
1002
{
1000
HIER
1070
     1
1002
}
1002
{
1000
MANEDIT
1070
     0
1002
}
1002
{
1000
NOSEL
1070
     1
1002
}
1002
{
1000
BEHIND
1070
     0
1002
}
1002
{
1000
REACTOR
1002
}
1001
GENIUS_GENBH_13
1002
{
1000
OIUMAP
1000
OIU
1002
}
1002
{
1000
FLAGS
1070
    32
1002
}
1002
{
1000
BGO
1005
2A02B1E9
1002
}
  0
POINT
  5
2A02B1E9
100
AcDbEntity
  8
0
 60
     1
100
AcDbPoint
 10
519.717566
 20
364.682565
 30
0.0
 50
90.0
1001
GENIUS_GENOBJ-NBEHI-BHB_13
1002
{
1000
OWNER
1000
GENBEHI
1002
}
1001
GENIUS_GENOENT_13
1002
{
1000
MYREF
1005
2A02B1E9
1002
}
1002
{
1000
GRP
1005
0
1002
}
1001
GENIUS_GENOLIS_13
1002
{
1000
ENT
1002
}
1001
GENIUS_GENODEF_13
1002
{
1000
HIER
1070
     1
1002
}
1002
{
1000
MANEDIT
1070
     0
1002
}
1002
{
1000
NOSEL
1070
     1
1002
}
1002
{
1000
BEHIND
1070
     0
1002
}
1002
{
1000
REACTOR
1002
}
1002
{
1000
OTHER
1070
     1
1002
}
1001
GENIUS_GENBH_13
1002
{
1000
FGO
1005
2A02B1E8
1002
}
  0
POINT
  5
2A02B1EA
100
AcDbEntity
  8
0
 60
     1
100
AcDbPoint
 10
519.717566
 20
364.682565
 30
0.0
 50
90.0
1001
GENIUS_GENOBJ-NBEHI-BHF_13
1002
{
1000
OWNER
1000
GENBEHI
1002
}
1001
GENIUS_GENOENT_13
1002
{
1000
MYREF
1005
2A02B1EA
1002
}
1002
{
1000
GRP
1005
0
1002
}
1001
GENIUS_GENOLIS_13
1002
{
1000
ENT
1005
0
1002
}
1001
GENIUS_GENBH_13
1002
{
1000
OIUMAP
1000
OIU
1002
}
1002
{
1000
FLAGS
1070
    32
1002
}
1002
{
1000
BGO
1005
2A02B1EB
1002
}
1001
GENIUS_GENODEF_13
1002
{
1000
HIER
1070
     1
1002
}
1002
{
1000
MANEDIT
1070
     1
1002
}
1002
{
1000
NOSEL
1070
     1
1002
}
1002
{
1000
BEHIND
1070
     0
1002
}
1002
{
1000
REACTOR
1002
}
  0
POINT
  5
2A02B1EB
100
AcDbEntity
  8
0
 60
     1
100
AcDbPoint
 10
519.717566
 20
364.682565
 30
0.0
 50
90.0
1001
GENIUS_GENOBJ-NBEHI-BHB_13
1002
{
1000
OWNER
1000
GENBEHI
1002
}
1001
GENIUS_GENOENT_13
1002
{
1000
MYREF
1005
2A02B1EB
1002
}
1002
{
1000
GRP
1005
0
1002
}
1001
GENIUS_GENOLIS_13
1002
{
1000
ENT
1002
}
1001
GENIUS_GENODEF_13
1002
{
1000
HIER
1070
     1
1002
}
1002
{
1000
MANEDIT
1070
     0
1002
}
1002
{
1000
NOSEL
1070
     1
1002
}
1002
{
1000
BEHIND
1070
     0
1002
}
1002
{
1000
REACTOR
1002
}
1002
{
1000
OTHER
1070
     1
1002
}
1001
GENIUS_GENBH_13
1002
{
1000
FGO
1005
2A02B1EA
1002
}
  0
POINT
  5
2A02B1EC
100
AcDbEntity
  8
0
 60
     1
100
AcDbPoint
 10
519.717566
 20
364.682565
 30
0.0
 50
90.0
1001
GENIUS_GENOBJ-F-SCPASSM_13
1002
{
1000
OWNER
1000
GEF
1002
}
1001
GENIUS_GENOENT_13
1002
{
1000
MYREF
1005
2A02B1EC
1002
}
1002
{
1000
GRP
1005
0
1002
}
1001
GENIUS_GENOLIS_13
1002
{
1000
ENT
1005
0
1005
0
1002
}
1001
GENIUS_GENODEF_13
1002
{
1000
HIER
1070
   200
1002
}
1002
{
1000
MANEDIT
1070
     1
1002
}
1002
{
1000
NOSEL
1070
     0
1002
}
1002
{
1000
BEHIND
1070
     0
1002
}
1002
{
1000
REACTOR
1002
}
  0
POINT
  5
2A02B1ED
100
AcDbEntity
  8
0
 60
     1
100
AcDbPoint
 10
519.717566
 20
364.682565
 30
0.0
 50
90.0
1001
GENIUS_GENOBJ-NBEHI-BHF_13
1002
{
1000
OWNER
1000
GENBEHI
1002
}
1001
GENIUS_GENOENT_13
1002
{
1000
MYREF
1005
2A02B1ED
1002
}
1002
{
1000
GRP
1005
0
1002
}
1001
GENIUS_GENOLIS_13
1002
{
1000
ENT
1005
0
1002
}
1001
GENIUS_GENODEF_13
1002
{
1000
HIER
1070
     1
1002
}
1002
{
1000
MANEDIT
1070
     0
1002
}
1002
{
1000
NOSEL
1070
     1
1002
}
1002
{
1000
BEHIND
1070
     0
1002
}
1002
{
1000
REACTOR
1002
}
1001
GENIUS_GENBH_13
1002
{
1000
OIUMAP
1000
OIU
1002
}
1002
{
1000
FLAGS
1070
    32
1002
}
1002
{
1000
BGO
1005
2A02B1EE
1002
}
  0
POINT
  5
2A02B1EE
100
AcDbEntity
  8
0
 60
     1
100
AcDbPoint
 10
519.717566
 20
364.682565
 30
0.0
 50
90.0
1001
GENIUS_GENOBJ-NBEHI-BHB_13
1002
{
1000
OWNER
1000
GENBEHI
1002
}
1001
GENIUS_GENOENT_13
1002
{
1000
MYREF
1005
2A02B1EE
1002
}
1002
{
1000
GRP
1005
0
1002
}
1001
GENIUS_GENOLIS_13
1002
{
1000
ENT
1002
}
1001
GENIUS_GENODEF_13
1002
{
1000
HIER
1070
     1
1002
}
1002
{
1000
MANEDIT
1070
     0
1002
}
1002
{
1000
NOSEL
1070
     1
1002
}
1002
{
1000
BEHIND
1070
     0
1002
}
1002
{
1000
REACTOR
1002
}
1002
{
1000
OTHER
1070
     1
1002
}
1001
GENIUS_GENBH_13
1002
{
1000
FGO
1005
2A02B1ED
1002
}
  0
POINT
  5
2A02B1EF
100
AcDbEntity
  8
0
 60
     1
100
AcDbPoint
 10
519.717566
 20
364.682565
 30
0.0
 50
90.0
1001
GENIUS_GENOBJ-NBEHI-BHF_13
1002
{
1000
OWNER
1000
GENBEHI
1002
}
1001
GENIUS_GENOENT_13
1002
{
1000
MYREF
1005
2A02B1EF
1002
}
1002
{
1000
GRP
1005
0
1002
}
1001
GENIUS_GENOLIS_13
1002
{
1000
ENT
1005
0
1002
}
1001
GENIUS_GENBH_13
1002
{
1000
OIUMAP
1000
OIU
1002
}
1002
{
1000
FLAGS
1070
    32
1002
}
1002
{
1000
BGO
1005
2A02B1F0
1002
}
1001
GENIUS_GENODEF_13
1002
{
1000
HIER
1070
     1
1002
}
1002
{
1000
MANEDIT
1070
     1
1002
}
1002
{
1000
NOSEL
1070
     1
1002
}
1002
{
1000
BEHIND
1070
     0
1002
}
1002
{
1000
REACTOR
1002
}
  0
POINT
  5
2A02B1F0
100
AcDbEntity
  8
0
 60
     1
100
AcDbPoint
 10
519.717566
 20
364.682565
 30
0.0
 50
90.0
1001
GENIUS_GENOBJ-NBEHI-BHB_13
1002
{
1000
OWNER
1000
GENBEHI
1002
}
1001
GENIUS_GENOENT_13
1002
{
1000
MYREF
1005
2A02B1F0
1002
}
1002
{
1000
GRP
1005
0
1002
}
1001
GENIUS_GENOLIS_13
1002
{
1000
ENT
1005
0
1002
}
1001
GENIUS_GENODEF_13
1002
{
1000
HIER
1070
     1
1002
}
1002
{
1000
MANEDIT
1070
     0
1002
}
1002
{
1000
NOSEL
1070
     1
1002
}
1002
{
1000
BEHIND
1070
     0
1002
}
1002
{
1000
REACTOR
1002
}
1002
{
1000
OTHER
1070
     1
1002
}
1001
GENIUS_GENBH_13
1002
{
1000
FGO
1005
2A02B1EF
1002
}
  0
POINT
  5
2A02B1F1
100
AcDbEntity
  8
0
 60
     1
100
AcDbPoint
 10
519.717566
 20
364.682565
 30
0.0
 50
90.0
1001
GENIUS_GENOBJ-F-SCPASSM_13
1002
{
1000
OWNER
1000
GEF
1002
}
1001
GENIUS_GENOENT_13
1002
{
1000
MYREF
1005
2A02B1F1
1002
}
1002
{
1000
GRP
1005
0
1002
}
1001
GENIUS_GENOLIS_13
1002
{
1000
ENT
1005
0
1005
0
1002
}
1001
GENIUS_GENODEF_13
1002
{
1000
HIER
1070
   200
1002
}
1002
{
1000
MANEDIT
1070
     1
1002
}
1002
{
1000
NOSEL
1070
     0
1002
}
1002
{
1000
BEHIND
1070
     0
1002
}
1002
{
1000
REACTOR
1002
}
  0
POINT
  5
2A02B1F2
100
AcDbEntity
  8
0
 60
     1
100
AcDbPoint
 10
519.717566
 20
364.682565
 30
0.0
 50
90.0
1001
GENIUS_GENOBJ-NBEHI-BHF_13
1002
{
1000
OWNER
1000
GENBEHI
1002
}
1001
GENIUS_GENOENT_13
1002
{
1000
MYREF
1005
2A02B1F2
1002
}
1002
{
1000
GRP
1005
0
1002
}
1001
GENIUS_GENOLIS_13
1002
{
1000
ENT
1005
0
1002
}
1001
GENIUS_GENODEF_13
1002
{
1000
HIER
1070
     1
1002
}
1002
{
1000
MANEDIT
1070
     0
1002
}
1002
{
1000
NOSEL
1070
     1
1002
}
1002
{
1000
BEHIND
1070
     0
1002
}
1002
{
1000
REACTOR
1002
}
1001
GENIUS_GENBH_13
1002
{
1000
OIUMAP
1000
OIU
1002
}
1002
{
1000
FLAGS
1070
    32
1002
}
1002
{
1000
BGO
1005
2A02B1F3
1002
}
  0
POINT
  5
2A02B1F3
100
AcDbEntity
  8
0
 60
     1
100
AcDbPoint
 10
519.717566
 20
364.682565
 30
0.0
 50
90.0
1001
GENIUS_GENOBJ-NBEHI-BHB_13
1002
{
1000
OWNER
1000
GENBEHI
1002
}
1001
GENIUS_GENOENT_13
1002
{
1000
MYREF
1005
2A02B1F3
1002
}
1002
{
1000
GRP
1005
0
1002
}
1001
GENIUS_GENOLIS_13
1002
{
1000
ENT
1002
}
1001
GENIUS_GENODEF_13
1002
{
1000
HIER
1070
     1
1002
}
1002
{
1000
MANEDIT
1070
     0
1002
}
1002
{
1000
NOSEL
1070
     1
1002
}
1002
{
1000
BEHIND
1070
     0
1002
}
1002
{
1000
REACTOR
1002
}
1002
{
1000
OTHER
1070
     1
1002
}
1001
GENIUS_GENBH_13
1002
{
1000
FGO
1005
2A02B1F2
1002
}
  0
POINT
  5
2A02B1F4
100
AcDbEntity
  8
0
 60
     1
100
AcDbPoint
 10
519.717566
 20
364.682565
 30
0.0
 50
90.0
1001
GENIUS_GENOBJ-NBEHI-BHF_13
1002
{
1000
OWNER
1000
GENBEHI
1002
}
1001
GENIUS_GENOENT_13
1002
{
1000
MYREF
1005
2A02B1F4
1002
}
1002
{
1000
GRP
1005
0
1002
}
1001
GENIUS_GENOLIS_13
1002
{
1000
ENT
1005
0
1002
}
1001
GENIUS_GENBH_13
1002
{
1000
OIUMAP
1000
OIU
1002
}
1002
{
1000
FLAGS
1070
    32
1002
}
1002
{
1000
BGO
1005
2A02B1F5
1002
}
1001
GENIUS_GENODEF_13
1002
{
1000
HIER
1070
     1
1002
}
1002
{
1000
MANEDIT
1070
     1
1002
}
1002
{
1000
NOSEL
1070
     1
1002
}
1002
{
1000
BEHIND
1070
     0
1002
}
1002
{
1000
REACTOR
1002
}
  0
POINT
  5
2A02B1F5
100
AcDbEntity
  8
0
 60
     1
100
AcDbPoint
 10
519.717566
 20
364.682565
 30
0.0
 50
90.0
1001
GENIUS_GENOBJ-NBEHI-BHB_13
1002
{
1000
OWNER
1000
GENBEHI
1002
}
1001
GENIUS_GENOENT_13
1002
{
1000
MYREF
1005
2A02B1F5
1002
}
1002
{
1000
GRP
1005
0
1002
}
1001
GENIUS_GENOLIS_13
1002
{
1000
ENT
1005
0
1002
}
1001
GENIUS_GENODEF_13
1002
{
1000
HIER
1070
     1
1002
}
1002
{
1000
MANEDIT
1070
     0
1002
}
1002
{
1000
NOSEL
1070
     1
1002
}
1002
{
1000
BEHIND
1070
     0
1002
}
1002
{
1000
REACTOR
1002
}
1002
{
1000
OTHER
1070
     1
1002
}
1001
GENIUS_GENBH_13
1002
{
1000
FGO
1005
2A02B1F4
1002
}
  0
POINT
  5
2A02B1F6
100
AcDbEntity
  8
0
 60
     1
100
AcDbPoint
 10
519.717566
 20
364.682565
 30
0.0
 50
90.0
1001
GENIUS_GENOBJ-F-SCPASSM_13
1002
{
1000
OWNER
1000
GEF
1002
}
1001
GENIUS_GENOENT_13
1002
{
1000
MYREF
1005
2A02B1F6
1002
}
1002
{
1000
GRP
1005
0
1002
}
1001
GENIUS_GENOLIS_13
1002
{
1000
ENT
1005
0
1005
0
1002
}
1001
GENIUS_GENODEF_13
1002
{
1000
HIER
1070
   200
1002
}
1002
{
1000
MANEDIT
1070
     1
1002
}
1002
{
1000
NOSEL
1070
     0
1002
}
1002
{
1000
BEHIND
1070
     0
1002
}
1002
{
1000
REACTOR
1002
}
  0
POINT
  5
2A02B1F7
100
AcDbEntity
  8
0
 60
     1
100
AcDbPoint
 10
519.717566
 20
364.682565
 30
0.0
 50
90.0
1001
GENIUS_GENOBJ-NBEHI-BHF_13
1002
{
1000
OWNER
1000
GENBEHI
1002
}
1001
GENIUS_GENOENT_13
1002
{
1000
MYREF
1005
2A02B1F7
1002
}
1002
{
1000
GRP
1005
0
1002
}
1001
GENIUS_GENOLIS_13
1002
{
1000
ENT
1005
0
1002
}
1001
GENIUS_GENODEF_13
1002
{
1000
HIER
1070
     1
1002
}
1002
{
1000
MANEDIT
1070
     0
1002
}
1002
{
1000
NOSEL
1070
     1
1002
}
1002
{
1000
BEHIND
1070
     0
1002
}
1002
{
1000
REACTOR
1002
}
1001
GENIUS_GENBH_13
1002
{
1000
OIUMAP
1000
OIU
1002
}
1002
{
1000
FLAGS
1070
    32
1002
}
1002
{
1000
BGO
1005
2A02B1F8
1002
}
  0
POINT
  5
2A02B1F8
100
AcDbEntity
  8
0
 60
     1
100
AcDbPoint
 10
519.717566
 20
364.682565
 30
0.0
 50
90.0
1001
GENIUS_GENOBJ-NBEHI-BHB_13
1002
{
1000
OWNER
1000
GENBEHI
1002
}
1001
GENIUS_GENOENT_13
1002
{
1000
MYREF
1005
2A02B1F8
1002
}
1002
{
1000
GRP
1005
0
1002
}
1001
GENIUS_GENOLIS_13
1002
{
1000
ENT
1002
}
1001
GENIUS_GENODEF_13
1002
{
1000
HIER
1070
     1
1002
}
1002
{
1000
MANEDIT
1070
     0
1002
}
1002
{
1000
NOSEL
1070
     1
1002
}
1002
{
1000
BEHIND
1070
     0
1002
}
1002
{
1000
REACTOR
1002
}
1002
{
1000
OTHER
1070
     1
1002
}
1001
GENIUS_GENBH_13
1002
{
1000
FGO
1005
2A02B1F7
1002
}
  0
POINT
  5
2A02B1F9
100
AcDbEntity
  8
0
 60
     1
100
AcDbPoint
 10
519.717566
 20
364.682565
 30
0.0
 50
90.0
1001
GENIUS_GENOBJ-NBEHI-BHF_13
1002
{
1000
OWNER
1000
GENBEHI
1002
}
1001
GENIUS_GENOENT_13
1002
{
1000
MYREF
1005
2A02B1F9
1002
}
1002
{
1000
GRP
1005
0
1002
}
1001
GENIUS_GENOLIS_13
1002
{
1000
ENT
1005
0
1002
}
1001
GENIUS_GENBH_13
1002
{
1000
OIUMAP
1000
OIU
1002
}
1002
{
1000
FLAGS
1070
    32
1002
}
1002
{
1000
BGO
1005
2A02B1FA
1002
}
1001
GENIUS_GENODEF_13
1002
{
1000
HIER
1070
     1
1002
}
1002
{
1000
MANEDIT
1070
     1
1002
}
1002
{
1000
NOSEL
1070
     1
1002
}
1002
{
1000
BEHIND
1070
     0
1002
}
1002
{
1000
REACTOR
1002
}
  0
POINT
  5
2A02B1FA
100
AcDbEntity
  8
0
 60
     1
100
AcDbPoint
 10
519.717566
 20
364.682565
 30
0.0
 50
90.0
1001
GENIUS_GENOBJ-NBEHI-BHB_13
1002
{
1000
OWNER
1000
GENBEHI
1002
}
1001
GENIUS_GENOENT_13
1002
{
1000
MYREF
1005
2A02B1FA
1002
}
1002
{
1000
GRP
1005
0
1002
}
1001
GENIUS_GENOLIS_13
1002
{
1000
ENT
1005
0
1002
}
1001
GENIUS_GENODEF_13
1002
{
1000
HIER
1070
     1
1002
}
1002
{
1000
MANEDIT
1070
     0
1002
}
1002
{
1000
NOSEL
1070
     1
1002
}
1002
{
1000
BEHIND
1070
     0
1002
}
1002
{
1000
REACTOR
1002
}
1002
{
1000
OTHER
1070
     1
1002
}
1001
GENIUS_GENBH_13
1002
{
1000
FGO
1005
2A02B1F9
1002
}
  0
POINT
  5
2A02B1FB
100
AcDbEntity
  8
0
 60
     1
100
AcDbPoint
 10
519.717566
 20
364.682565
 30
0.0
 50
90.0
1001
GENIUS_GENOBJ-F-SCPASSM_13
1002
{
1000
OWNER
1000
GEF
1002
}
1001
GENIUS_GENOENT_13
1002
{
1000
MYREF
1005
2A02B1FB
1002
}
1002
{
1000
GRP
1005
0
1002
}
1001
GENIUS_GENOLIS_13
1002
{
1000
ENT
1005
0
1005
0
1002
}
1001
GENIUS_GENODEF_13
1002
{
1000
HIER
1070
   200
1002
}
1002
{
1000
MANEDIT
1070
     1
1002
}
1002
{
1000
NOSEL
1070
     0
1002
}
1002
{
1000
BEHIND
1070
     0
1002
}
1002
{
1000
REACTOR
1002
}
  0
POINT
  5
2A02B1FC
100
AcDbEntity
  8
0
 60
     1
100
AcDbPoint
 10
519.717566
 20
364.682565
 30
0.0
 50
90.0
1001
GENIUS_GENOBJ-NBEHI-BHB_13
1002
{
1000
OWNER
1000
GENBEHI
1002
}
1001
GENIUS_GENOENT_13
1002
{
1000
MYREF
1005
2A02B1FC
1002
}
1002
{
1000
GRP
1005
0
1002
}
1001
GENIUS_GENOLIS_13
1002
{
1000
ENT
1002
}
1001
GENIUS_GENODEF_13
1002
{
1000
HIER
1070
     1
1002
}
1002
{
1000
MANEDIT
1070
     0
1002
}
1002
{
1000
NOSEL
1070
     1
1002
}
1002
{
1000
BEHIND
1070
     0
1002
}
1002
{
1000
REACTOR
1002
}
1002
{
1000
OTHER
1070
     1
1002
}
1001
GENIUS_GENBH_13
1002
{
1000
FGO
1005
0
1002
}
  0
POINT
  5
2A02B1FD
100
AcDbEntity
  8
0
 60
     1
100
AcDbPoint
 10
519.717566
 20
364.682565
 30
0.0
 50
90.0
1001
GENIUS_GENOBJ-NBEHI-BHF_13
1002
{
1000
OWNER
1000
GENBEHI
1002
}
1001
GENIUS_GENOENT_13
1002
{
1000
MYREF
1005
2A02B1FD
1002
}
1002
{
1000
GRP
1005
0
1002
}
1001
GENIUS_GENOLIS_13
1002
{
1000
ENT
1005
0
1002
}
1001
GENIUS_GENBH_13
1002
{
1000
OIUMAP
1000
OIU
1002
}
1002
{
1000
FLAGS
1070
    32
1002
}
1002
{
1000
BGO
1005
0
1002
}
1001
GENIUS_GENODEF_13
1002
{
1000
HIER
1070
     1
1002
}
1002
{
1000
MANEDIT
1070
     1
1002
}
1002
{
1000
NOSEL
1070
     1
1002
}
1002
{
1000
BEHIND
1070
     0
1002
}
1002
{
1000
REACTOR
1002
}
  0
POINT
  5
2A02B1FE
100
AcDbEntity
  8
0
 60
     1
100
AcDbPoint
 10
519.717566
 20
364.682565
 30
0.0
 50
90.0
1001
GENIUS_GENOBJ-NBEHI-BHF_13
1002
{
1000
OWNER
1000
GENBEHI
1002
}
1001
GENIUS_GENOENT_13
1002
{
1000
MYREF
1005
2A02B1FE
1002
}
1002
{
1000
GRP
1005
0
1002
}
1001
GENIUS_GENOLIS_13
1002
{
1000
ENT
1005
0
1002
}
1001
GENIUS_GENODEF_13
1002
{
1000
HIER
1070
     1
1002
}
1002
{
1000
MANEDIT
1070
     0
1002
}
1002
{
1000
NOSEL
1070
     1
1002
}
1002
{
1000
BEHIND
1070
     0
1002
}
1002
{
1000
REACTOR
1002
}
1001
GENIUS_GENBH_13
1002
{
1000
OIUMAP
1000
OIU
1002
}
1002
{
1000
FLAGS
1070
    32
1002
}
1002
{
1000
BGO
1005
2A02B1FF
1002
}
  0
POINT
  5
2A02B1FF
100
AcDbEntity
  8
0
 60
     1
100
AcDbPoint
 10
519.717566
 20
364.682565
 30
0.0
 50
90.0
1001
GENIUS_GENOBJ-NBEHI-BHB_13
1002
{
1000
OWNER
1000
GENBEHI
1002
}
1001
GENIUS_GENOENT_13
1002
{
1000
MYREF
1005
2A02B1FF
1002
}
1002
{
1000
GRP
1005
0
1002
}
1001
GENIUS_GENOLIS_13
1002
{
1000
ENT
1002
}
1001
GENIUS_GENODEF_13
1002
{
1000
HIER
1070
     1
1002
}
1002
{
1000
MANEDIT
1070
     0
1002
}
1002
{
1000
NOSEL
1070
     1
1002
}
1002
{
1000
BEHIND
1070
     0
1002
}
1002
{
1000
REACTOR
1002
}
1002
{
1000
OTHER
1070
     1
1002
}
1001
GENIUS_GENBH_13
1002
{
1000
FGO
1005
2A02B1FE
1002
}
  0
POINT
  5
2A02B200
100
AcDbEntity
  8
0
 60
     1
100
AcDbPoint
 10
519.717566
 20
364.682565
 30
0.0
 50
90.0
1001
GENIUS_GENOBJ-NBEHI-BHF_13
1002
{
1000
OWNER
1000
GENBEHI
1002
}
1001
GENIUS_GENOENT_13
1002
{
1000
MYREF
1005
2A02B200
1002
}
1002
{
1000
GRP
1005
0
1002
}
1001
GENIUS_GENOLIS_13
1002
{
1000
ENT
1005
0
1002
}
1001
GENIUS_GENBH_13
1002
{
1000
OIUMAP
1000
OIU
1002
}
1002
{
1000
FLAGS
1070
    32
1002
}
1002
{
1000
BGO
1005
2A02B201
1002
}
1001
GENIUS_GENODEF_13
1002
{
1000
HIER
1070
     1
1002
}
1002
{
1000
MANEDIT
1070
     1
1002
}
1002
{
1000
NOSEL
1070
     1
1002
}
1002
{
1000
BEHIND
1070
     0
1002
}
1002
{
1000
REACTOR
1002
}
  0
POINT
  5
2A02B201
100
AcDbEntity
  8
0
 60
     1
100
AcDbPoint
 10
519.717566
 20
364.682565
 30
0.0
 50
90.0
1001
GENIUS_GENOBJ-NBEHI-BHB_13
1002
{
1000
OWNER
1000
GENBEHI
1002
}
1001
GENIUS_GENOENT_13
1002
{
1000
MYREF
1005
2A02B201
1002
}
1002
{
1000
GRP
1005
0
1002
}
1001
GENIUS_GENOLIS_13
1002
{
1000
ENT
1005
0
1002
}
1001
GENIUS_GENODEF_13
1002
{
1000
HIER
1070
     1
1002
}
1002
{
1000
MANEDIT
1070
     0
1002
}
1002
{
1000
NOSEL
1070
     1
1002
}
1002
{
1000
BEHIND
1070
     0
1002
}
1002
{
1000
REACTOR
1002
}
1002
{
1000
OTHER
1070
     1
1002
}
1001
GENIUS_GENBH_13
1002
{
1000
FGO
1005
2A02B200
1002
}
  0
POINT
  5
2A02B202
100
AcDbEntity
  8
0
 60
     1
100
AcDbPoint
 10
519.717566
 20
364.682565
 30
0.0
 50
90.0
1001
GENIUS_GENOBJ-F-SCPASSM_13
1002
{
1000
OWNER
1000
GEF
1002
}
1001
GENIUS_GENOENT_13
1002
{
1000
MYREF
1005
2A02B202
1002
}
1002
{
1000
GRP
1005
0
1002
}
1001
GENIUS_GENOLIS_13
1002
{
1000
ENT
1005
0
1005
0
1002
}
1001
GENIUS_GENODEF_13
1002
{
1000
HIER
1070
   200
1002
}
1002
{
1000
MANEDIT
1070
     1
1002
}
1002
{
1000
NOSEL
1070
     0
1002
}
1002
{
1000
BEHIND
1070
     0
1002
}
1002
{
1000
REACTOR
1002
}
  0
POINT
  5
2A02B203
100
AcDbEntity
  8
0
 60
     1
100
AcDbPoint
 10
519.717566
 20
364.682565
 30
0.0
 50
90.0
1001
GENIUS_GENOBJ-NBEHI-BHF_13
1002
{
1000
OWNER
1000
GENBEHI
1002
}
1001
GENIUS_GENOENT_13
1002
{
1000
MYREF
1005
2A02B203
1002
}
1002
{
1000
GRP
1005
0
1002
}
1001
GENIUS_GENOLIS_13
1002
{
1000
ENT
1005
0
1002
}
1001
GENIUS_GENODEF_13
1002
{
1000
HIER
1070
     1
1002
}
1002
{
1000
MANEDIT
1070
     0
1002
}
1002
{
1000
NOSEL
1070
     1
1002
}
1002
{
1000
BEHIND
1070
     0
1002
}
1002
{
1000
REACTOR
1002
}
1001
GENIUS_GENBH_13
1002
{
1000
OIUMAP
1000
OIU
1002
}
1002
{
1000
FLAGS
1070
    32
1002
}
1002
{
1000
BGO
1005
2A02B204
1002
}
  0
POINT
  5
2A02B204
100
AcDbEntity
  8
0
 60
     1
100
AcDbPoint
 10
519.717566
 20
364.682565
 30
0.0
 50
90.0
1001
GENIUS_GENOBJ-NBEHI-BHB_13
1002
{
1000
OWNER
1000
GENBEHI
1002
}
1001
GENIUS_GENOENT_13
1002
{
1000
MYREF
1005
2A02B204
1002
}
1002
{
1000
GRP
1005
0
1002
}
1001
GENIUS_GENOLIS_13
1002
{
1000
ENT
1002
}
1001
GENIUS_GENODEF_13
1002
{
1000
HIER
1070
     1
1002
}
1002
{
1000
MANEDIT
1070
     0
1002
}
1002
{
1000
NOSEL
1070
     1
1002
}
1002
{
1000
BEHIND
1070
     0
1002
}
1002
{
1000
REACTOR
1002
}
1002
{
1000
OTHER
1070
     1
1002
}
1001
GENIUS_GENBH_13
1002
{
1000
FGO
1005
2A02B203
1002
}
  0
POINT
  5
2A02B205
100
AcDbEntity
  8
0
 60
     1
100
AcDbPoint
 10
519.717566
 20
364.682565
 30
0.0
 50
90.0
1001
GENIUS_GENOBJ-NBEHI-BHF_13
1002
{
1000
OWNER
1000
GENBEHI
1002
}
1001
GENIUS_GENOENT_13
1002
{
1000
MYREF
1005
2A02B205
1002
}
1002
{
1000
GRP
1005
0
1002
}
1001
GENIUS_GENOLIS_13
1002
{
1000
ENT
1005
0
1002
}
1001
GENIUS_GENBH_13
1002
{
1000
OIUMAP
1000
OIU
1002
}
1002
{
1000
FLAGS
1070
    32
1002
}
1002
{
1000
BGO
1005
2A02B206
1002
}
1001
GENIUS_GENODEF_13
1002
{
1000
HIER
1070
     1
1002
}
1002
{
1000
MANEDIT
1070
     1
1002
}
1002
{
1000
NOSEL
1070
     1
1002
}
1002
{
1000
BEHIND
1070
     0
1002
}
1002
{
1000
REACTOR
1002
}
  0
POINT
  5
2A02B206
100
AcDbEntity
  8
0
 60
     1
100
AcDbPoint
 10
519.717566
 20
364.682565
 30
0.0
 50
90.0
1001
GENIUS_GENOBJ-NBEHI-BHB_13
1002
{
1000
OWNER
1000
GENBEHI
1002
}
1001
GENIUS_GENOENT_13
1002
{
1000
MYREF
1005
2A02B206
1002
}
1002
{
1000
GRP
1005
0
1002
}
1001
GENIUS_GENOLIS_13
1002
{
1000
ENT
1005
0
1002
}
1001
GENIUS_GENODEF_13
1002
{
1000
HIER
1070
     1
1002
}
1002
{
1000
MANEDIT
1070
     0
1002
}
1002
{
1000
NOSEL
1070
     1
1002
}
1002
{
1000
BEHIND
1070
     0
1002
}
1002
{
1000
REACTOR
1002
}
1002
{
1000
OTHER
1070
     1
1002
}
1001
GENIUS_GENBH_13
1002
{
1000
FGO
1005
2A02B205
1002
}
  0
POINT
  5
2A02B207
100
AcDbEntity
  8
0
 60
     1
100
AcDbPoint
 10
519.717566
 20
364.682565
 30
0.0
 50
90.0
1001
GENIUS_GENOBJ-F-SCPASSM_13
1002
{
1000
OWNER
1000
GEF
1002
}
1001
GENIUS_GENOENT_13
1002
{
1000
MYREF
1005
2A02B207
1002
}
1002
{
1000
GRP
1005
0
1002
}
1001
GENIUS_GENOLIS_13
1002
{
1000
ENT
1005
0
1005
0
1002
}
1001
GENIUS_GENODEF_13
1002
{
1000
HIER
1070
   200
1002
}
1002
{
1000
MANEDIT
1070
     1
1002
}
1002
{
1000
NOSEL
1070
     0
1002
}
1002
{
1000
BEHIND
1070
     0
1002
}
1002
{
1000
REACTOR
1002
}
  0
POINT
  5
2A02B208
100
AcDbEntity
  8
0
 60
     1
100
AcDbPoint
 10
519.717566
 20
364.682565
 30
0.0
 50
90.0
1001
GENIUS_GENOBJ-NBEHI-BHF_13
1002
{
1000
OWNER
1000
GENBEHI
1002
}
1001
GENIUS_GENOENT_13
1002
{
1000
MYREF
1005
2A02B208
1002
}
1002
{
1000
GRP
1005
0
1002
}
1001
GENIUS_GENOLIS_13
1002
{
1000
ENT
1005
0
1002
}
1001
GENIUS_GENODEF_13
1002
{
1000
HIER
1070
     1
1002
}
1002
{
1000
MANEDIT
1070
     0
1002
}
1002
{
1000
NOSEL
1070
     1
1002
}
1002
{
1000
BEHIND
1070
     0
1002
}
1002
{
1000
REACTOR
1002
}
1001
GENIUS_GENBH_13
1002
{
1000
OIUMAP
1000
OIU
1002
}
1002
{
1000
FLAGS
1070
    32
1002
}
1002
{
1000
BGO
1005
2A02B209
1002
}
  0
POINT
  5
2A02B209
100
AcDbEntity
  8
0
 60
     1
100
AcDbPoint
 10
519.717566
 20
364.682565
 30
0.0
 50
90.0
1001
GENIUS_GENOBJ-NBEHI-BHB_13
1002
{
1000
OWNER
1000
GENBEHI
1002
}
1001
GENIUS_GENOENT_13
1002
{
1000
MYREF
1005
2A02B209
1002
}
1002
{
1000
GRP
1005
0
1002
}
1001
GENIUS_GENOLIS_13
1002
{
1000
ENT
1002
}
1001
GENIUS_GENODEF_13
1002
{
1000
HIER
1070
     1
1002
}
1002
{
1000
MANEDIT
1070
     0
1002
}
1002
{
1000
NOSEL
1070
     1
1002
}
1002
{
1000
BEHIND
1070
     0
1002
}
1002
{
1000
REACTOR
1002
}
1002
{
1000
OTHER
1070
     1
1002
}
1001
GENIUS_GENBH_13
1002
{
1000
FGO
1005
2A02B208
1002
}
  0
POINT
  5
2A02B20A
100
AcDbEntity
  8
0
 60
     1
100
AcDbPoint
 10
519.717566
 20
364.682565
 30
0.0
 50
90.0
1001
GENIUS_GENOBJ-NBEHI-BHF_13
1002
{
1000
OWNER
1000
GENBEHI
1002
}
1001
GENIUS_GENOENT_13
1002
{
1000
MYREF
1005
2A02B20A
1002
}
1002
{
1000
GRP
1005
0
1002
}
1001
GENIUS_GENOLIS_13
1002
{
1000
ENT
1005
0
1002
}
1001
GENIUS_GENBH_13
1002
{
1000
OIUMAP
1000
OIU
1002
}
1002
{
1000
FLAGS
1070
    32
1002
}
1002
{
1000
BGO
1005
2A02B20B
1002
}
1001
GENIUS_GENODEF_13
1002
{
1000
HIER
1070
     1
1002
}
1002
{
1000
MANEDIT
1070
     1
1002
}
1002
{
1000
NOSEL
1070
     1
1002
}
1002
{
1000
BEHIND
1070
     0
1002
}
1002
{
1000
REACTOR
1002
}
  0
POINT
  5
2A02B20B
100
AcDbEntity
  8
0
 60
     1
100
AcDbPoint
 10
519.717566
 20
364.682565
 30
0.0
 50
90.0
1001
GENIUS_GENOBJ-NBEHI-BHB_13
1002
{
1000
OWNER
1000
GENBEHI
1002
}
1001
GENIUS_GENOENT_13
1002
{
1000
MYREF
1005
2A02B20B
1002
}
1002
{
1000
GRP
1005
0
1002
}
1001
GENIUS_GENOLIS_13
1002
{
1000
ENT
1005
0
1002
}
1001
GENIUS_GENODEF_13
1002
{
1000
HIER
1070
     1
1002
}
1002
{
1000
MANEDIT
1070
     0
1002
}
1002
{
1000
NOSEL
1070
     1
1002
}
1002
{
1000
BEHIND
1070
     0
1002
}
1002
{
1000
REACTOR
1002
}
1002
{
1000
OTHER
1070
     1
1002
}
1001
GENIUS_GENBH_13
1002
{
1000
FGO
1005
2A02B20A
1002
}
  0
POINT
  5
2A02B20C
100
AcDbEntity
  8
0
 60
     1
100
AcDbPoint
 10
519.717566
 20
364.682565
 30
0.0
 50
90.0
1001
GENIUS_GENOBJ-F-SCPASSM_13
1002
{
1000
OWNER
1000
GEF
1002
}
1001
GENIUS_GENOENT_13
1002
{
1000
MYREF
1005
2A02B20C
1002
}
1002
{
1000
GRP
1005
0
1002
}
1001
GENIUS_GENOLIS_13
1002
{
1000
ENT
1005
0
1005
0
1002
}
1001
GENIUS_GENODEF_13
1002
{
1000
HIER
1070
   200
1002
}
1002
{
1000
MANEDIT
1070
     1
1002
}
1002
{
1000
NOSEL
1070
     0
1002
}
1002
{
1000
BEHIND
1070
     0
1002
}
1002
{
1000
REACTOR
1002
}
  0
POINT
  5
2A02B20D
100
AcDbEntity
  8
0
 60
     1
100
AcDbPoint
 10
519.717566
 20
364.682565
 30
0.0
 50
90.0
1001
GENIUS_GENOBJ-NBEHI-BHF_13
1002
{
1000
OWNER
1000
GENBEHI
1002
}
1001
GENIUS_GENOENT_13
1002
{
1000
MYREF
1005
2A02B20D
1002
}
1002
{
1000
GRP
1005
0
1002
}
1001
GENIUS_GENOLIS_13
1002
{
1000
ENT
1005
0
1002
}
1001
GENIUS_GENODEF_13
1002
{
1000
HIER
1070
     1
1002
}
1002
{
1000
MANEDIT
1070
     0
1002
}
1002
{
1000
NOSEL
1070
     1
1002
}
1002
{
1000
BEHIND
1070
     0
1002
}
1002
{
1000
REACTOR
1002
}
1001
GENIUS_GENBH_13
1002
{
1000
OIUMAP
1000
OIU
1002
}
1002
{
1000
FLAGS
1070
    32
1002
}
1002
{
1000
BGO
1005
2A02B20E
1002
}
  0
POINT
  5
2A02B20E
100
AcDbEntity
  8
0
 60
     1
100
AcDbPoint
 10
519.717566
 20
364.682565
 30
0.0
 50
90.0
1001
GENIUS_GENOBJ-NBEHI-BHB_13
1002
{
1000
OWNER
1000
GENBEHI
1002
}
1001
GENIUS_GENOENT_13
1002
{
1000
MYREF
1005
2A02B20E
1002
}
1002
{
1000
GRP
1005
0
1002
}
1001
GENIUS_GENOLIS_13
1002
{
1000
ENT
1002
}
1001
GENIUS_GENODEF_13
1002
{
1000
HIER
1070
     1
1002
}
1002
{
1000
MANEDIT
1070
     0
1002
}
1002
{
1000
NOSEL
1070
     1
1002
}
1002
{
1000
BEHIND
1070
     0
1002
}
1002
{
1000
REACTOR
1002
}
1002
{
1000
OTHER
1070
     1
1002
}
1001
GENIUS_GENBH_13
1002
{
1000
FGO
1005
2A02B20D
1002
}
  0
POINT
  5
2A02B20F
100
AcDbEntity
  8
0
 60
     1
100
AcDbPoint
 10
519.717566
 20
364.682565
 30
0.0
 50
90.0
1001
GENIUS_GENOBJ-NBEHI-BHF_13
1002
{
1000
OWNER
1000
GENBEHI
1002
}
1001
GENIUS_GENOENT_13
1002
{
1000
MYREF
1005
2A02B20F
1002
}
1002
{
1000
GRP
1005
0
1002
}
1001
GENIUS_GENOLIS_13
1002
{
1000
ENT
1005
0
1002
}
1001
GENIUS_GENBH_13
1002
{
1000
OIUMAP
1000
OIU
1002
}
1002
{
1000
FLAGS
1070
    32
1002
}
1002
{
1000
BGO
1005
2A02B210
1002
}
1001
GENIUS_GENODEF_13
1002
{
1000
HIER
1070
     1
1002
}
1002
{
1000
MANEDIT
1070
     1
1002
}
1002
{
1000
NOSEL
1070
     1
1002
}
1002
{
1000
BEHIND
1070
     0
1002
}
1002
{
1000
REACTOR
1002
}
  0
POINT
  5
2A02B210
100
AcDbEntity
  8
0
 60
     1
100
AcDbPoint
 10
519.717566
 20
364.682565
 30
0.0
 50
90.0
1001
GENIUS_GENOBJ-NBEHI-BHB_13
1002
{
1000
OWNER
1000
GENBEHI
1002
}
1001
GENIUS_GENOENT_13
1002
{
1000
MYREF
1005
2A02B210
1002
}
1002
{
1000
GRP
1005
0
1002
}
1001
GENIUS_GENOLIS_13
1002
{
1000
ENT
1005
0
1002
}
1001
GENIUS_GENODEF_13
1002
{
1000
HIER
1070
     1
1002
}
1002
{
1000
MANEDIT
1070
     0
1002
}
1002
{
1000
NOSEL
1070
     1
1002
}
1002
{
1000
BEHIND
1070
     0
1002
}
1002
{
1000
REACTOR
1002
}
1002
{
1000
OTHER
1070
     1
1002
}
1001
GENIUS_GENBH_13
1002
{
1000
FGO
1005
2A02B20F
1002
}
  0
POINT
  5
2A02B211
100
AcDbEntity
  8
0
 60
     1
100
AcDbPoint
 10
519.717566
 20
364.682565
 30
0.0
 50
90.0
1001
GENIUS_GENOBJ-F-SCPASSM_13
1002
{
1000
OWNER
1000
GEF
1002
}
1001
GENIUS_GENOENT_13
1002
{
1000
MYREF
1005
2A02B211
1002
}
1002
{
1000
GRP
1005
0
1002
}
1001
GENIUS_GENOLIS_13
1002
{
1000
ENT
1005
0
1005
0
1002
}
1001
GENIUS_GENODEF_13
1002
{
1000
HIER
1070
   200
1002
}
1002
{
1000
MANEDIT
1070
     1
1002
}
1002
{
1000
NOSEL
1070
     0
1002
}
1002
{
1000
BEHIND
1070
     0
1002
}
1002
{
1000
REACTOR
1002
}
  0
POINT
  5
2A02B212
100
AcDbEntity
  8
0
 60
     1
100
AcDbPoint
 10
519.717566
 20
364.682565
 30
0.0
 50
90.0
1001
GENIUS_GENOBJ-NBEHI-BHF_13
1002
{
1000
OWNER
1000
GENBEHI
1002
}
1001
GENIUS_GENOENT_13
1002
{
1000
MYREF
1005
2A02B212
1002
}
1002
{
1000
GRP
1005
0
1002
}
1001
GENIUS_GENOLIS_13
1002
{
1000
ENT
1005
0
1002
}
1001
GENIUS_GENODEF_13
1002
{
1000
HIER
1070
     1
1002
}
1002
{
1000
MANEDIT
1070
     0
1002
}
1002
{
1000
NOSEL
1070
     1
1002
}
1002
{
1000
BEHIND
1070
     0
1002
}
1002
{
1000
REACTOR
1002
}
1001
GENIUS_GENBH_13
1002
{
1000
OIUMAP
1000
OIU
1002
}
1002
{
1000
FLAGS
1070
    32
1002
}
1002
{
1000
BGO
1005
2A02B213
1002
}
  0
POINT
  5
2A02B213
100
AcDbEntity
  8
0
 60
     1
100
AcDbPoint
 10
519.717566
 20
364.682565
 30
0.0
 50
90.0
1001
GENIUS_GENOBJ-NBEHI-BHB_13
1002
{
1000
OWNER
1000
GENBEHI
1002
}
1001
GENIUS_GENOENT_13
1002
{
1000
MYREF
1005
2A02B213
1002
}
1002
{
1000
GRP
1005
0
1002
}
1001
GENIUS_GENOLIS_13
1002
{
1000
ENT
1002
}
1001
GENIUS_GENODEF_13
1002
{
1000
HIER
1070
     1
1002
}
1002
{
1000
MANEDIT
1070
     0
1002
}
1002
{
1000
NOSEL
1070
     1
1002
}
1002
{
1000
BEHIND
1070
     0
1002
}
1002
{
1000
REACTOR
1002
}
1002
{
1000
OTHER
1070
     1
1002
}
1001
GENIUS_GENBH_13
1002
{
1000
FGO
1005
2A02B212
1002
}
  0
POINT
  5
2A02B214
100
AcDbEntity
  8
0
 60
     1
100
AcDbPoint
 10
519.717566
 20
364.682565
 30
0.0
 50
90.0
1001
GENIUS_GENOBJ-NBEHI-BHF_13
1002
{
1000
OWNER
1000
GENBEHI
1002
}
1001
GENIUS_GENOENT_13
1002
{
1000
MYREF
1005
2A02B214
1002
}
1002
{
1000
GRP
1005
0
1002
}
1001
GENIUS_GENOLIS_13
1002
{
1000
ENT
1005
0
1002
}
1001
GENIUS_GENBH_13
1002
{
1000
OIUMAP
1000
OIU
1002
}
1002
{
1000
FLAGS
1070
    32
1002
}
1002
{
1000
BGO
1005
2A02B215
1002
}
1001
GENIUS_GENODEF_13
1002
{
1000
HIER
1070
     1
1002
}
1002
{
1000
MANEDIT
1070
     1
1002
}
1002
{
1000
NOSEL
1070
     1
1002
}
1002
{
1000
BEHIND
1070
     0
1002
}
1002
{
1000
REACTOR
1002
}
  0
POINT
  5
2A02B215
100
AcDbEntity
  8
0
 60
     1
100
AcDbPoint
 10
519.717566
 20
364.682565
 30
0.0
 50
90.0
1001
GENIUS_GENOBJ-NBEHI-BHB_13
1002
{
1000
OWNER
1000
GENBEHI
1002
}
1001
GENIUS_GENOENT_13
1002
{
1000
MYREF
1005
2A02B215
1002
}
1002
{
1000
GRP
1005
0
1002
}
1001
GENIUS_GENOLIS_13
1002
{
1000
ENT
1005
0
1002
}
1001
GENIUS_GENODEF_13
1002
{
1000
HIER
1070
     1
1002
}
1002
{
1000
MANEDIT
1070
     0
1002
}
1002
{
1000
NOSEL
1070
     1
1002
}
1002
{
1000
BEHIND
1070
     0
1002
}
1002
{
1000
REACTOR
1002
}
1002
{
1000
OTHER
1070
     1
1002
}
1001
GENIUS_GENBH_13
1002
{
1000
FGO
1005
2A02B214
1002
}
  0
POINT
  5
2A02B216
100
AcDbEntity
  8
0
 60
     1
100
AcDbPoint
 10
519.717566
 20
364.682565
 30
0.0
 50
90.0
1001
GENIUS_GENOBJ-F-SCPASSM_13
1002
{
1000
OWNER
1000
GEF
1002
}
1001
GENIUS_GENOENT_13
1002
{
1000
MYREF
1005
2A02B216
1002
}
1002
{
1000
GRP
1005
0
1002
}
1001
GENIUS_GENOLIS_13
1002
{
1000
ENT
1005
0
1005
0
1002
}
1001
GENIUS_GENODEF_13
1002
{
1000
HIER
1070
   200
1002
}
1002
{
1000
MANEDIT
1070
     1
1002
}
1002
{
1000
NOSEL
1070
     0
1002
}
1002
{
1000
BEHIND
1070
     0
1002
}
1002
{
1000
REACTOR
1002
}
  0
LINE
  5
2A02B217
100
AcDbEntity
  8
0
  6
HIDDEN2
100
AcDbLine
 10
413.253846
 20
274.21224
 30
0.0
 11
422.253846
 21
274.21224
 31
0.0
1001
GENIUS_GENOREF_13
1005
2A02B214
1005
2A02B216
  0
LINE
  5
2A02B218
100
AcDbEntity
  8
0
  6
HIDDEN2
100
AcDbLine
 10
422.253846
 20
258.21224
 30
0.0
 11
422.253846
 21
258.21224
 31
0.0
1001
GENIUS_GENOREF_13
1005
2A02B214
1005
2A02B216
  0
LINE
  5
2A02B219
100
AcDbEntity
  8
0
  6
HIDDEN2
100
AcDbLine
 10
412.253846
 20
264.593049
 30
0.0
 11
412.253846
 21
273.21224
 31
0.0
1001
GENIUS_GENOREF_13
1005
2A02B214
1005
2A02B216
  0
ARC
  5
2A02B21A
100
AcDbEntity
  8
0
100
AcDbCircle
 10
413.253846
 20
259.21224
 30
0.0
 40
1.0
100
AcDbArc
 50
180.0
 51
270.0
1001
GENIUS_GENOREF_13
1005
2A02B214
1005
2A02B216
  0
ARC
  5
2A02B21B
100
AcDbEntity
  8
0
100
AcDbCircle
 10
413.253846
 20
273.21224
 30
0.0
 40
1.0
100
AcDbArc
 50
90.0
 51
180.0
1001
GENIUS_GENOREF_13
1005
2A02B214
1005
2A02B216
  0
LINE
  5
2A02B21C
100
AcDbEntity
  8
0
  6
HIDDEN2
100
AcDbLine
 10
460.714839
 20
262.132415
 30
0.0
 11
439.753846
 21
262.132415
 31
0.0
1001
GENIUS_GENOREF_13
1005
2A02B214
1005
2A02B216
  0
LINE
  5
2A02B21D
100
AcDbEntity
  8
0
  6
HIDDEN2
100
AcDbLine
 10
470.296221
 20
270.292065
 30
0.0
 11
439.753846
 21
270.292065
 31
0.0
1001
GENIUS_GENOREF_13
1005
2A02B214
1005
2A02B216
  0
LINE
  5
2A02B21E
100
AcDbEntity
  8
0
100
AcDbLine
 10
456.333671
 20
261.21224
 30
0.0
 11
457.253846
 21
262.132415
 31
0.0
1001
GENIUS_GENOREF_13
1005
2A02B214
1005
2A02B216
  0
LINE
  5
2A02B21F
100
AcDbEntity
  8
0
100
AcDbLine
 10
456.333671
 20
271.21224
 30
0.0
 11
457.253846
 21
270.292065
 31
0.0
1001
GENIUS_GENOREF_13
1005
2A02B214
1005
2A02B216
  0
LINE
  5
2A02B220
100
AcDbEntity
  8
0
  6
HIDDEN2
100
AcDbLine
 10
422.253846
 20
261.21224
 30
0.0
 11
436.753846
 21
261.21224
 31
0.0
1001
GENIUS_GENOREF_13
1005
2A02B214
1005
2A02B216
  0
LINE
  5
2A02B221
100
AcDbEntity
  8
0
  6
HIDDEN2
100
AcDbLine
 10
422.253846
 20
271.21224
 30
0.0
 11
436.753846
 21
271.21224
 31
0.0
1001
GENIUS_GENOREF_13
1005
2A02B214
1005
2A02B216
  0
LINE
  5
2A02B223
100
AcDbEntity
  8
0
  6
HIDDEN2
100
AcDbLine
 10
426.003846
 20
271.21224
 30
0.0
 11
426.003846
 21
261.21224
 31
0.0
1001
GENIUS_GENOREF_13
1005
2A02B214
1005
2A02B216
  0
LINE
  5
2A02B224
100
AcDbEntity
  8
0
100
AcDbLine
 10
426.003846
 20
262.132415
 30
0.0
 11
425.083671
 21
261.21224
 31
0.0
1001
GENIUS_GENOREF_13
1005
2A02B214
1005
2A02B216
  0
LINE
  5
2A02B225
100
AcDbEntity
  8
0
100
AcDbLine
 10
426.003846
 20
270.292065
 30
0.0
 11
425.083671
 21
271.21224
 31
0.0
1001
GENIUS_GENOREF_13
1005
2A02B214
1005
2A02B216
  0
LINE
  5
2A02B226
100
AcDbEntity
  8
0
  6
HIDDEN2
100
AcDbLine
 10
456.333671
 20
271.21224
 30
0.0
 11
456.333671
 21
261.21224
 31
0.0
1001
GENIUS_GENOREF_13
1005
2A02B214
1005
2A02B216
  0
LINE
  5
2A02B227
100
AcDbEntity
  8
0
  6
HIDDEN2
100
AcDbLine
 10
457.253846
 20
270.292065
 30
0.0
 11
457.253846
 21
262.132415
 31
0.0
1001
GENIUS_GENOREF_13
1005
2A02B214
1005
2A02B216
  0
POINT
  5
2A02B228
100
AcDbEntity
  8
0
 60
     1
100
AcDbPoint
 10
519.717566
 20
364.682565
 30
0.0
 50
90.0
1001
GENIUS_GENOBJ-NBEHI-BHB_13
1002
{
1000
OWNER
1000
GENBEHI
1002
}
1001
GENIUS_GENOENT_13
1002
{
1000
MYREF
1005
2A02B228
1002
}
1002
{
1000
GRP
1005
0
1002
}
1001
GENIUS_GENOLIS_13
1002
{
1000
ENT
1002
}
1001
GENIUS_GENODEF_13
1002
{
1000
HIER
1070
     1
1002
}
1002
{
1000
MANEDIT
1070
     0
1002
}
1002
{
1000
NOSEL
1070
     1
1002
}
1002
{
1000
BEHIND
1070
     0
1002
}
1002
{
1000
REACTOR
1002
}
1002
{
1000
OTHER
1070
     1
1002
}
1001
GENIUS_GENBH_13
1002
{
1000
FGO
1005
0
1002
}
  0
POINT
  5
2A02B229
100
AcDbEntity
  8
0
 60
     1
100
AcDbPoint
 10
519.717566
 20
364.682565
 30
0.0
 50
90.0
1001
GENIUS_GENOBJ-NBEHI-BHF_13
1002
{
1000
OWNER
1000
GENBEHI
1002
}
1001
GENIUS_GENOENT_13
1002
{
1000
MYREF
1005
2A02B229
1002
}
1002
{
1000
GRP
1005
0
1002
}
1001
GENIUS_GENOLIS_13
1002
{
1000
ENT
1005
0
1002
}
1001
GENIUS_GENBH_13
1002
{
1000
OIUMAP
1000
OIU
1002
}
1002
{
1000
FLAGS
1070
    32
1002
}
1002
{
1000
BGO
1005
0
1002
}
1001
GENIUS_GENODEF_13
1002
{
1000
HIER
1070
     1
1002
}
1002
{
1000
MANEDIT
1070
     1
1002
}
1002
{
1000
NOSEL
1070
     1
1002
}
1002
{
1000
BEHIND
1070
     0
1002
}
1002
{
1000
REACTOR
1002
}
  0
CIRCLE
  5
2A02B22A
100
AcDbEntity
  8
0
100
AcDbCircle
 10
348.521935
 20
266.21224
 30
0.0
 40
8.0
1001
GENIUS_GENOREF_13
1005
2A02B229
1005
0
  0
LINE
  5
2A02B22B
100
AcDbEntity
  8
0
100
AcDbLine
 10
352.521935
 20
268.521641
 30
0.0
 11
348.521935
 21
270.831043
 31
0.0
1001
GENIUS_GENOREF_13
1005
2A02B229
1005
0
  0
LINE
  5
2A02B22C
100
AcDbEntity
  8
0
100
AcDbLine
 10
348.521935
 20
261.593438
 30
0.0
 11
352.521935
 21
263.902839
 31
0.0
1001
GENIUS_GENOREF_13
1005
2A02B229
1005
0
  0
LINE
  5
2A02B22D
100
AcDbEntity
  8
0
100
AcDbLine
 10
352.521935
 20
263.902839
 30
0.0
 11
352.521935
 21
268.521641
 31
0.0
1001
GENIUS_GENOREF_13
1005
2A02B229
1005
0
  0
LINE
  5
2A02B22E
100
AcDbEntity
  8
0
100
AcDbLine
 10
344.521935
 20
268.521641
 30
0.0
 11
344.521935
 21
263.902839
 31
0.0
1001
GENIUS_GENOREF_13
1005
2A02B229
1005
0
  0
LINE
  5
2A02B22F
100
AcDbEntity
  8
0
100
AcDbLine
 10
344.521935
 20
263.902839
 30
0.0
 11
348.521935
 21
261.593438
 31
0.0
1001
GENIUS_GENOREF_13
1005
2A02B229
1005
0
  0
LINE
  5
2A02B230
100
AcDbEntity
  8
0
100
AcDbLine
 10
348.521935
 20
270.831043
 30
0.0
 11
344.521935
 21
268.521641
 31
0.0
1001
GENIUS_GENOREF_13
1005
2A02B229
1005
0
  0
LINE
  5
2A02B234
100
AcDbEntity
  8
0
  6
HIDDEN2
100
AcDbLine
 10
436.753846
 20
270.292065
 30
0.0
 11
426.003846
 21
270.292065
 31
0.0
1001
GENIUS_GENOREF_13
1005
2A02B214
1005
2A02B216
  0
LINE
  5
2A02B235
100
AcDbEntity
  8
0
  6
HIDDEN2
100
AcDbLine
 10
439.753846
 20
271.21224
 30
0.0
 11
456.333671
 21
271.21224
 31
0.0
1001
GENIUS_GENOREF_13
1005
2A02B214
1005
2A02B216
  0
LINE
  5
2A02B236
100
AcDbEntity
  8
0
  6
HIDDEN2
100
AcDbLine
 10
436.753846
 20
262.132415
 30
0.0
 11
426.003846
 21
262.132415
 31
0.0
1001
GENIUS_GENOREF_13
1005
2A02B214
1005
2A02B216
  0
LINE
  5
2A02B237
100
AcDbEntity
  8
0
  6
HIDDEN2
100
AcDbLine
 10
439.753846
 20
261.21224
 30
0.0
 11
456.333671
 21
261.21224
 31
0.0
1001
GENIUS_GENOREF_13
1005
2A02B214
1005
2A02B216
  0
LINE
  5
2A02B238
100
AcDbEntity
  8
0
100
AcDbLine
 10
436.753846
 20
271.21224
 30
0.0
 11
439.753846
 21
271.21224
 31
0.0
  0
LINE
  5
2A02B239
100
AcDbEntity
  8
0
100
AcDbLine
 10
436.753846
 20
270.292065
 30
0.0
 11
439.753846
 21
270.292065
 31
0.0
  0
LINE
  5
2A02B23A
100
AcDbEntity
  8
0
100
AcDbLine
 10
436.753846
 20
262.132415
 30
0.0
 11
439.753846
 21
262.132415
 31
0.0
  0
LINE
  5
2A02B23B
100
AcDbEntity
  8
0
100
AcDbLine
 10
436.753846
 20
261.21224
 30
0.0
 11
439.753846
 21
261.21224
 31
0.0
  0
LINE
  5
2A02B23C
100
AcDbEntity
  8
0
100
AcDbLine
 10
412.253846
 20
259.21224
 30
0.0
 11
412.253846
 21
264.593049
 31
0.0
  0
LINE
  5
2A02B23D
100
AcDbEntity
  8
0
100
AcDbLine
 10
413.253846
 20
258.21224
 30
0.0
 11
422.253846
 21
258.21224
 31
0.0
  0
LINE
  5
2A02B23E
100
AcDbEntity
  8
0
100
AcDbLine
 10
345.417791
 20
258.839026
 30
0.0
 11
339.501935
 21
258.839026
 31
0.0
  0
LINE
  5
2A02B23F
100
AcDbEntity
  8
0
100
AcDbLine
 10
275.97589
 20
324.639374
 30
0.0
 11
275.97589
 21
340.139374
 31
0.0
  0
LINE
  5
2A02B242
100
AcDbEntity
  8
0
100
AcDbLine
 10
297.97589
 20
324.639374
 30
0.0
 11
297.97589
 21
340.139374
 31
0.0
  0
ARC
  5
2A02B247
100
AcDbEntity
  8
0
  6
HIDDEN2
100
AcDbCircle
 10
286.97589
 20
266.639374
 30
0.0
 40
8.0
100
AcDbArc
 50
118.955024
 51
61.044976
1001
GENIUS_GENOREF_13
1005
2A02B229
1005
0
  0
VIEWPORT
  5
1
100
AcDbEntity
 67
     1
  8
0
100
AcDbViewport
 10
248.634206
 20
173.771427
 30
0.0
 40
571.222523
 41
347.542853
 68
     1
 69
     1
1001
ACAD
1000
MVIEW
1002
{
1070
    16
1010
0.0
1020
0.0
1030
0.0
1010
0.0
1020
0.0
1030
1.0
1040
0.0
1040
347.542853
1040
248.634206
1040
173.771427
1040
50.0
1040
0.0
1040
0.0
1070
     0
1070
   100
1070
     1
1070
     0
1070
     0
1070
     0
1070
     0
1070
     0
1040
0.0
1040
0.0
1040
0.0
1040
11.0
1040
11.0
1040
0.0
1040
0.0
1070
     0
1002
{
1002
}
1002
}
  0
VIEWPORT
  5
2
100
AcDbEntity
 67
     1
  8
VIEWPORT
100
AcDbViewport
 10
210.0
 20
148.5
 30
0.0
 40
420.0
 41
297.0
 68
    -1
 69
     2
1001
ACAD
1000
MVIEW
1002
{
1070
    16
1010
145.074507
1020
84.75148
1030
8.683315
1010
0.0
1020
0.0
1030
1.0
1040
0.0
1040
297.0
1040
355.589659
1040
192.89954
1040
50.0
1040
29.814202
1040
29.814202
1070
     0
1070
   100
1070
     1
1070
     0
1070
     0
1070
     0
1070
     0
1070
     0
1040
0.0
1040
0.0
1040
0.0
1040
1.0
1040
1.0
1040
1.0
1040
1.0
1070
     0
1002
{
1002
}
1002
}
  0
ENDSEC
  0
SECTION
  2
OBJECTS
  0
DICTIONARY
  5
2A02A1F5
100
AcDbDictionary
  3
ACAD_GROUP
350
2A02A1F6
  3
ACAD_LAYOUT
350
2A02AFF1
  3
ACAD_MLINESTYLE
350
2A02A1F7
  3
ACAD_PLOTSETTINGS
350
2A02AFF2
  3
ADE_QUERY_LIBRARY
350
2A02B2B9
  3
ASE_INDEX_DICTIONARY
350
2A02B033
1001
ADE
1000
ADE02C004
1000
[Query]
1000
CaseSensitiveMatch=0
1000
SaveCurrQueryInSession=1
1000
MkSelSetWithQryObj=0
1000
ShowBlockAsInsPt=0
1000
CreateAssociativeHatchObjects=0
1000
ReferenceBoundaryForAreaLocation=1
1000
ShowImageAsBoundary=1
1000
DefaultJoinOperator=2
1000
ColorForAdd=red
1000
ColorForRemove=red
1000
BlockLocnForQuery=1
1000
TextLocnForQuery=1
1000
[Save Back]
1000
RedefineBlockDefinitions=1
1000
RedefineLayerDefinitions=1
1000
RedefineTextStyleDefinitions=1
1000
RemoveUnusedGroups=1
1000
EraseSavedBackObjects=1
1000
RemoveLockAfterSave=1
1000
CreateHistoryFileOfChanges=0
1000
CreateBackupFileOfSourceDwg=1
1000
DontAddObjectsToSaveSet=0
1000
MarkObjectsForEditingWithoutPrompting=0
1000
[Coordinate Transformation]
1000
RestoreLastActiveDwgsOnStartup=1
1000
ActivateDwgsOnAttach=1
1000
AdjustSizesAndScalesForChangesInUnits=1
1000
AdjustRotationsForMapDistortions=1
1000
AdjustSizesAndScalesForMapDistortions=1
1000
AdjustElevations=1
1000
AdjustZeroRotationObjects=1
1000
ReconnectDbOnWSOpen=1
1000
NoOfSQLConditionsInHistory=10
1001
ACAD
1000
TREAT_AS_HARD
1070
     0
  0
DICTIONARY
  5
2A02B2BD
100
AcDbDictionary
  3
ACAD_LAYOUTSELFREF
350
2A02B2BE
  0
DICTIONARY
  5
2A02B2BB
100
AcDbDictionary
  3
ACAD_LAYOUTSELFREF
350
2A02B2BC
  0
DICTIONARY
  5
2A02A1F6
102
{ACAD_REACTORS
330
2A02A1F5
102
}
100
AcDbDictionary
1001
ACAD
1000
TREAT_AS_HARD
1070
     0
  0
DICTIONARY
  5
2A02AFF1
102
{ACAD_REACTORS
330
2A02A1F5
102
}
100
AcDbDictionary
1001
ACAD
1000
TREAT_AS_HARD
1070
     0
  0
DICTIONARY
  5
2A02A1F7
102
{ACAD_REACTORS
330
2A02A1F5
102
}
100
AcDbDictionary
  3
STANDARD
350
2A02A204
1001
ACAD
1000
TREAT_AS_HARD
1070
     0
  0
DICTIONARY
  5
2A02AFF2
102
{ACAD_REACTORS
330
2A02A1F5
102
}
100
AcDbDictionary
1001
ACAD
1000
TREAT_AS_HARD
1070
     0
  0
DICTIONARY
  5
2A02B2B9
102
{ACAD_REACTORS
330
2A02A1F5
102
}
100
AcDbDictionary
  3
_CURRQRY
350
2A02B2BA
1001
ACAD
1000
TREAT_AS_HARD
1070
     0
  0
DICTIONARY
  5
2A02B033
102
{ACAD_REACTORS
330
2A02A1F5
102
}
100
AcDbDictionary
  3
ASEBLOCKHIERARCHYINDEXRECORD
350
2A02B035
1001
DCO15
1040
1379055163.25
1001
ACAD
1000
TREAT_AS_HARD
1070
     0
  0
XRECORD
  5
2A02B2BE
102
{ACAD_REACTORS
330
2A02B2BD
102
}
100
AcDbXrecord
340
2A02A201
  0
XRECORD
  5
2A02B2BC
102
{ACAD_REACTORS
330
2A02B2BB
102
}
100
AcDbXrecord
340
2A02A1FE
  0
MLINESTYLE
  5
2A02A204
102
{ACAD_REACTORS
330
2A02A1F7
102
}
100
AcDbMlineStyle
  2
STANDARD
 70
     0
  3

 62
     0
 51
90.0
 52
90.0
 71
     2
 49
0.5
 62
   256
  6
BYLAYER
 49
-0.5
 62
   256
  6
BYLAYER
  0
XRECORD
  5
2A02B2BA
102
{ACAD_REACTORS
330
2A02B2B9
102
}
100
AcDbXrecord
1000
ADE02C001
1070
     1
1070
     0
1002
{
1002
}
1002
{
1002
}
1002
{
1002
}
1000

  0
XRECORD
  5
2A02B035
102
{ACAD_REACTORS
330
2A02B033
102
}
100
AcDbXrecord
  0
ENDSEC
  0
EOF
