  0
SECTION
  2
HEADER
  9
$ACADVER
  1
AC1014
  9
$ACADMAINTVER
 70
     0
  9
$DWGCODEPAGE
  3
ANSI_932
  9
$INSBASE
 10
0.0
 20
0.0
 30
0.0
  9
$EXTMIN
 10
-6.105067
 20
82.051766
 30
0.0
  9
$EXTMAX
 10
179.851407
 20
190.15658
 30
0.0
  9
$LIMMIN
 10
0.0
 20
0.0
  9
$LIMMAX
 10
420.0
 20
297.0
  9
$ORTHOMODE
 70
     0
  9
$REGENMODE
 70
     1
  9
$FILLMODE
 70
     1
  9
$QTEXTMODE
 70
     0
  9
$MIRRTEXT
 70
     1
  9
$DRAGMODE
 70
     2
  9
$LTSCALE
 40
0.3
  9
$OSMODE
 70
    37
  9
$ATTMODE
 70
     1
  9
$TEXTSIZE
 40
10.0
  9
$TRACEWID
 40
1.0
  9
$TEXTSTYLE
  7
BIGFONT
  9
$CLAYER
  8
0
  9
$CELTYPE
  6
BYLAYER
  9
$CECOLOR
 62
   256
  9
$CELTSCALE
 40
1.0
  9
$DELOBJ
 70
     1
  9
$DISPSILH
 70
     0
  9
$DIMSCALE
 40
1.0
  9
$DIMASZ
 40
2.5
  9
$DIMEXO
 40
0.625
  9
$DIMDLI
 40
3.75
  9
$DIMRND
 40
0.0
  9
$DIMDLE
 40
0.0
  9
$DIMEXE
 40
1.25
  9
$DIMTP
 40
0.0
  9
$DIMTM
 40
0.0
  9
$DIMTXT
 40
2.5
  9
$DIMCEN
 40
0.5
  9
$DIMTSZ
 40
0.0
  9
$DIMTOL
 70
     0
  9
$DIMLIM
 70
     0
  9
$DIMTIH
 70
     0
  9
$DIMTOH
 70
     0
  9
$DIMSE1
 70
     0
  9
$DIMSE2
 70
     0
  9
$DIMTAD
 70
     3
  9
$DIMZIN
 70
     8
  9
$DIMBLK
  1

  9
$DIMASO
 70
     1
  9
$DIMSHO
 70
     1
  9
$DIMPOST
  1

  9
$DIMAPOST
  1

  9
$DIMALT
 70
     0
  9
$DIMALTD
 70
     4
  9
$DIMALTF
 40
0.0394
  9
$DIMLFAC
 40
1.0
  9
$DIMTOFL
 70
     1
  9
$DIMTVP
 40
0.0
  9
$DIMTIX
 70
     0
  9
$DIMSOXD
 70
     0
  9
$DIMSAH
 70
     0
  9
$DIMBLK1
  1

  9
$DIMBLK2
  1

  9
$DIMSTYLE
  2
STANDARD_WS
  9
$DIMCLRD
 70
     0
  9
$DIMCLRE
 70
     0
  9
$DIMCLRT
 70
   256
  9
$DIMTFAC
 40
1.0
  9
$DIMGAP
 40
1.2
  9
$DIMJUST
 70
     0
  9
$DIMSD1
 70
     0
  9
$DIMSD2
 70
     0
  9
$DIMTOLJ
 70
     1
  9
$DIMTZIN
 70
     0
  9
$DIMALTZ
 70
     0
  9
$DIMALTTZ
 70
     0
  9
$DIMFIT
 70
     3
  9
$DIMUPT
 70
     0
  9
$DIMUNIT
 70
     2
  9
$DIMDEC
 70
     4
  9
$DIMTDEC
 70
     4
  9
$DIMALTU
 70
     8
  9
$DIMALTTD
 70
     4
  9
$DIMTXSTY
  7
BIGFONT
  9
$DIMAUNIT
 70
     0
  9
$LUNITS
 70
     2
  9
$LUPREC
 70
     4
  9
$SKETCHINC
 40
1.0
  9
$FILLETRAD
 40
0.0
  9
$AUNITS
 70
     0
  9
$AUPREC
 70
     0
  9
$MENU
  1
acad
  9
$ELEVATION
 40
0.0
  9
$PELEVATION
 40
0.0
  9
$THICKNESS
 40
0.0
  9
$LIMCHECK
 70
     0
  9
$BLIPMODE
 70
     0
  9
$CHAMFERA
 40
1.0
  9
$CHAMFERB
 40
1.0
  9
$CHAMFERC
 40
20.0
  9
$CHAMFERD
 40
0.0
  9
$SKPOLY
 70
     0
  9
$TDCREATE
 40
2451225.415346065
  9
$TDUPDATE
 40
2453594.447515729
  9
$TDINDWG
 40
0.1637111227
  9
$TDUSRTIMER
 40
0.1637111227
  9
$USRTIMER
 70
     1
  9
$ANGBASE
 50
0.0
  9
$ANGDIR
 70
     0
  9
$PDMODE
 70
     0
  9
$PDSIZE
 40
0.0
  9
$PLINEWID
 40
0.0
  9
$COORDS
 70
     1
  9
$SPLFRAME
 70
     0
  9
$SPLINETYPE
 70
     6
  9
$SPLINESEGS
 70
     8
  9
$ATTDIA
 70
     0
  9
$ATTREQ
 70
     1
  9
$HANDLING
 70
     1
  9
$HANDSEED
  5
101D
  9
$SURFTAB1
 70
     6
  9
$SURFTAB2
 70
     6
  9
$SURFTYPE
 70
     6
  9
$SURFU
 70
     6
  9
$SURFV
 70
     6
  9
$UCSNAME
  2

  9
$UCSORG
 10
0.0
 20
0.0
 30
0.0
  9
$UCSXDIR
 10
1.0
 20
0.0
 30
0.0
  9
$UCSYDIR
 10
0.0
 20
1.0
 30
0.0
  9
$PUCSNAME
  2

  9
$PUCSORG
 10
0.0
 20
0.0
 30
0.0
  9
$PUCSXDIR
 10
1.0
 20
0.0
 30
0.0
  9
$PUCSYDIR
 10
0.0
 20
1.0
 30
0.0
  9
$USERI1
 70
     0
  9
$USERI2
 70
     0
  9
$USERI3
 70
     0
  9
$USERI4
 70
     0
  9
$USERI5
 70
     0
  9
$USERR1
 40
0.0
  9
$USERR2
 40
0.0
  9
$USERR3
 40
0.0
  9
$USERR4
 40
0.0
  9
$USERR5
 40
0.0
  9
$WORLDVIEW
 70
     1
  9
$SHADEDGE
 70
     3
  9
$SHADEDIF
 70
    70
  9
$TILEMODE
 70
     1
  9
$MAXACTVP
 70
    48
  9
$PINSBASE
 10
0.0
 20
0.0
 30
0.0
  9
$PLIMCHECK
 70
     0
  9
$PEXTMIN
 10
1.000000E+20
 20
1.000000E+20
 30
1.000000E+20
  9
$PEXTMAX
 10
-1.000000E+20
 20
-1.000000E+20
 30
-1.000000E+20
  9
$PLIMMIN
 10
0.0
 20
0.0
  9
$PLIMMAX
 10
420.0
 20
297.0
  9
$UNITMODE
 70
     0
  9
$VISRETAIN
 70
     1
  9
$PLINEGEN
 70
     0
  9
$PSLTSCALE
 70
     0
  9
$TREEDEPTH
 70
  3020
  9
$PICKSTYLE
 70
     1
  9
$CMLSTYLE
  2
STANDARD
  9
$CMLJUST
 70
     0
  9
$CMLSCALE
 40
20.0
  9
$PROXYGRAPHICS
 70
     1
  9
$MEASUREMENT
 70
     0
  0
ENDSEC
  0
SECTION
  2
CLASSES
  0
CLASS
  1
DICTIONARYVAR
  2
AcDbDictionaryVar
  3
"AutoCAD"
 90
        0
280
     0
281
     0
  0
CLASS
  1
HATCH
  2
AcDbHatch
  3
"ACAD_SEDONA"
 90
        0
280
     0
281
     1
  0
CLASS
  1
LWPOLYLINE
  2
AcDbPolyline
  3
"AutoCAD"
 90
        0
280
     0
281
     1
  0
CLASS
  1
ACDBDICTIONARYWDFLT
  2
AcDbDictionaryWithDefault
  3
AutoCAD 2000
 90
        0
280
     0
281
     0
  0
CLASS
  1
ACDBPLACEHOLDER
  2
AcDbPlaceHolder
  3
AutoCAD 2000
 90
        0
280
     0
281
     0
  0
CLASS
  1
LAYOUT
  2
AcDbLayout
  3
AutoCAD 2000
 90
        0
280
     0
281
     0
  0
CLASS
  1
LONG_TRANSACTION
  2
AcDbLongTransaction
  3
AutoCAD 2000
 90
        0
280
     0
281
     0
  0
CLASS
  1
LWPOLYLINE
  2
AcDbPolyline
  3
"AutoCAD"
 90
        0
280
     0
281
     1
  0
CLASS
  1
HATCH
  2
AcDbHatch
  3
"ACAD_SEDONA"
 90
        0
280
     0
281
     1
  0
CLASS
  1
XRECORD
  2
AcDbXrecord
  3
"<Built In>"
 90
        0
280
     0
281
     0
  0
ENDSEC
  0
SECTION
  2
TABLES
  0
TABLE
  2
VPORT
  5
8
100
AcDbSymbolTable
 70
     2
  0
VPORT
  5
101C
100
AcDbSymbolTableRecord
100
AcDbViewportTableRecord
  2
*ACTIVE
 70
     0
 10
0.0
 20
0.0
 11
1.0
 21
1.0
 12
206.947467
 22
148.5
 13
0.0
 23
0.0
 14
10.0
 24
10.0
 15
10.0
 25
10.0
 16
0.0
 26
0.0
 36
1.0
 17
0.0
 27
0.0
 37
0.0
 40
299.205446
 41
1.434944
 42
50.0
 43
0.0
 44
0.0
 50
0.0
 51
0.0
 71
     0
 72
   100
 73
     1
 74
     0
 75
     0
 76
     0
 77
     0
 78
     0
  0
ENDTAB
  0
TABLE
  2
LTYPE
  5
5
100
AcDbSymbolTable
 70
     3
  0
LTYPE
  5
12
100
AcDbSymbolTableRecord
100
AcDbLinetypeTableRecord
  2
BYBLOCK
 70
     0
  3

 72
    65
 73
     0
 40
0.0
  0
LTYPE
  5
13
100
AcDbSymbolTableRecord
100
AcDbLinetypeTableRecord
  2
BYLAYER
 70
     0
  3

 72
    65
 73
     0
 40
0.0
  0
LTYPE
  5
14
100
AcDbSymbolTableRecord
100
AcDbLinetypeTableRecord
  2
CONTINUOUS
 70
     0
  3
Solid line
 72
    65
 73
     0
 40
0.0
  0
LTYPE
  5
11A
100
AcDbSymbolTableRecord
100
AcDbLinetypeTableRecord
  2
CENTER
 70
     0
  3
Center ____ _ ____ _ ____ _ ____ _ ____ _ ____
 72
    65
 73
     4
 40
50.8
 49
31.75
 74
     0
 49
-6.35
 74
     0
 49
6.35
 74
     0
 49
-6.35
 74
     0
  0
LTYPE
  5
11B
100
AcDbSymbolTableRecord
100
AcDbLinetypeTableRecord
  2
HIDDEN
 70
     0
  3
Hidden __ __ __ __ __ __ __ __ __ __ __ __ __ _
 72
    65
 73
     2
 40
9.525
 49
6.35
 74
     0
 49
-3.175
 74
     0
  0
ENDTAB
  0
TABLE
  2
LAYER
  5
2
100
AcDbSymbolTable
 70
     6
  0
LAYER
  5
E
100
AcDbSymbolTableRecord
100
AcDbLayerTableRecord
  2
0
 70
     0
 62
     7
  6
CONTINUOUS
  0
LAYER
  5
37
100
AcDbSymbolTableRecord
100
AcDbLayerTableRecord
  2
図枠
 70
     0
 62
     7
  6
CONTINUOUS
  0
LAYER
  5
38
100
AcDbSymbolTableRecord
100
AcDbLayerTableRecord
  2
図枠部品表
 70
     0
 62
     7
  6
CONTINUOUS
  0
LAYER
  5
215
100
AcDbSymbolTableRecord
100
AcDbLayerTableRecord
  2
CENTER
 70
     0
 62
     2
  6
CENTER
  0
LAYER
  5
216
100
AcDbSymbolTableRecord
100
AcDbLayerTableRecord
  2
DIM
 70
     0
 62
     4
  6
CONTINUOUS
  0
LAYER
  5
21F
100
AcDbSymbolTableRecord
100
AcDbLayerTableRecord
  2
DEFPOINTS
 70
     0
 62
     7
  6
CONTINUOUS
  0
ENDTAB
  0
TABLE
  2
STYLE
  5
3
100
AcDbSymbolTable
 70
     4
  0
STYLE
  5
F
100
AcDbSymbolTableRecord
100
AcDbTextStyleTableRecord
  2
STANDARD
 70
     0
 40
0.0
 41
1.0
 50
0.0
 71
     0
 42
2.5
  3
txt
  4

  0
STYLE
  5
39
100
AcDbSymbolTableRecord
100
AcDbTextStyleTableRecord
  2
BIGFONT
 70
     0
 40
0.0
 41
1.0
 50
0.0
 71
     0
 42
10.0
  3
txt.shx
  4
bigfont.shx
  0
STYLE
  5
3B
100
AcDbSymbolTableRecord
100
AcDbTextStyleTableRecord
  2
KANJI
 70
     0
 40
0.0
 41
1.0
 50
0.0
 71
     0
 42
3.0
  3
TXT
  4
BIGFONT
  0
STYLE
  5
F15
100
AcDbSymbolTableRecord
100
AcDbTextStyleTableRecord
  2

 70
     1
 40
0.0
 41
1.0
 50
0.0
 71
     0
 42
2.5
  3
ltypeshp.shx
  4

  0
ENDTAB
  0
TABLE
  2
VIEW
  5
6
100
AcDbSymbolTable
 70
     0
  0
ENDTAB
  0
TABLE
  2
UCS
  5
7
100
AcDbSymbolTable
 70
     0
  0
ENDTAB
  0
TABLE
  2
APPID
  5
9
100
AcDbSymbolTable
 70
    34
  0
APPID
  5
10
100
AcDbSymbolTableRecord
100
AcDbRegAppTableRecord
  2
ACAD
 70
     0
  0
APPID
  5
24
100
AcDbSymbolTableRecord
100
AcDbRegAppTableRecord
  2
CONTENTTABDATA
 70
     0
  0
APPID
  5
25
100
AcDbSymbolTableRecord
100
AcDbRegAppTableRecord
  2
CONTENTCURRENTTAB
 70
     0
  0
APPID
  5
422
100
AcDbSymbolTableRecord
100
AcDbRegAppTableRecord
  2
CONTENTBLOCKDESCRIPTION
 70
     0
  0
APPID
  5
F1F
100
AcDbSymbolTableRecord
100
AcDbRegAppTableRecord
  2
MCAD_NO_VIS
 70
     0
  0
APPID
  5
F20
100
AcDbSymbolTableRecord
100
AcDbRegAppTableRecord
  2
ACAD_TEMP_GRAPHIC
 70
     0
  0
APPID
  5
F21
100
AcDbSymbolTableRecord
100
AcDbRegAppTableRecord
  2
GEVID966397200
 70
     0
  0
APPID
  5
F22
100
AcDbSymbolTableRecord
100
AcDbRegAppTableRecord
  2
GEVDC
 70
     0
  0
APPID
  5
F23
100
AcDbSymbolTableRecord
100
AcDbRegAppTableRecord
  2
GEVCON
 70
     0
  0
APPID
  5
F24
100
AcDbSymbolTableRecord
100
AcDbRegAppTableRecord
  2
GEVID966397201
 70
     0
  0
APPID
  5
F25
100
AcDbSymbolTableRecord
100
AcDbRegAppTableRecord
  2
GEVID966397202
 70
     0
  0
APPID
  5
F26
100
AcDbSymbolTableRecord
100
AcDbRegAppTableRecord
  2
GEVID966397203
 70
     0
  0
APPID
  5
F27
100
AcDbSymbolTableRecord
100
AcDbRegAppTableRecord
  2
GEVID966397204
 70
     0
  0
APPID
  5
F28
100
AcDbSymbolTableRecord
100
AcDbRegAppTableRecord
  2
GEVID966397205
 70
     0
  0
APPID
  5
F29
100
AcDbSymbolTableRecord
100
AcDbRegAppTableRecord
  2
GEVID966397206
 70
     0
  0
APPID
  5
F2A
100
AcDbSymbolTableRecord
100
AcDbRegAppTableRecord
  2
GENIUS_GENBH_13
 70
     0
  0
APPID
  5
F2B
100
AcDbSymbolTableRecord
100
AcDbRegAppTableRecord
  2
GENIUS_GENODEF_13
 70
     0
  0
APPID
  5
F2C
100
AcDbSymbolTableRecord
100
AcDbRegAppTableRecord
  2
GENIUS_GENOBJ-NBEHI-BHF_13
 70
     0
  0
APPID
  5
F2D
100
AcDbSymbolTableRecord
100
AcDbRegAppTableRecord
  2
GENIUS_GENOENT_13
 70
     0
  0
APPID
  5
F2E
100
AcDbSymbolTableRecord
100
AcDbRegAppTableRecord
  2
GENIUS_GENOREF_13
 70
     0
  0
APPID
  5
F2F
100
AcDbSymbolTableRecord
100
AcDbRegAppTableRecord
  2
GENIUS_GENOLIS_13
 70
     0
  0
APPID
  5
F30
100
AcDbSymbolTableRecord
100
AcDbRegAppTableRecord
  2
GENIUS_GENOBJ-NBEHI-BHB_13
 70
     0
  0
APPID
  5
F31
100
AcDbSymbolTableRecord
100
AcDbRegAppTableRecord
  2
GEVID966397207
 70
     0
  0
APPID
  5
F32
100
AcDbSymbolTableRecord
100
AcDbRegAppTableRecord
  2
GENIUS_GENOBJ-F-SCPASSM_13
 70
     0
  0
APPID
  5
F33
100
AcDbSymbolTableRecord
100
AcDbRegAppTableRecord
  2
GENIUS_GENDTOL_13
 70
     0
  0
APPID
  5
F34
100
AcDbSymbolTableRecord
100
AcDbRegAppTableRecord
  2
GEVID966521051
 70
     0
  0
APPID
  5
F35
100
AcDbSymbolTableRecord
100
AcDbRegAppTableRecord
  2
GEVID966521052
 70
     0
  0
APPID
  5
F36
100
AcDbSymbolTableRecord
100
AcDbRegAppTableRecord
  2
GEVID966521054
 70
     0
  0
APPID
  5
F37
100
AcDbSymbolTableRecord
100
AcDbRegAppTableRecord
  2
GEVID966521055
 70
     0
  0
APPID
  5
F38
100
AcDbSymbolTableRecord
100
AcDbRegAppTableRecord
  2
GEVID966521056
 70
     0
  0
APPID
  5
F39
100
AcDbSymbolTableRecord
100
AcDbRegAppTableRecord
  2
GEVID966521057
 70
     0
  0
APPID
  5
F3A
100
AcDbSymbolTableRecord
100
AcDbRegAppTableRecord
  2
GEVID966521058
 70
     0
  0
APPID
  5
F3B
100
AcDbSymbolTableRecord
100
AcDbRegAppTableRecord
  2
GEVID966521059
 70
     0
  0
APPID
  5
1009
100
AcDbSymbolTableRecord
100
AcDbRegAppTableRecord
  2
ADE
 70
     0
  0
ENDTAB
  0
TABLE
  2
DIMSTYLE
  5
A
100
AcDbSymbolTable
 70
     2
  0
DIMSTYLE
105
35
100
AcDbSymbolTableRecord
100
AcDbDimStyleTableRecord
  2
STANDARD_WS
 70
     0
  3

  4

  5

  6

  7

 40
1.0
 41
2.5
 42
0.625
 43
3.75
 44
1.25
 45
0.0
 46
0.0
 47
0.0
 48
0.0
140
2.5
141
2.5
142
0.0
143
0.0394
144
1.0
145
0.0
146
1.0
147
0.625
 71
     0
 72
     0
 73
     0
 74
     0
 75
     0
 76
     0
 77
     1
 78
     8
170
     0
171
     4
172
     1
173
     0
174
     0
175
     0
176
     0
177
     0
178
     0
270
     2
271
     4
272
     4
273
     8
274
     4
340
F
275
     0
280
     0
281
     0
282
     0
283
     1
284
     0
285
     0
286
     0
287
     3
288
     0
  0
DIMSTYLE
105
F18
100
AcDbSymbolTableRecord
100
AcDbDimStyleTableRecord
  2
AM_JIS
 70
     0
  3

  4
"
  5
OPEN30
  6
OPEN30
  7
OPEN30
 40
1.0
 41
2.5
 42
1.0
 43
10.0
 44
1.0
 45
0.0
 46
0.0
 47
0.1
 48
0.1
140
3.5
141
0.0
142
0.0
143
0.03937
144
1.0
145
0.0
146
0.71
147
1.5
 71
     0
 72
     0
 73
     0
 74
     0
 75
     0
 76
     0
 77
     3
 78
     8
170
     0
171
     2
172
     1
173
     0
174
     0
175
     0
176
   256
177
   256
178
     2
270
     2
271
     2
272
     3
273
     2
274
     4
340
F
275
     0
280
     0
281
     0
282
     0
283
     0
284
     0
285
     0
286
     0
287
     3
288
     0
  0
ENDTAB
  0
TABLE
  2
BLOCK_RECORD
  5
1
100
AcDbSymbolTable
 70
    12
  0
BLOCK_RECORD
  5
18
102
{ACAD_XDICTIONARY
360
100E
102
}
100
AcDbSymbolTableRecord
100
AcDbBlockTableRecord
  2
*MODEL_SPACE
  0
BLOCK_RECORD
  5
15
102
{ACAD_XDICTIONARY
360
100C
102
}
100
AcDbSymbolTableRecord
100
AcDbBlockTableRecord
  2
*PAPER_SPACE
  0
BLOCK_RECORD
  5
B49
100
AcDbSymbolTableRecord
100
AcDbBlockTableRecord
  2
*D0
  0
BLOCK_RECORD
  5
B56
100
AcDbSymbolTableRecord
100
AcDbBlockTableRecord
  2
*D1
  0
BLOCK_RECORD
  5
B79
100
AcDbSymbolTableRecord
100
AcDbBlockTableRecord
  2
*D2
  0
BLOCK_RECORD
  5
B86
100
AcDbSymbolTableRecord
100
AcDbBlockTableRecord
  2
*D3
  0
BLOCK_RECORD
  5
B93
100
AcDbSymbolTableRecord
100
AcDbBlockTableRecord
  2
*D4
  0
BLOCK_RECORD
  5
BA0
100
AcDbSymbolTableRecord
100
AcDbBlockTableRecord
  2
*D5
  0
BLOCK_RECORD
  5
BD4
100
AcDbSymbolTableRecord
100
AcDbBlockTableRecord
  2
*D6
  0
BLOCK_RECORD
  5
BDE
100
AcDbSymbolTableRecord
100
AcDbBlockTableRecord
  2
*D7
  0
BLOCK_RECORD
  5
BEB
100
AcDbSymbolTableRecord
100
AcDbBlockTableRecord
  2
*D8
  0
BLOCK_RECORD
  5
BF8
100
AcDbSymbolTableRecord
100
AcDbBlockTableRecord
  2
*D9
  0
BLOCK_RECORD
  5
F02
100
AcDbSymbolTableRecord
100
AcDbBlockTableRecord
  2
_OPEN30
  0
BLOCK_RECORD
  5
F08
100
AcDbSymbolTableRecord
100
AcDbBlockTableRecord
  2
GENAXEH
  0
ENDTAB
  0
ENDSEC
  0
SECTION
  2
BLOCKS
  0
BLOCK
  5
19
100
AcDbEntity
  8
0
100
AcDbBlockBegin
  2
*MODEL_SPACE
 70
     2
 10
0.0
 20
0.0
 30
0.0
  3
*MODEL_SPACE
  1

  0
ENDBLK
  5
1A
100
AcDbEntity
  8
0
100
AcDbBlockEnd
  0
BLOCK
  5
16
100
AcDbEntity
 67
     1
  8
0
100
AcDbBlockBegin
  2
*PAPER_SPACE
 70
     0
 10
0.0
 20
0.0
 30
0.0
  3
*PAPER_SPACE
  1

  0
ENDBLK
  5
17
100
AcDbEntity
 67
     1
  8
0
100
AcDbBlockEnd
  0
BLOCK
  5
C1B
100
AcDbEntity
  8
0
100
AcDbBlockBegin
  2
*D0
 70
     1
 10
0.0
 20
0.0
 30
0.0
  3
*D0
  1

  0
LINE
  5
FF8
100
AcDbEntity
  8
DIM
 62
     0
100
AcDbLine
 10
56.178747
 20
169.463113
 30
0.0
 11
39.678791
 21
169.463113
 31
0.0
  0
LINE
  5
FF9
100
AcDbEntity
  8
DIM
 62
     0
100
AcDbLine
 10
56.178747
 20
134.463113
 30
0.0
 11
39.678791
 21
134.463113
 31
0.0
  0
LINE
  5
FFA
100
AcDbEntity
  8
DIM
 62
     0
100
AcDbLine
 10
40.928791
 20
166.963113
 30
0.0
 11
40.928791
 21
136.963113
 31
0.0
  0
SOLID
  5
FFB
100
AcDbEntity
  8
DIM
 62
     0
100
AcDbTrace
 10
40.512125
 20
166.963113
 30
0.0
 11
41.345458
 21
166.963113
 31
0.0
 12
40.928791
 22
169.463113
 32
0.0
 13
40.928791
 23
169.463113
 33
0.0
  0
SOLID
  5
FFC
100
AcDbEntity
  8
DIM
 62
     0
100
AcDbTrace
 10
40.512125
 20
136.963113
 30
0.0
 11
41.345458
 21
136.963113
 31
0.0
 12
40.928791
 22
134.463113
 32
0.0
 13
40.928791
 23
134.463113
 33
0.0
  0
MTEXT
  5
FFD
100
AcDbEntity
  8
DIM
100
AcDbMText
 10
37.978791
 20
151.963113
 30
0.0
 40
2.5
 41
0.0
 71
     5
 72
     5
  1
\A1;%%c35\H1.5;\S+0.05^ +0.01;
  7
BIGFONT
 11
0.0
 21
1.0
 31
0.0
1001
ACAD
1000
MTEXTBEGIN
1070
    73
1070
     1
1070
    44
1040
1.0
1070
    74
1070
     0
1000
MTEXTEND
  0
POINT
  5
FFE
100
AcDbEntity
  8
DEFPOINTS
 62
     0
100
AcDbPoint
 10
56.803747
 20
169.463113
 30
0.0
  0
POINT
  5
FFF
100
AcDbEntity
  8
DEFPOINTS
 62
     0
100
AcDbPoint
 10
56.803747
 20
134.463113
 30
0.0
  0
POINT
  5
1000
100
AcDbEntity
  8
DEFPOINTS
 62
     0
100
AcDbPoint
 10
40.928791
 20
134.463113
 30
0.0
  0
ENDBLK
  5
C25
100
AcDbEntity
  8
0
100
AcDbBlockEnd
  0
BLOCK
  5
C10
100
AcDbEntity
  8
0
100
AcDbBlockBegin
  2
*D1
 70
     1
 10
0.0
 20
0.0
 30
0.0
  3
*D1
  1

  0
LINE
  5
FEF
100
AcDbEntity
  8
DIM
 62
     0
100
AcDbLine
 10
56.178747
 20
181.963113
 30
0.0
 11
30.822417
 21
181.963113
 31
0.0
  0
LINE
  5
FF0
100
AcDbEntity
  8
DIM
 62
     0
100
AcDbLine
 10
56.178747
 20
121.963113
 30
0.0
 11
30.822417
 21
121.963113
 31
0.0
  0
LINE
  5
FF1
100
AcDbEntity
  8
DIM
 62
     0
100
AcDbLine
 10
32.072417
 20
179.463113
 30
0.0
 11
32.072417
 21
124.463113
 31
0.0
  0
SOLID
  5
FF2
100
AcDbEntity
  8
DIM
 62
     0
100
AcDbTrace
 10
31.65575
 20
179.463113
 30
0.0
 11
32.489083
 21
179.463113
 31
0.0
 12
32.072417
 22
181.963113
 32
0.0
 13
32.072417
 23
181.963113
 33
0.0
  0
SOLID
  5
FF3
100
AcDbEntity
  8
DIM
 62
     0
100
AcDbTrace
 10
31.65575
 20
124.463113
 30
0.0
 11
32.489083
 21
124.463113
 31
0.0
 12
32.072417
 22
121.963113
 32
0.0
 13
32.072417
 23
121.963113
 33
0.0
  0
MTEXT
  5
FF4
100
AcDbEntity
  8
DIM
100
AcDbMText
 10
29.622417
 20
151.963113
 30
0.0
 40
2.5
 41
0.0
 71
     5
 72
     5
  1
\A1;%%c60\H1.5;%%p0.1
  7
BIGFONT
 11
0.0
 21
1.0
 31
0.0
1001
ACAD
1000
MTEXTBEGIN
1070
    73
1070
     1
1070
    44
1040
1.0
1070
    74
1070
     0
1000
MTEXTEND
  0
POINT
  5
FF5
100
AcDbEntity
  8
DEFPOINTS
 62
     0
100
AcDbPoint
 10
56.803747
 20
181.963113
 30
0.0
  0
POINT
  5
FF6
100
AcDbEntity
  8
DEFPOINTS
 62
     0
100
AcDbPoint
 10
56.803747
 20
121.963113
 30
0.0
  0
POINT
  5
FF7
100
AcDbEntity
  8
DEFPOINTS
 62
     0
100
AcDbPoint
 10
32.072417
 20
121.963113
 30
0.0
  0
ENDBLK
  5
C1A
100
AcDbEntity
  8
0
100
AcDbBlockEnd
  0
BLOCK
  5
C4C
100
AcDbEntity
  8
0
100
AcDbBlockBegin
  2
*D2
 70
     1
 10
0.0
 20
0.0
 30
0.0
  3
*D2
  1

  0
LINE
  5
FE4
100
AcDbEntity
  8
DIM
 62
     0
100
AcDbLine
 10
57.303747
 20
123.842659
 30
0.0
 11
57.303747
 21
111.005341
 31
0.0
  0
LINE
  5
FE5
100
AcDbEntity
  8
DIM
 62
     0
100
AcDbLine
 10
69.303747
 20
123.842659
 30
0.0
 11
69.303747
 21
111.005341
 31
0.0
  0
LINE
  5
FE6
100
AcDbEntity
  8
DIM
 62
     0
100
AcDbLine
 10
54.803747
 20
112.255341
 30
0.0
 11
52.303747
 21
112.255341
 31
0.0
  0
LINE
  5
FE7
100
AcDbEntity
  8
DIM
 62
     0
100
AcDbLine
 10
71.803747
 20
112.255341
 30
0.0
 11
74.303747
 21
112.255341
 31
0.0
  0
LINE
  5
FE8
100
AcDbEntity
  8
DIM
 62
     0
100
AcDbLine
 10
57.303747
 20
112.255341
 30
0.0
 11
69.303747
 21
112.255341
 31
0.0
  0
SOLID
  5
FE9
100
AcDbEntity
  8
DIM
 62
     0
100
AcDbTrace
 10
54.803747
 20
112.672008
 30
0.0
 11
54.803747
 21
111.838674
 31
0.0
 12
57.303747
 22
112.255341
 32
0.0
 13
57.303747
 23
112.255341
 33
0.0
  0
SOLID
  5
FEA
100
AcDbEntity
  8
DIM
 62
     0
100
AcDbTrace
 10
71.803747
 20
112.672008
 30
0.0
 11
71.803747
 21
111.838674
 31
0.0
 12
69.303747
 22
112.255341
 32
0.0
 13
69.303747
 23
112.255341
 33
0.0
  0
MTEXT
  5
FEB
100
AcDbEntity
  8
DIM
100
AcDbMText
 10
66.399623
 20
114.705341
 30
0.0
 40
2.5
 41
0.0
 71
     5
 72
     5
  1
\A1;12
  7
BIGFONT
1001
ACAD
1000
MTEXTBEGIN
1070
    73
1070
     1
1070
    44
1040
1.0
1070
    74
1070
     0
1000
MTEXTEND
  0
POINT
  5
FEC
100
AcDbEntity
  8
DEFPOINTS
 62
     0
100
AcDbPoint
 10
57.303747
 20
124.467659
 30
0.0
  0
POINT
  5
FED
100
AcDbEntity
  8
DEFPOINTS
 62
     0
100
AcDbPoint
 10
69.303747
 20
124.467659
 30
0.0
  0
POINT
  5
FEE
100
AcDbEntity
  8
DEFPOINTS
 62
     0
100
AcDbPoint
 10
69.303747
 20
112.255341
 30
0.0
  0
ENDBLK
  5
C57
100
AcDbEntity
  8
0
100
AcDbBlockEnd
  0
BLOCK
  5
C41
100
AcDbEntity
  8
0
100
AcDbBlockBegin
  2
*D3
 70
     1
 10
0.0
 20
0.0
 30
0.0
  3
*D3
  1

  0
LINE
  5
FDB
100
AcDbEntity
  8
DIM
 62
     0
100
AcDbLine
 10
70.803747
 20
122.338113
 30
0.0
 11
70.803747
 21
102.302612
 31
0.0
  0
LINE
  5
FDC
100
AcDbEntity
  8
DIM
 62
     0
100
AcDbLine
 10
63.303747
 20
119.294398
 30
0.0
 11
63.303747
 21
102.302612
 31
0.0
  0
LINE
  5
FDD
100
AcDbEntity
  8
DIM
 62
     0
100
AcDbLine
 10
68.303747
 20
103.552612
 30
0.0
 11
65.803747
 21
103.552612
 31
0.0
  0
SOLID
  5
FDE
100
AcDbEntity
  8
DIM
 62
     0
100
AcDbTrace
 10
68.303747
 20
103.969278
 30
0.0
 11
68.303747
 21
103.135945
 31
0.0
 12
70.803747
 22
103.552612
 32
0.0
 13
70.803747
 23
103.552612
 33
0.0
  0
SOLID
  5
FDF
100
AcDbEntity
  8
DIM
 62
     0
100
AcDbTrace
 10
65.803747
 20
103.969278
 30
0.0
 11
65.803747
 21
103.135945
 31
0.0
 12
63.303747
 22
103.552612
 32
0.0
 13
63.303747
 23
103.552612
 33
0.0
  0
MTEXT
  5
FE0
100
AcDbEntity
  8
DIM
100
AcDbMText
 10
67.053747
 20
106.002612
 30
0.0
 40
2.5
 41
0.0
 71
     5
 72
     5
  1
\A1;7.5
  7
BIGFONT
1001
ACAD
1000
MTEXTBEGIN
1070
    73
1070
     1
1070
    44
1040
1.0
1070
    74
1070
     0
1000
MTEXTEND
  0
POINT
  5
FE1
100
AcDbEntity
  8
DEFPOINTS
 62
     0
100
AcDbPoint
 10
70.803747
 20
122.963113
 30
0.0
  0
POINT
  5
FE2
100
AcDbEntity
  8
DEFPOINTS
 62
     0
100
AcDbPoint
 10
63.303747
 20
119.919398
 30
0.0
  0
POINT
  5
FE3
100
AcDbEntity
  8
DEFPOINTS
 62
     0
100
AcDbPoint
 10
63.303747
 20
103.552612
 30
0.0
  0
ENDBLK
  5
C4B
100
AcDbEntity
  8
0
100
AcDbBlockEnd
  0
BLOCK
  5
C36
100
AcDbEntity
  8
0
100
AcDbBlockBegin
  2
*D4
 70
     1
 10
0.0
 20
0.0
 30
0.0
  3
*D4
  1

  0
LINE
  5
FD2
100
AcDbEntity
  8
DIM
 62
     0
100
AcDbLine
 10
55.803747
 20
122.338113
 30
0.0
 11
55.803747
 21
102.302612
 31
0.0
  0
LINE
  5
FD3
100
AcDbEntity
  8
DIM
 62
     0
100
AcDbLine
 10
63.303747
 20
119.294398
 30
0.0
 11
63.303747
 21
102.302612
 31
0.0
  0
LINE
  5
FD4
100
AcDbEntity
  8
DIM
 62
     0
100
AcDbLine
 10
58.303747
 20
103.552612
 30
0.0
 11
60.803747
 21
103.552612
 31
0.0
  0
SOLID
  5
FD5
100
AcDbEntity
  8
DIM
 62
     0
100
AcDbTrace
 10
58.303747
 20
103.969278
 30
0.0
 11
58.303747
 21
103.135945
 31
0.0
 12
55.803747
 22
103.552612
 32
0.0
 13
55.803747
 23
103.552612
 33
0.0
  0
SOLID
  5
FD6
100
AcDbEntity
  8
DIM
 62
     0
100
AcDbTrace
 10
60.803747
 20
103.969278
 30
0.0
 11
60.803747
 21
103.135945
 31
0.0
 12
63.303747
 22
103.552612
 32
0.0
 13
63.303747
 23
103.552612
 33
0.0
  0
MTEXT
  5
FD7
100
AcDbEntity
  8
DIM
100
AcDbMText
 10
59.553747
 20
106.002612
 30
0.0
 40
2.5
 41
0.0
 71
     5
 72
     5
  1
\A1;7.5
  7
BIGFONT
1001
ACAD
1000
MTEXTBEGIN
1070
    73
1070
     1
1070
    44
1040
1.0
1070
    74
1070
     0
1000
MTEXTEND
  0
POINT
  5
FD8
100
AcDbEntity
  8
DEFPOINTS
 62
     0
100
AcDbPoint
 10
55.803747
 20
122.963113
 30
0.0
  0
POINT
  5
FD9
100
AcDbEntity
  8
DEFPOINTS
 62
     0
100
AcDbPoint
 10
63.303747
 20
119.919398
 30
0.0
  0
POINT
  5
FDA
100
AcDbEntity
  8
DEFPOINTS
 62
     0
100
AcDbPoint
 10
63.303747
 20
103.552612
 30
0.0
  0
ENDBLK
  5
C40
100
AcDbEntity
  8
0
100
AcDbBlockEnd
  0
BLOCK
  5
C2B
100
AcDbEntity
  8
0
100
AcDbBlockBegin
  2
*D5
 70
     1
 10
0.0
 20
0.0
 30
0.0
  3
*D5
  1

  0
LINE
  5
FC9
100
AcDbEntity
  8
DIM
 62
     0
100
AcDbLine
 10
70.803747
 20
121.713113
 30
0.0
 11
70.803747
 21
93.304848
 31
0.0
  0
LINE
  5
FCA
100
AcDbEntity
  8
DIM
 62
     0
100
AcDbLine
 10
55.803747
 20
121.713113
 30
0.0
 11
55.803747
 21
93.304848
 31
0.0
  0
LINE
  5
FCB
100
AcDbEntity
  8
DIM
 62
     0
100
AcDbLine
 10
68.303747
 20
94.554848
 30
0.0
 11
58.303747
 21
94.554848
 31
0.0
  0
SOLID
  5
FCC
100
AcDbEntity
  8
DIM
 62
     0
100
AcDbTrace
 10
68.303747
 20
94.971515
 30
0.0
 11
68.303747
 21
94.138182
 31
0.0
 12
70.803747
 22
94.554848
 32
0.0
 13
70.803747
 23
94.554848
 33
0.0
  0
SOLID
  5
FCD
100
AcDbEntity
  8
DIM
 62
     0
100
AcDbTrace
 10
58.303747
 20
94.971515
 30
0.0
 11
58.303747
 21
94.138182
 31
0.0
 12
55.803747
 22
94.554848
 32
0.0
 13
55.803747
 23
94.554848
 33
0.0
  0
MTEXT
  5
FCE
100
AcDbEntity
  8
DIM
100
AcDbMText
 10
63.303747
 20
97.004848
 30
0.0
 40
2.5
 41
0.0
 71
     5
 72
     5
  1
\A1;15\H1.5;%%p0.1
  7
BIGFONT
1001
ACAD
1000
MTEXTBEGIN
1070
    73
1070
     1
1070
    44
1040
1.0
1070
    74
1070
     0
1000
MTEXTEND
  0
POINT
  5
FCF
100
AcDbEntity
  8
DEFPOINTS
 62
     0
100
AcDbPoint
 10
70.803747
 20
122.338113
 30
0.0
  0
POINT
  5
FD0
100
AcDbEntity
  8
DEFPOINTS
 62
     0
100
AcDbPoint
 10
55.803747
 20
122.338113
 30
0.0
  0
POINT
  5
FD1
100
AcDbEntity
  8
DEFPOINTS
 62
     0
100
AcDbPoint
 10
55.803747
 20
94.554848
 30
0.0
  0
ENDBLK
  5
C35
100
AcDbEntity
  8
0
100
AcDbBlockEnd
  0
BLOCK
  5
BD5
100
AcDbEntity
  8
0
100
AcDbBlockBegin
  2
*D6
 70
     1
 10
0.0
 20
0.0
 30
0.0
  3
*D6
  1

  0
LINE
  5
FC3
100
AcDbEntity
  8
DIM
 62
     0
100
AcDbLine
 10
81.19497
 20
139.15436
 30
0.0
 11
70.689552
 21
133.170236
 31
0.0
  0
MTEXT
  5
FC4
100
AcDbEntity
  8
DIM
100
AcDbMText
 10
77.12938
 20
139.658105
 30
0.0
 40
2.5
 41
0.0
 71
     5
 72
     5
  1
\A1;R6
  7
BIGFONT
 11
0.868918
 21
0.494956
 31
0.0
1001
ACAD
1000
MTEXTBEGIN
1070
    73
1070
     1
1070
    44
1040
1.0
1070
    74
1070
     0
1000
MTEXTEND
  0
LINE
  5
FC5
100
AcDbEntity
  8
DIM
 62
     0
100
AcDbLine
 10
63.303747
 20
128.963113
 30
0.0
 11
68.517256
 21
131.932847
 31
0.0
  0
SOLID
  5
FC6
100
AcDbEntity
  8
DIM
 62
     0
100
AcDbTrace
 10
70.483321
 20
133.532285
 30
0.0
 11
70.895783
 21
132.808186
 31
0.0
 12
68.517256
 22
131.932847
 32
0.0
 13
68.517256
 23
131.932847
 33
0.0
  0
POINT
  5
FC7
100
AcDbEntity
  8
DEFPOINTS
 62
     0
100
AcDbPoint
 10
68.517256
 20
131.932847
 30
0.0
  0
POINT
  5
FC8
100
AcDbEntity
  8
DEFPOINTS
 62
     0
100
AcDbPoint
 10
63.303747
 20
128.963113
 30
0.0
  0
ENDBLK
  5
BDC
100
AcDbEntity
  8
0
100
AcDbBlockEnd
  0
BLOCK
  5
BDF
100
AcDbEntity
  8
0
100
AcDbBlockBegin
  2
*D7
 70
     1
 10
0.0
 20
0.0
 30
0.0
  3
*D7
  1

  0
LINE
  5
FBA
100
AcDbEntity
  8
DIM
 62
     0
100
AcDbLine
 10
104.885283
 20
151.963113
 30
0.0
 11
99.082647
 21
151.963113
 31
0.0
  0
LINE
  5
FBB
100
AcDbEntity
  8
DIM
 62
     0
100
AcDbLine
 10
114.259273
 20
128.963113
 30
0.0
 11
99.082647
 21
128.963113
 31
0.0
  0
LINE
  5
FBC
100
AcDbEntity
  8
DIM
 62
     0
100
AcDbLine
 10
100.332647
 20
149.463113
 30
0.0
 11
100.332647
 21
131.463113
 31
0.0
  0
SOLID
  5
FBD
100
AcDbEntity
  8
DIM
 62
     0
100
AcDbTrace
 10
99.91598
 20
149.463113
 30
0.0
 11
100.749314
 21
149.463113
 31
0.0
 12
100.332647
 22
151.963113
 32
0.0
 13
100.332647
 23
151.963113
 33
0.0
  0
SOLID
  5
FBE
100
AcDbEntity
  8
DIM
 62
     0
100
AcDbTrace
 10
99.91598
 20
131.463113
 30
0.0
 11
100.749314
 21
131.463113
 31
0.0
 12
100.332647
 22
128.963113
 32
0.0
 13
100.332647
 23
128.963113
 33
0.0
  0
MTEXT
  5
FBF
100
AcDbEntity
  8
DIM
100
AcDbMText
 10
97.882647
 20
140.463113
 30
0.0
 40
2.5
 41
0.0
 71
     5
 72
     5
  1
\A1;23
  7
BIGFONT
 11
0.0
 21
1.0
 31
0.0
1001
ACAD
1000
MTEXTBEGIN
1070
    73
1070
     1
1070
    44
1040
1.0
1070
    74
1070
     0
1000
MTEXTEND
  0
POINT
  5
FC0
100
AcDbEntity
  8
DEFPOINTS
 62
     0
100
AcDbPoint
 10
105.510283
 20
151.963113
 30
0.0
  0
POINT
  5
FC1
100
AcDbEntity
  8
DEFPOINTS
 62
     0
100
AcDbPoint
 10
114.884273
 20
128.963113
 30
0.0
  0
POINT
  5
FC2
100
AcDbEntity
  8
DEFPOINTS
 62
     0
100
AcDbPoint
 10
100.332647
 20
128.963113
 30
0.0
  0
ENDBLK
  5
BE9
100
AcDbEntity
  8
0
100
AcDbBlockEnd
  0
BLOCK
  5
BEC
100
AcDbEntity
  8
0
100
AcDbBlockBegin
  2
*D8
 70
     1
 10
0.0
 20
0.0
 30
0.0
  3
*D8
  1

  0
LINE
  5
FB1
100
AcDbEntity
  8
DIM
 62
     0
100
AcDbLine
 10
138.413654
 20
118.434743
 30
0.0
 11
138.413654
 21
102.372237
 31
0.0
  0
LINE
  5
FB2
100
AcDbEntity
  8
DIM
 62
     0
100
AcDbLine
 10
126.413654
 20
123.842659
 30
0.0
 11
126.413654
 21
102.372237
 31
0.0
  0
LINE
  5
FB3
100
AcDbEntity
  8
DIM
 62
     0
100
AcDbLine
 10
135.913654
 20
103.622237
 30
0.0
 11
128.913654
 21
103.622237
 31
0.0
  0
SOLID
  5
FB4
100
AcDbEntity
  8
DIM
 62
     0
100
AcDbTrace
 10
135.913654
 20
104.038904
 30
0.0
 11
135.913654
 21
103.205571
 31
0.0
 12
138.413654
 22
103.622237
 32
0.0
 13
138.413654
 23
103.622237
 33
0.0
  0
SOLID
  5
FB5
100
AcDbEntity
  8
DIM
 62
     0
100
AcDbTrace
 10
128.913654
 20
104.038904
 30
0.0
 11
128.913654
 21
103.205571
 31
0.0
 12
126.413654
 22
103.622237
 32
0.0
 13
126.413654
 23
103.622237
 33
0.0
  0
MTEXT
  5
FB6
100
AcDbEntity
  8
DIM
100
AcDbMText
 10
132.413654
 20
106.072237
 30
0.0
 40
2.5
 41
0.0
 71
     5
 72
     5
  1
\A1;12
  7
BIGFONT
1001
ACAD
1000
MTEXTBEGIN
1070
    73
1070
     1
1070
    44
1040
1.0
1070
    74
1070
     0
1000
MTEXTEND
  0
POINT
  5
FB7
100
AcDbEntity
  8
DEFPOINTS
 62
     0
100
AcDbPoint
 10
138.413654
 20
119.059743
 30
0.0
  0
POINT
  5
FB8
100
AcDbEntity
  8
DEFPOINTS
 62
     0
100
AcDbPoint
 10
126.413654
 20
124.467659
 30
0.0
  0
POINT
  5
FB9
100
AcDbEntity
  8
DEFPOINTS
 62
     0
100
AcDbPoint
 10
126.413654
 20
103.622237
 30
0.0
  0
ENDBLK
  5
BF6
100
AcDbEntity
  8
0
100
AcDbBlockEnd
  0
BLOCK
  5
BF9
100
AcDbEntity
  8
0
100
AcDbBlockBegin
  2
*D9
 70
     1
 10
0.0
 20
0.0
 30
0.0
  3
*D9
  1

  0
LINE
  5
FA6
100
AcDbEntity
  8
DIM
 62
     0
100
AcDbLine
 10
137.413654
 20
121.354784
 30
0.0
 11
137.413654
 21
109.376781
 31
0.0
  0
LINE
  5
FA7
100
AcDbEntity
  8
DIM
 62
     0
100
AcDbLine
 10
139.413654
 20
121.354784
 30
0.0
 11
139.413654
 21
109.376781
 31
0.0
  0
LINE
  5
FA8
100
AcDbEntity
  8
DIM
 62
     0
100
AcDbLine
 10
134.913654
 20
110.626781
 30
0.0
 11
132.413654
 21
110.626781
 31
0.0
  0
LINE
  5
FA9
100
AcDbEntity
  8
DIM
 62
     0
100
AcDbLine
 10
141.913654
 20
110.626781
 30
0.0
 11
148.48032
 21
110.626781
 31
0.0
  0
LINE
  5
FAA
100
AcDbEntity
  8
DIM
 62
     0
100
AcDbLine
 10
137.413654
 20
110.626781
 30
0.0
 11
139.413654
 21
110.626781
 31
0.0
  0
SOLID
  5
FAB
100
AcDbEntity
  8
DIM
 62
     0
100
AcDbTrace
 10
134.913654
 20
111.043447
 30
0.0
 11
134.913654
 21
110.210114
 31
0.0
 12
137.413654
 22
110.626781
 32
0.0
 13
137.413654
 23
110.626781
 33
0.0
  0
SOLID
  5
FAC
100
AcDbEntity
  8
DIM
 62
     0
100
AcDbTrace
 10
141.913654
 20
111.043447
 30
0.0
 11
141.913654
 21
110.210114
 31
0.0
 12
139.413654
 22
110.626781
 32
0.0
 13
139.413654
 23
110.626781
 33
0.0
  0
MTEXT
  5
FAD
100
AcDbEntity
  8
DIM
100
AcDbMText
 10
146.446987
 20
113.076781
 30
0.0
 40
2.5
 41
0.0
 71
     5
 72
     5
  1
\A1;2
  7
BIGFONT
1001
ACAD
1000
MTEXTBEGIN
1070
    73
1070
     1
1070
    44
1040
1.0
1070
    74
1070
     0
1000
MTEXTEND
  0
POINT
  5
FAE
100
AcDbEntity
  8
DEFPOINTS
 62
     0
100
AcDbPoint
 10
137.413654
 20
121.979784
 30
0.0
  0
POINT
  5
FAF
100
AcDbEntity
  8
DEFPOINTS
 62
     0
100
AcDbPoint
 10
139.413654
 20
121.979784
 30
0.0
  0
POINT
  5
FB0
100
AcDbEntity
  8
DEFPOINTS
 62
     0
100
AcDbPoint
 10
139.413654
 20
110.626781
 30
0.0
  0
ENDBLK
  5
C05
100
AcDbEntity
  8
0
100
AcDbBlockEnd
  0
BLOCK
  5
F06
100
AcDbEntity
  8
0
100
AcDbBlockBegin
  2
_OPEN30
 70
     0
 10
0.0
 20
0.0
 30
0.0
  3
_OPEN30
  1

  0
LINE
  5
F03
100
AcDbEntity
  8
0
 62
     0
100
AcDbLine
 10
-1.0
 20
0.267949
 30
0.0
 11
0.0
 21
0.0
 31
0.0
  0
LINE
  5
F04
100
AcDbEntity
  8
0
 62
     0
100
AcDbLine
 10
0.0
 20
0.0
 30
0.0
 11
-1.0
 21
-0.267949
 31
0.0
  0
LINE
  5
F05
100
AcDbEntity
  8
0
 62
     0
100
AcDbLine
 10
0.0
 20
0.0
 30
0.0
 11
-1.0
 21
0.0
 31
0.0
  0
ENDBLK
  5
F07
100
AcDbEntity
  8
0
100
AcDbBlockEnd
  0
BLOCK
  5
F0A
100
AcDbEntity
  8
0
100
AcDbBlockBegin
  2
GENAXEH
 70
     0
 10
0.0
 20
0.0
 30
0.0
  3
GENAXEH
  1

  0
LINE
  5
F09
100
AcDbEntity
  8
0
100
AcDbLine
 10
-1.0
 20
0.0
 30
0.0
 11
1.0
 21
0.0
 31
0.0
  0
ENDBLK
  5
F0B
100
AcDbEntity
  8
0
100
AcDbBlockEnd
  0
ENDSEC
  0
SECTION
  2
ENTITIES
  0
TEXT
  5
3E9
100
AcDbEntity
  8
図枠部品表
 62
     3
100
AcDbText
 10
403.65269
 20
422.521663
 30
0.0
 40
2.4325
  1

 41
0.8
  7
KANJI
 72
     1
 11
403.65269
 21
423.737913
 31
0.0
100
AcDbText
 73
     2
  0
TEXT
  5
A9F
100
AcDbEntity
  8
図枠
 62
     7
100
AcDbText
 10
162.933452
 20
10.11536
 30
0.0
 40
2.6
  1

  7
KANJI
 72
     1
 11
162.933452
 21
11.41536
 31
0.0
100
AcDbText
 73
     2
  0
LINE
  5
AFC
100
AcDbEntity
  8
CENTER
100
AcDbLine
 10
105.510283
 20
151.963113
 30
0.0
 11
171.317024
 21
151.963113
 31
0.0
  0
LINE
  5
AFD
100
AcDbEntity
  8
CENTER
100
AcDbLine
 10
138.413654
 20
113.876597
 30
0.0
 11
138.413654
 21
184.866484
 31
0.0
  0
ARC
  5
AFF
100
AcDbEntity
  8
0
100
AcDbCircle
 10
138.413654
 20
151.963113
 30
0.0
 40
30.0
100
AcDbArc
 50
271.910213
 51
268.089787
  0
ARC
  5
B00
100
AcDbEntity
  8
0
100
AcDbCircle
 10
138.413654
 20
151.963113
 30
0.0
 40
17.5
100
AcDbArc
 50
273.275829
 51
266.724171
  0
ARC
  5
B01
100
AcDbEntity
  8
0
100
AcDbCircle
 10
138.413654
 20
151.963113
 30
0.0
 40
29.0
100
AcDbArc
 50
271.976108
 51
268.023892
  0
ARC
  5
B02
100
AcDbEntity
  8
0
100
AcDbCircle
 10
138.413654
 20
151.963113
 30
0.0
 40
18.5
100
AcDbArc
 50
273.098579
 51
266.901421
  0
LINE
  5
B04
100
AcDbEntity
  8
0
100
AcDbLine
 10
139.413654
 20
121.979784
 30
0.0
 11
139.413654
 21
134.491708
 31
0.0
  0
LINE
  5
B06
100
AcDbEntity
  8
0
100
AcDbLine
 10
137.413654
 20
134.491708
 30
0.0
 11
137.413654
 21
121.979784
 31
0.0
  0
LINE
  5
B09
100
AcDbEntity
  8
CENTER
100
AcDbLine
 10
114.884273
 20
128.963113
 30
0.0
 11
161.943035
 21
128.963113
 31
0.0
  0
LINE
  5
B13
100
AcDbEntity
  8
0
  6
HIDDEN
 62
     3
100
AcDbLine
 10
150.800204
 20
131.963113
 30
0.0
 11
160.774334
 21
131.963113
 31
0.0
  0
LINE
  5
B16
100
AcDbEntity
  8
0
  6
HIDDEN
 62
     3
100
AcDbLine
 10
150.800204
 20
125.963113
 30
0.0
 11
153.380283
 21
125.963113
 31
0.0
  0
LINE
  5
B1A
100
AcDbEntity
  8
0
  6
HIDDEN
100
AcDbLine
 10
126.413654
 20
125.463113
 30
0.0
 11
137.413654
 21
125.463113
 31
0.0
  0
LINE
  5
B1C
100
AcDbEntity
  8
0
  6
HIDDEN
100
AcDbLine
 10
126.413654
 20
124.467659
 30
0.0
 11
126.413654
 21
134.963113
 31
0.0
  0
LINE
  5
B1E
100
AcDbEntity
  8
0
  6
HIDDEN
100
AcDbLine
 10
113.69524
 20
134.963113
 30
0.0
 11
126.413654
 21
134.963113
 31
0.0
  0
LINE
  5
B20
100
AcDbEntity
  8
0
  6
HIDDEN
100
AcDbLine
 10
126.413654
 20
132.463113
 30
0.0
 11
137.413654
 21
132.463113
 31
0.0
  0
LINE
  5
B23
100
AcDbEntity
  8
CENTER
100
AcDbLine
 10
63.303747
 20
138.006828
 30
0.0
 11
63.303747
 21
119.919398
 31
0.0
  0
LINE
  5
B24
100
AcDbEntity
  8
CENTER
100
AcDbLine
 10
73.303747
 20
151.963113
 30
0.0
 11
53.303747
 21
151.963113
 31
0.0
  0
LINE
  5
B25
100
AcDbEntity
  8
CENTER
100
AcDbLine
 10
72.347462
 20
128.963113
 30
0.0
 11
54.260031
 21
128.963113
 31
0.0
  0
LINE
  5
B26
100
AcDbEntity
  8
0
100
AcDbLine
 10
69.803747
 20
181.963113
 30
0.0
 11
56.803747
 21
181.963113
 31
0.0
  0
LINE
  5
B28
100
AcDbEntity
  8
0
100
AcDbLine
 10
55.803747
 20
180.963113
 30
0.0
 11
55.803747
 21
122.963113
 31
0.0
  0
LINE
  5
B2A
100
AcDbEntity
  8
0
100
AcDbLine
 10
70.803747
 20
122.963113
 30
0.0
 11
70.803747
 21
180.963113
 31
0.0
  0
LINE
  5
B2C
100
AcDbEntity
  8
0
100
AcDbLine
 10
56.803747
 20
121.963113
 30
0.0
 11
69.803747
 21
121.963113
 31
0.0
  0
LINE
  5
B2D
100
AcDbEntity
  8
0
100
AcDbLine
 10
70.803747
 20
180.963113
 30
0.0
 11
69.803747
 21
181.963113
 31
0.0
  0
LINE
  5
B2E
100
AcDbEntity
  8
0
100
AcDbLine
 10
70.803747
 20
122.963113
 30
0.0
 11
69.803747
 21
121.963113
 31
0.0
  0
LINE
  5
B2F
100
AcDbEntity
  8
0
100
AcDbLine
 10
56.803747
 20
121.963113
 30
0.0
 11
55.803747
 21
122.963113
 31
0.0
  0
LINE
  5
B30
100
AcDbEntity
  8
0
100
AcDbLine
 10
55.803747
 20
180.963113
 30
0.0
 11
56.803747
 21
181.963113
 31
0.0
  0
LINE
  5
B3A
100
AcDbEntity
  8
0
100
AcDbLine
 10
69.303747
 20
124.467659
 30
0.0
 11
65.492557
 21
124.467659
 31
0.0
  0
ARC
  5
B3D
100
AcDbEntity
  8
0
100
AcDbCircle
 10
63.303747
 20
128.963113
 30
0.0
 40
6.0
100
AcDbArc
 50
0.0
 51
180.0
  0
LINE
  5
B3F
100
AcDbEntity
  8
0
100
AcDbLine
 10
69.303747
 20
128.963113
 30
0.0
 11
69.303747
 21
124.467659
 31
0.0
  0
LINE
  5
B40
100
AcDbEntity
  8
0
100
AcDbLine
 10
57.303747
 20
128.963113
 30
0.0
 11
57.303747
 21
124.467659
 31
0.0
  0
LINE
  5
B41
100
AcDbEntity
  8
0
  6
HIDDEN
100
AcDbLine
 10
69.803747
 20
169.463113
 30
0.0
 11
56.803747
 21
169.463113
 31
0.0
  0
LINE
  5
B42
100
AcDbEntity
  8
0
  6
HIDDEN
100
AcDbLine
 10
69.803747
 20
134.463113
 30
0.0
 11
56.803747
 21
134.463113
 31
0.0
  0
LINE
  5
B43
100
AcDbEntity
  8
0
100
AcDbLine
 10
69.803747
 20
181.963113
 30
0.0
 11
69.803747
 21
121.963113
 31
0.0
  0
LINE
  5
B44
100
AcDbEntity
  8
0
100
AcDbLine
 10
56.803747
 20
181.963113
 30
0.0
 11
56.803747
 21
121.963113
 31
0.0
  0
LINE
  5
B45
100
AcDbEntity
  8
0
100
AcDbLine
 10
69.803747
 20
169.463113
 30
0.0
 11
70.803747
 21
170.463113
 31
0.0
  0
LINE
  5
B46
100
AcDbEntity
  8
0
100
AcDbLine
 10
56.803747
 20
169.463113
 30
0.0
 11
55.803747
 21
170.463113
 31
0.0
  0
LINE
  5
B47
100
AcDbEntity
  8
0
100
AcDbLine
 10
56.803747
 20
134.463113
 30
0.0
 11
55.803747
 21
133.463113
 31
0.0
  0
LINE
  5
B48
100
AcDbEntity
  8
0
100
AcDbLine
 10
69.803747
 20
134.463113
 30
0.0
 11
70.803747
 21
133.463113
 31
0.0
  0
LINE
  5
ED0
100
AcDbEntity
  8
0
100
AcDbLine
 10
11.394933
 20
122.963113
 30
0.0
 11
11.394933
 21
133.463113
 31
0.0
  0
LINE
  5
ED1
100
AcDbEntity
  8
0
100
AcDbLine
 10
-3.605067
 20
180.963113
 30
0.0
 11
-3.605067
 21
170.463113
 31
0.0
  0
LINE
  5
ED4
100
AcDbEntity
  8
CENTER
100
AcDbLine
 10
3.894933
 20
138.006828
 30
0.0
 11
3.894933
 21
119.919398
 31
0.0
  0
LINE
  5
ED6
100
AcDbEntity
  8
0
100
AcDbLine
 10
-2.605067
 20
121.963113
 30
0.0
 11
10.394933
 21
121.963113
 31
0.0
  0
LINE
  5
ED7
100
AcDbEntity
  8
0
100
AcDbLine
 10
-2.605067
 20
121.963113
 30
0.0
 11
-3.605067
 21
122.963113
 31
0.0
  0
LINE
  5
ED8
100
AcDbEntity
  8
0
100
AcDbLine
 10
11.394933
 20
122.963113
 30
0.0
 11
10.394933
 21
121.963113
 31
0.0
  0
LINE
  5
ED9
100
AcDbEntity
  8
0
100
AcDbLine
 10
10.394933
 20
134.463113
 30
0.0
 11
-2.605067
 21
134.463113
 31
0.0
  0
CIRCLE
  5
EDA
100
AcDbEntity
  8
0
100
AcDbCircle
 10
3.894933
 20
128.963113
 30
0.0
 40
3.0
  0
CIRCLE
  5
EDC
100
AcDbEntity
  8
0
100
AcDbCircle
 10
3.894933
 20
128.963113
 30
0.0
 40
3.5
  0
CIRCLE
  5
EDD
100
AcDbEntity
  8
0
 62
     3
100
AcDbCircle
 10
3.894933
 20
128.963113
 30
0.0
 40
2.4585
  0
LINE
  5
EDE
100
AcDbEntity
  8
CENTER
100
AcDbLine
 10
12.938649
 20
128.963113
 30
0.0
 11
-5.148782
 21
128.963113
 31
0.0
  0
LINE
  5
EDF
100
AcDbEntity
  8
0
100
AcDbLine
 10
-2.605067
 20
134.463113
 30
0.0
 11
-3.605067
 21
133.463113
 31
0.0
  0
LINE
  5
EE0
100
AcDbEntity
  8
0
100
AcDbLine
 10
10.394933
 20
134.463113
 30
0.0
 11
11.394933
 21
133.463113
 31
0.0
  0
LINE
  5
EE1
100
AcDbEntity
  8
0
100
AcDbLine
 10
10.394933
 20
169.463113
 30
0.0
 11
-2.605067
 21
169.463113
 31
0.0
  0
LINE
  5
EE2
100
AcDbEntity
  8
CENTER
100
AcDbLine
 10
13.894933
 20
151.963113
 30
0.0
 11
-6.105067
 21
151.963113
 31
0.0
  0
LINE
  5
EE3
100
AcDbEntity
  8
0
100
AcDbLine
 10
-2.605067
 20
169.463113
 30
0.0
 11
-3.605067
 21
170.463113
 31
0.0
  0
LINE
  5
EE4
100
AcDbEntity
  8
0
100
AcDbLine
 10
10.394933
 20
169.463113
 30
0.0
 11
11.394933
 21
170.463113
 31
0.0
  0
LINE
  5
EE5
100
AcDbEntity
  8
0
100
AcDbLine
 10
10.394933
 20
181.963113
 30
0.0
 11
-2.605067
 21
181.963113
 31
0.0
  0
LINE
  5
EE6
100
AcDbEntity
  8
0
100
AcDbLine
 10
-3.605067
 20
180.963113
 30
0.0
 11
-2.605067
 21
181.963113
 31
0.0
  0
LINE
  5
EE7
100
AcDbEntity
  8
0
100
AcDbLine
 10
11.394933
 20
180.963113
 30
0.0
 11
10.394933
 21
181.963113
 31
0.0
  0
POINT
  5
F3C
100
AcDbEntity
  8
0
 60
     1
100
AcDbPoint
 10
184.592134
 20
188.451031
 30
0.0
 50
90.0
1001
GENIUS_GENOBJ-NBEHI-BHF_13
1002
{
1000
OWNER
1000
GENBEHI
1002
}
1001
GENIUS_GENOENT_13
1002
{
1000
MYREF
1005
F3C
1002
}
1002
{
1000
GRP
1005
0
1002
}
1001
GENIUS_GENOLIS_13
1002
{
1000
ENT
1005
0
1002
}
1001
GENIUS_GENBH_13
1002
{
1000
OIUMAP
1000
OIU
1002
}
1002
{
1000
FLAGS
1070
    32
1002
}
1002
{
1000
BGO
1005
F3D
1002
}
1001
GENIUS_GENODEF_13
1002
{
1000
HIER
1070
     1
1002
}
1002
{
1000
MANEDIT
1070
     1
1002
}
1002
{
1000
NOSEL
1070
     1
1002
}
1002
{
1000
BEHIND
1070
     0
1002
}
1002
{
1000
REACTOR
1002
}
  0
POINT
  5
F3D
100
AcDbEntity
  8
0
 60
     1
100
AcDbPoint
 10
184.592134
 20
188.451031
 30
0.0
 50
90.0
1001
GENIUS_GENOBJ-NBEHI-BHB_13
1002
{
1000
OWNER
1000
GENBEHI
1002
}
1001
GENIUS_GENOENT_13
1002
{
1000
MYREF
1005
F3D
1002
}
1002
{
1000
GRP
1005
0
1002
}
1001
GENIUS_GENOLIS_13
1002
{
1000
ENT
1002
}
1001
GENIUS_GENODEF_13
1002
{
1000
HIER
1070
     1
1002
}
1002
{
1000
MANEDIT
1070
     0
1002
}
1002
{
1000
NOSEL
1070
     1
1002
}
1002
{
1000
BEHIND
1070
     0
1002
}
1002
{
1000
REACTOR
1002
}
1002
{
1000
OTHER
1070
     1
1002
}
1001
GENIUS_GENBH_13
1002
{
1000
FGO
1005
F3C
1002
}
  0
POINT
  5
F3E
100
AcDbEntity
  8
0
 60
     1
100
AcDbPoint
 10
184.592134
 20
188.451031
 30
0.0
 50
90.0
1001
GENIUS_GENOBJ-NBEHI-BHF_13
1002
{
1000
OWNER
1000
GENBEHI
1002
}
1001
GENIUS_GENOENT_13
1002
{
1000
MYREF
1005
F3E
1002
}
1002
{
1000
GRP
1005
0
1002
}
1001
GENIUS_GENOLIS_13
1002
{
1000
ENT
1005
0
1002
}
1001
GENIUS_GENODEF_13
1002
{
1000
HIER
1070
     1
1002
}
1002
{
1000
MANEDIT
1070
     0
1002
}
1002
{
1000
NOSEL
1070
     1
1002
}
1002
{
1000
BEHIND
1070
     0
1002
}
1002
{
1000
REACTOR
1002
}
1001
GENIUS_GENBH_13
1002
{
1000
OIUMAP
1000
OIU
1002
}
1002
{
1000
FLAGS
1070
    32
1002
}
1002
{
1000
BGO
1005
F3F
1002
}
  0
POINT
  5
F3F
100
AcDbEntity
  8
0
 60
     1
100
AcDbPoint
 10
184.592134
 20
188.451031
 30
0.0
 50
90.0
1001
GENIUS_GENOBJ-NBEHI-BHB_13
1002
{
1000
OWNER
1000
GENBEHI
1002
}
1001
GENIUS_GENOENT_13
1002
{
1000
MYREF
1005
F3F
1002
}
1002
{
1000
GRP
1005
0
1002
}
1001
GENIUS_GENOLIS_13
1002
{
1000
ENT
1002
}
1001
GENIUS_GENODEF_13
1002
{
1000
HIER
1070
     1
1002
}
1002
{
1000
MANEDIT
1070
     0
1002
}
1002
{
1000
NOSEL
1070
     1
1002
}
1002
{
1000
BEHIND
1070
     0
1002
}
1002
{
1000
REACTOR
1002
}
1002
{
1000
OTHER
1070
     1
1002
}
1001
GENIUS_GENBH_13
1002
{
1000
FGO
1005
F3E
1002
}
  0
POINT
  5
F40
100
AcDbEntity
  8
0
 60
     1
100
AcDbPoint
 10
184.592134
 20
188.451031
 30
0.0
 50
90.0
1001
GENIUS_GENOBJ-NBEHI-BHF_13
1002
{
1000
OWNER
1000
GENBEHI
1002
}
1001
GENIUS_GENOENT_13
1002
{
1000
MYREF
1005
F40
1002
}
1002
{
1000
GRP
1005
0
1002
}
1001
GENIUS_GENOLIS_13
1002
{
1000
ENT
1005
0
1002
}
1001
GENIUS_GENBH_13
1002
{
1000
OIUMAP
1000
OIU
1002
}
1002
{
1000
FLAGS
1070
    32
1002
}
1002
{
1000
BGO
1005
F41
1002
}
1001
GENIUS_GENODEF_13
1002
{
1000
HIER
1070
     1
1002
}
1002
{
1000
MANEDIT
1070
     1
1002
}
1002
{
1000
NOSEL
1070
     1
1002
}
1002
{
1000
BEHIND
1070
     0
1002
}
1002
{
1000
REACTOR
1002
}
  0
POINT
  5
F41
100
AcDbEntity
  8
0
 60
     1
100
AcDbPoint
 10
184.592134
 20
188.451031
 30
0.0
 50
90.0
1001
GENIUS_GENOBJ-NBEHI-BHB_13
1002
{
1000
OWNER
1000
GENBEHI
1002
}
1001
GENIUS_GENOENT_13
1002
{
1000
MYREF
1005
F41
1002
}
1002
{
1000
GRP
1005
0
1002
}
1001
GENIUS_GENOLIS_13
1002
{
1000
ENT
1002
}
1001
GENIUS_GENODEF_13
1002
{
1000
HIER
1070
     1
1002
}
1002
{
1000
MANEDIT
1070
     0
1002
}
1002
{
1000
NOSEL
1070
     1
1002
}
1002
{
1000
BEHIND
1070
     0
1002
}
1002
{
1000
REACTOR
1002
}
1002
{
1000
OTHER
1070
     1
1002
}
1001
GENIUS_GENBH_13
1002
{
1000
FGO
1005
F40
1002
}
  0
POINT
  5
F42
100
AcDbEntity
  8
0
 60
     1
100
AcDbPoint
 10
184.592134
 20
188.451031
 30
0.0
 50
90.0
1001
GENIUS_GENOBJ-F-SCPASSM_13
1002
{
1000
OWNER
1000
GEF
1002
}
1001
GENIUS_GENOENT_13
1002
{
1000
MYREF
1005
F42
1002
}
1002
{
1000
GRP
1005
0
1002
}
1001
GENIUS_GENOLIS_13
1002
{
1000
ENT
1005
0
1005
0
1002
}
1001
GENIUS_GENODEF_13
1002
{
1000
HIER
1070
   200
1002
}
1002
{
1000
MANEDIT
1070
     1
1002
}
1002
{
1000
NOSEL
1070
     0
1002
}
1002
{
1000
BEHIND
1070
     0
1002
}
1002
{
1000
REACTOR
1002
}
  0
POINT
  5
F43
100
AcDbEntity
  8
0
 60
     1
100
AcDbPoint
 10
184.592134
 20
188.451031
 30
0.0
 50
90.0
1001
GENIUS_GENOBJ-NBEHI-BHF_13
1002
{
1000
OWNER
1000
GENBEHI
1002
}
1001
GENIUS_GENOENT_13
1002
{
1000
MYREF
1005
F43
1002
}
1002
{
1000
GRP
1005
0
1002
}
1001
GENIUS_GENOLIS_13
1002
{
1000
ENT
1005
0
1002
}
1001
GENIUS_GENODEF_13
1002
{
1000
HIER
1070
     1
1002
}
1002
{
1000
MANEDIT
1070
     0
1002
}
1002
{
1000
NOSEL
1070
     1
1002
}
1002
{
1000
BEHIND
1070
     0
1002
}
1002
{
1000
REACTOR
1002
}
1001
GENIUS_GENBH_13
1002
{
1000
OIUMAP
1000
OIU
1002
}
1002
{
1000
FLAGS
1070
    32
1002
}
1002
{
1000
BGO
1005
F44
1002
}
  0
POINT
  5
F44
100
AcDbEntity
  8
0
 60
     1
100
AcDbPoint
 10
184.592134
 20
188.451031
 30
0.0
 50
90.0
1001
GENIUS_GENOBJ-NBEHI-BHB_13
1002
{
1000
OWNER
1000
GENBEHI
1002
}
1001
GENIUS_GENOENT_13
1002
{
1000
MYREF
1005
F44
1002
}
1002
{
1000
GRP
1005
0
1002
}
1001
GENIUS_GENOLIS_13
1002
{
1000
ENT
1002
}
1001
GENIUS_GENODEF_13
1002
{
1000
HIER
1070
     1
1002
}
1002
{
1000
MANEDIT
1070
     0
1002
}
1002
{
1000
NOSEL
1070
     1
1002
}
1002
{
1000
BEHIND
1070
     0
1002
}
1002
{
1000
REACTOR
1002
}
1002
{
1000
OTHER
1070
     1
1002
}
1001
GENIUS_GENBH_13
1002
{
1000
FGO
1005
F43
1002
}
  0
POINT
  5
F45
100
AcDbEntity
  8
0
 60
     1
100
AcDbPoint
 10
184.592134
 20
188.451031
 30
0.0
 50
90.0
1001
GENIUS_GENOBJ-NBEHI-BHF_13
1002
{
1000
OWNER
1000
GENBEHI
1002
}
1001
GENIUS_GENOENT_13
1002
{
1000
MYREF
1005
F45
1002
}
1002
{
1000
GRP
1005
0
1002
}
1001
GENIUS_GENOLIS_13
1002
{
1000
ENT
1005
0
1002
}
1001
GENIUS_GENBH_13
1002
{
1000
OIUMAP
1000
OIU
1002
}
1002
{
1000
FLAGS
1070
    32
1002
}
1002
{
1000
BGO
1005
F46
1002
}
1001
GENIUS_GENODEF_13
1002
{
1000
HIER
1070
     1
1002
}
1002
{
1000
MANEDIT
1070
     1
1002
}
1002
{
1000
NOSEL
1070
     1
1002
}
1002
{
1000
BEHIND
1070
     0
1002
}
1002
{
1000
REACTOR
1002
}
  0
POINT
  5
F46
100
AcDbEntity
  8
0
 60
     1
100
AcDbPoint
 10
184.592134
 20
188.451031
 30
0.0
 50
90.0
1001
GENIUS_GENOBJ-NBEHI-BHB_13
1002
{
1000
OWNER
1000
GENBEHI
1002
}
1001
GENIUS_GENOENT_13
1002
{
1000
MYREF
1005
F46
1002
}
1002
{
1000
GRP
1005
0
1002
}
1001
GENIUS_GENOLIS_13
1002
{
1000
ENT
1005
0
1002
}
1001
GENIUS_GENODEF_13
1002
{
1000
HIER
1070
     1
1002
}
1002
{
1000
MANEDIT
1070
     0
1002
}
1002
{
1000
NOSEL
1070
     1
1002
}
1002
{
1000
BEHIND
1070
     0
1002
}
1002
{
1000
REACTOR
1002
}
1002
{
1000
OTHER
1070
     1
1002
}
1001
GENIUS_GENBH_13
1002
{
1000
FGO
1005
F45
1002
}
  0
POINT
  5
F47
100
AcDbEntity
  8
0
 60
     1
100
AcDbPoint
 10
184.592134
 20
188.451031
 30
0.0
 50
90.0
1001
GENIUS_GENOBJ-F-SCPASSM_13
1002
{
1000
OWNER
1000
GEF
1002
}
1001
GENIUS_GENOENT_13
1002
{
1000
MYREF
1005
F47
1002
}
1002
{
1000
GRP
1005
0
1002
}
1001
GENIUS_GENOLIS_13
1002
{
1000
ENT
1005
0
1005
0
1002
}
1001
GENIUS_GENODEF_13
1002
{
1000
HIER
1070
   200
1002
}
1002
{
1000
MANEDIT
1070
     1
1002
}
1002
{
1000
NOSEL
1070
     0
1002
}
1002
{
1000
BEHIND
1070
     0
1002
}
1002
{
1000
REACTOR
1002
}
  0
POINT
  5
F48
100
AcDbEntity
  8
0
 60
     1
100
AcDbPoint
 10
184.592134
 20
188.451031
 30
0.0
 50
90.0
1001
GENIUS_GENOBJ-NBEHI-BHF_13
1002
{
1000
OWNER
1000
GENBEHI
1002
}
1001
GENIUS_GENOENT_13
1002
{
1000
MYREF
1005
F48
1002
}
1002
{
1000
GRP
1005
0
1002
}
1001
GENIUS_GENOLIS_13
1002
{
1000
ENT
1005
0
1002
}
1001
GENIUS_GENODEF_13
1002
{
1000
HIER
1070
     1
1002
}
1002
{
1000
MANEDIT
1070
     0
1002
}
1002
{
1000
NOSEL
1070
     1
1002
}
1002
{
1000
BEHIND
1070
     0
1002
}
1002
{
1000
REACTOR
1002
}
1001
GENIUS_GENBH_13
1002
{
1000
OIUMAP
1000
OIU
1002
}
1002
{
1000
FLAGS
1070
    32
1002
}
1002
{
1000
BGO
1005
F49
1002
}
  0
POINT
  5
F49
100
AcDbEntity
  8
0
 60
     1
100
AcDbPoint
 10
184.592134
 20
188.451031
 30
0.0
 50
90.0
1001
GENIUS_GENOBJ-NBEHI-BHB_13
1002
{
1000
OWNER
1000
GENBEHI
1002
}
1001
GENIUS_GENOENT_13
1002
{
1000
MYREF
1005
F49
1002
}
1002
{
1000
GRP
1005
0
1002
}
1001
GENIUS_GENOLIS_13
1002
{
1000
ENT
1002
}
1001
GENIUS_GENODEF_13
1002
{
1000
HIER
1070
     1
1002
}
1002
{
1000
MANEDIT
1070
     0
1002
}
1002
{
1000
NOSEL
1070
     1
1002
}
1002
{
1000
BEHIND
1070
     0
1002
}
1002
{
1000
REACTOR
1002
}
1002
{
1000
OTHER
1070
     1
1002
}
1001
GENIUS_GENBH_13
1002
{
1000
FGO
1005
F48
1002
}
  0
POINT
  5
F4A
100
AcDbEntity
  8
0
 60
     1
100
AcDbPoint
 10
184.592134
 20
188.451031
 30
0.0
 50
90.0
1001
GENIUS_GENOBJ-NBEHI-BHF_13
1002
{
1000
OWNER
1000
GENBEHI
1002
}
1001
GENIUS_GENOENT_13
1002
{
1000
MYREF
1005
F4A
1002
}
1002
{
1000
GRP
1005
0
1002
}
1001
GENIUS_GENOLIS_13
1002
{
1000
ENT
1005
0
1002
}
1001
GENIUS_GENBH_13
1002
{
1000
OIUMAP
1000
OIU
1002
}
1002
{
1000
FLAGS
1070
    32
1002
}
1002
{
1000
BGO
1005
F4B
1002
}
1001
GENIUS_GENODEF_13
1002
{
1000
HIER
1070
     1
1002
}
1002
{
1000
MANEDIT
1070
     1
1002
}
1002
{
1000
NOSEL
1070
     1
1002
}
1002
{
1000
BEHIND
1070
     0
1002
}
1002
{
1000
REACTOR
1002
}
  0
POINT
  5
F4B
100
AcDbEntity
  8
0
 60
     1
100
AcDbPoint
 10
184.592134
 20
188.451031
 30
0.0
 50
90.0
1001
GENIUS_GENOBJ-NBEHI-BHB_13
1002
{
1000
OWNER
1000
GENBEHI
1002
}
1001
GENIUS_GENOENT_13
1002
{
1000
MYREF
1005
F4B
1002
}
1002
{
1000
GRP
1005
0
1002
}
1001
GENIUS_GENOLIS_13
1002
{
1000
ENT
1005
0
1002
}
1001
GENIUS_GENODEF_13
1002
{
1000
HIER
1070
     1
1002
}
1002
{
1000
MANEDIT
1070
     0
1002
}
1002
{
1000
NOSEL
1070
     1
1002
}
1002
{
1000
BEHIND
1070
     0
1002
}
1002
{
1000
REACTOR
1002
}
1002
{
1000
OTHER
1070
     1
1002
}
1001
GENIUS_GENBH_13
1002
{
1000
FGO
1005
F4A
1002
}
  0
POINT
  5
F4C
100
AcDbEntity
  8
0
 60
     1
100
AcDbPoint
 10
184.592134
 20
188.451031
 30
0.0
 50
90.0
1001
GENIUS_GENOBJ-F-SCPASSM_13
1002
{
1000
OWNER
1000
GEF
1002
}
1001
GENIUS_GENOENT_13
1002
{
1000
MYREF
1005
F4C
1002
}
1002
{
1000
GRP
1005
0
1002
}
1001
GENIUS_GENOLIS_13
1002
{
1000
ENT
1005
0
1005
0
1002
}
1001
GENIUS_GENODEF_13
1002
{
1000
HIER
1070
   200
1002
}
1002
{
1000
MANEDIT
1070
     1
1002
}
1002
{
1000
NOSEL
1070
     0
1002
}
1002
{
1000
BEHIND
1070
     0
1002
}
1002
{
1000
REACTOR
1002
}
  0
POINT
  5
F4D
100
AcDbEntity
  8
0
 60
     1
100
AcDbPoint
 10
184.592134
 20
188.451031
 30
0.0
 50
90.0
1001
GENIUS_GENOBJ-NBEHI-BHF_13
1002
{
1000
OWNER
1000
GENBEHI
1002
}
1001
GENIUS_GENOENT_13
1002
{
1000
MYREF
1005
F4D
1002
}
1002
{
1000
GRP
1005
0
1002
}
1001
GENIUS_GENOLIS_13
1002
{
1000
ENT
1005
0
1002
}
1001
GENIUS_GENODEF_13
1002
{
1000
HIER
1070
     1
1002
}
1002
{
1000
MANEDIT
1070
     0
1002
}
1002
{
1000
NOSEL
1070
     1
1002
}
1002
{
1000
BEHIND
1070
     0
1002
}
1002
{
1000
REACTOR
1002
}
1001
GENIUS_GENBH_13
1002
{
1000
OIUMAP
1000
OIU
1002
}
1002
{
1000
FLAGS
1070
    32
1002
}
1002
{
1000
BGO
1005
F4E
1002
}
  0
POINT
  5
F4E
100
AcDbEntity
  8
0
 60
     1
100
AcDbPoint
 10
184.592134
 20
188.451031
 30
0.0
 50
90.0
1001
GENIUS_GENOBJ-NBEHI-BHB_13
1002
{
1000
OWNER
1000
GENBEHI
1002
}
1001
GENIUS_GENOENT_13
1002
{
1000
MYREF
1005
F4E
1002
}
1002
{
1000
GRP
1005
0
1002
}
1001
GENIUS_GENOLIS_13
1002
{
1000
ENT
1002
}
1001
GENIUS_GENODEF_13
1002
{
1000
HIER
1070
     1
1002
}
1002
{
1000
MANEDIT
1070
     0
1002
}
1002
{
1000
NOSEL
1070
     1
1002
}
1002
{
1000
BEHIND
1070
     0
1002
}
1002
{
1000
REACTOR
1002
}
1002
{
1000
OTHER
1070
     1
1002
}
1001
GENIUS_GENBH_13
1002
{
1000
FGO
1005
F4D
1002
}
  0
POINT
  5
F4F
100
AcDbEntity
  8
0
 60
     1
100
AcDbPoint
 10
184.592134
 20
188.451031
 30
0.0
 50
90.0
1001
GENIUS_GENOBJ-NBEHI-BHF_13
1002
{
1000
OWNER
1000
GENBEHI
1002
}
1001
GENIUS_GENOENT_13
1002
{
1000
MYREF
1005
F4F
1002
}
1002
{
1000
GRP
1005
0
1002
}
1001
GENIUS_GENOLIS_13
1002
{
1000
ENT
1005
0
1002
}
1001
GENIUS_GENBH_13
1002
{
1000
OIUMAP
1000
OIU
1002
}
1002
{
1000
FLAGS
1070
    32
1002
}
1002
{
1000
BGO
1005
F50
1002
}
1001
GENIUS_GENODEF_13
1002
{
1000
HIER
1070
     1
1002
}
1002
{
1000
MANEDIT
1070
     1
1002
}
1002
{
1000
NOSEL
1070
     1
1002
}
1002
{
1000
BEHIND
1070
     0
1002
}
1002
{
1000
REACTOR
1002
}
  0
POINT
  5
F50
100
AcDbEntity
  8
0
 60
     1
100
AcDbPoint
 10
184.592134
 20
188.451031
 30
0.0
 50
90.0
1001
GENIUS_GENOBJ-NBEHI-BHB_13
1002
{
1000
OWNER
1000
GENBEHI
1002
}
1001
GENIUS_GENOENT_13
1002
{
1000
MYREF
1005
F50
1002
}
1002
{
1000
GRP
1005
0
1002
}
1001
GENIUS_GENOLIS_13
1002
{
1000
ENT
1005
0
1002
}
1001
GENIUS_GENODEF_13
1002
{
1000
HIER
1070
     1
1002
}
1002
{
1000
MANEDIT
1070
     0
1002
}
1002
{
1000
NOSEL
1070
     1
1002
}
1002
{
1000
BEHIND
1070
     0
1002
}
1002
{
1000
REACTOR
1002
}
1002
{
1000
OTHER
1070
     1
1002
}
1001
GENIUS_GENBH_13
1002
{
1000
FGO
1005
F4F
1002
}
  0
POINT
  5
F51
100
AcDbEntity
  8
0
 60
     1
100
AcDbPoint
 10
184.592134
 20
188.451031
 30
0.0
 50
90.0
1001
GENIUS_GENOBJ-F-SCPASSM_13
1002
{
1000
OWNER
1000
GEF
1002
}
1001
GENIUS_GENOENT_13
1002
{
1000
MYREF
1005
F51
1002
}
1002
{
1000
GRP
1005
0
1002
}
1001
GENIUS_GENOLIS_13
1002
{
1000
ENT
1005
0
1005
0
1002
}
1001
GENIUS_GENODEF_13
1002
{
1000
HIER
1070
   200
1002
}
1002
{
1000
MANEDIT
1070
     1
1002
}
1002
{
1000
NOSEL
1070
     0
1002
}
1002
{
1000
BEHIND
1070
     0
1002
}
1002
{
1000
REACTOR
1002
}
  0
POINT
  5
F52
100
AcDbEntity
  8
0
 60
     1
100
AcDbPoint
 10
184.592134
 20
188.451031
 30
0.0
 50
90.0
1001
GENIUS_GENOBJ-NBEHI-BHB_13
1002
{
1000
OWNER
1000
GENBEHI
1002
}
1001
GENIUS_GENOENT_13
1002
{
1000
MYREF
1005
F52
1002
}
1002
{
1000
GRP
1005
0
1002
}
1001
GENIUS_GENOLIS_13
1002
{
1000
ENT
1002
}
1001
GENIUS_GENODEF_13
1002
{
1000
HIER
1070
     1
1002
}
1002
{
1000
MANEDIT
1070
     0
1002
}
1002
{
1000
NOSEL
1070
     1
1002
}
1002
{
1000
BEHIND
1070
     0
1002
}
1002
{
1000
REACTOR
1002
}
1002
{
1000
OTHER
1070
     1
1002
}
1001
GENIUS_GENBH_13
1002
{
1000
FGO
1005
0
1002
}
  0
POINT
  5
F53
100
AcDbEntity
  8
0
 60
     1
100
AcDbPoint
 10
184.592134
 20
188.451031
 30
0.0
 50
90.0
1001
GENIUS_GENOBJ-NBEHI-BHF_13
1002
{
1000
OWNER
1000
GENBEHI
1002
}
1001
GENIUS_GENOENT_13
1002
{
1000
MYREF
1005
F53
1002
}
1002
{
1000
GRP
1005
0
1002
}
1001
GENIUS_GENOLIS_13
1002
{
1000
ENT
1005
0
1002
}
1001
GENIUS_GENBH_13
1002
{
1000
OIUMAP
1000
OIU
1002
}
1002
{
1000
FLAGS
1070
    32
1002
}
1002
{
1000
BGO
1005
0
1002
}
1001
GENIUS_GENODEF_13
1002
{
1000
HIER
1070
     1
1002
}
1002
{
1000
MANEDIT
1070
     1
1002
}
1002
{
1000
NOSEL
1070
     1
1002
}
1002
{
1000
BEHIND
1070
     0
1002
}
1002
{
1000
REACTOR
1002
}
  0
POINT
  5
F54
100
AcDbEntity
  8
0
 60
     1
100
AcDbPoint
 10
184.592134
 20
188.451031
 30
0.0
 50
90.0
1001
GENIUS_GENOBJ-NBEHI-BHF_13
1002
{
1000
OWNER
1000
GENBEHI
1002
}
1001
GENIUS_GENOENT_13
1002
{
1000
MYREF
1005
F54
1002
}
1002
{
1000
GRP
1005
0
1002
}
1001
GENIUS_GENOLIS_13
1002
{
1000
ENT
1005
0
1002
}
1001
GENIUS_GENODEF_13
1002
{
1000
HIER
1070
     1
1002
}
1002
{
1000
MANEDIT
1070
     0
1002
}
1002
{
1000
NOSEL
1070
     1
1002
}
1002
{
1000
BEHIND
1070
     0
1002
}
1002
{
1000
REACTOR
1002
}
1001
GENIUS_GENBH_13
1002
{
1000
OIUMAP
1000
OIU
1002
}
1002
{
1000
FLAGS
1070
    32
1002
}
1002
{
1000
BGO
1005
F55
1002
}
  0
POINT
  5
F55
100
AcDbEntity
  8
0
 60
     1
100
AcDbPoint
 10
184.592134
 20
188.451031
 30
0.0
 50
90.0
1001
GENIUS_GENOBJ-NBEHI-BHB_13
1002
{
1000
OWNER
1000
GENBEHI
1002
}
1001
GENIUS_GENOENT_13
1002
{
1000
MYREF
1005
F55
1002
}
1002
{
1000
GRP
1005
0
1002
}
1001
GENIUS_GENOLIS_13
1002
{
1000
ENT
1002
}
1001
GENIUS_GENODEF_13
1002
{
1000
HIER
1070
     1
1002
}
1002
{
1000
MANEDIT
1070
     0
1002
}
1002
{
1000
NOSEL
1070
     1
1002
}
1002
{
1000
BEHIND
1070
     0
1002
}
1002
{
1000
REACTOR
1002
}
1002
{
1000
OTHER
1070
     1
1002
}
1001
GENIUS_GENBH_13
1002
{
1000
FGO
1005
F54
1002
}
  0
POINT
  5
F56
100
AcDbEntity
  8
0
 60
     1
100
AcDbPoint
 10
184.592134
 20
188.451031
 30
0.0
 50
90.0
1001
GENIUS_GENOBJ-NBEHI-BHF_13
1002
{
1000
OWNER
1000
GENBEHI
1002
}
1001
GENIUS_GENOENT_13
1002
{
1000
MYREF
1005
F56
1002
}
1002
{
1000
GRP
1005
0
1002
}
1001
GENIUS_GENOLIS_13
1002
{
1000
ENT
1005
0
1002
}
1001
GENIUS_GENBH_13
1002
{
1000
OIUMAP
1000
OIU
1002
}
1002
{
1000
FLAGS
1070
    32
1002
}
1002
{
1000
BGO
1005
F57
1002
}
1001
GENIUS_GENODEF_13
1002
{
1000
HIER
1070
     1
1002
}
1002
{
1000
MANEDIT
1070
     1
1002
}
1002
{
1000
NOSEL
1070
     1
1002
}
1002
{
1000
BEHIND
1070
     0
1002
}
1002
{
1000
REACTOR
1002
}
  0
POINT
  5
F57
100
AcDbEntity
  8
0
 60
     1
100
AcDbPoint
 10
184.592134
 20
188.451031
 30
0.0
 50
90.0
1001
GENIUS_GENOBJ-NBEHI-BHB_13
1002
{
1000
OWNER
1000
GENBEHI
1002
}
1001
GENIUS_GENOENT_13
1002
{
1000
MYREF
1005
F57
1002
}
1002
{
1000
GRP
1005
0
1002
}
1001
GENIUS_GENOLIS_13
1002
{
1000
ENT
1005
0
1002
}
1001
GENIUS_GENODEF_13
1002
{
1000
HIER
1070
     1
1002
}
1002
{
1000
MANEDIT
1070
     0
1002
}
1002
{
1000
NOSEL
1070
     1
1002
}
1002
{
1000
BEHIND
1070
     0
1002
}
1002
{
1000
REACTOR
1002
}
1002
{
1000
OTHER
1070
     1
1002
}
1001
GENIUS_GENBH_13
1002
{
1000
FGO
1005
F56
1002
}
  0
POINT
  5
F58
100
AcDbEntity
  8
0
 60
     1
100
AcDbPoint
 10
184.592134
 20
188.451031
 30
0.0
 50
90.0
1001
GENIUS_GENOBJ-F-SCPASSM_13
1002
{
1000
OWNER
1000
GEF
1002
}
1001
GENIUS_GENOENT_13
1002
{
1000
MYREF
1005
F58
1002
}
1002
{
1000
GRP
1005
0
1002
}
1001
GENIUS_GENOLIS_13
1002
{
1000
ENT
1005
0
1005
0
1002
}
1001
GENIUS_GENODEF_13
1002
{
1000
HIER
1070
   200
1002
}
1002
{
1000
MANEDIT
1070
     1
1002
}
1002
{
1000
NOSEL
1070
     0
1002
}
1002
{
1000
BEHIND
1070
     0
1002
}
1002
{
1000
REACTOR
1002
}
  0
LINE
  5
F59
100
AcDbEntity
  8
0
  6
HIDDEN
100
AcDbLine
 10
121.013654
 20
133.963113
 30
0.0
 11
126.413654
 21
133.963113
 31
0.0
1001
GENIUS_GENOREF_13
1005
F56
1005
F58
  0
LINE
  5
F5A
100
AcDbEntity
  8
0
  6
HIDDEN
100
AcDbLine
 10
126.413654
 20
123.963113
 30
0.0
 11
126.413654
 21
123.963113
 31
0.0
1001
GENIUS_GENOREF_13
1005
F56
1005
F58
  0
LINE
  5
F5B
100
AcDbEntity
  8
0
  6
HIDDEN
100
AcDbLine
 10
120.413654
 20
127.963113
 30
0.0
 11
120.413654
 21
133.363113
 31
0.0
1001
GENIUS_GENOREF_13
1005
F56
1005
F58
  0
ARC
  5
F5D
100
AcDbEntity
  8
0
100
AcDbCircle
 10
121.013654
 20
133.363113
 30
0.0
 40
0.6
100
AcDbArc
 50
90.0
 51
180.0
1001
GENIUS_GENOREF_13
1005
F56
1005
F58
  0
LINE
  5
F5E
100
AcDbEntity
  8
0
  6
HIDDEN
100
AcDbLine
 10
154.398743
 20
126.576563
 30
0.0
 11
139.413654
 21
126.576563
 31
0.0
1001
GENIUS_GENOREF_13
1005
F56
1005
F58
  0
LINE
  5
F5F
100
AcDbEntity
  8
0
  6
HIDDEN
100
AcDbLine
 10
160.210114
 20
131.349663
 30
0.0
 11
139.413654
 21
131.349663
 31
0.0
1001
GENIUS_GENOREF_13
1005
F56
1005
F58
  0
LINE
  5
F60
100
AcDbEntity
  8
0
100
AcDbLine
 10
150.800204
 20
125.963113
 30
0.0
 11
151.413654
 21
126.576563
 31
0.0
1001
GENIUS_GENOREF_13
1005
F56
1005
F58
  0
LINE
  5
F61
100
AcDbEntity
  8
0
100
AcDbLine
 10
150.800204
 20
131.963113
 30
0.0
 11
151.413654
 21
131.349663
 31
0.0
1001
GENIUS_GENOREF_13
1005
F56
1005
F58
  0
LINE
  5
F62
100
AcDbEntity
  8
0
  6
HIDDEN
100
AcDbLine
 10
126.413654
 20
125.963113
 30
0.0
 11
137.413654
 21
125.963113
 31
0.0
1001
GENIUS_GENOREF_13
1005
F56
1005
F58
  0
LINE
  5
F63
100
AcDbEntity
  8
0
  6
HIDDEN
100
AcDbLine
 10
126.413654
 20
131.963113
 30
0.0
 11
137.413654
 21
131.963113
 31
0.0
1001
GENIUS_GENOREF_13
1005
F56
1005
F58
  0
LINE
  5
F65
100
AcDbEntity
  8
0
  6
HIDDEN
100
AcDbLine
 10
128.913654
 20
131.963113
 30
0.0
 11
128.913654
 21
125.963113
 31
0.0
1001
GENIUS_GENOREF_13
1005
F56
1005
F58
  0
LINE
  5
F66
100
AcDbEntity
  8
0
100
AcDbLine
 10
128.913654
 20
126.576563
 30
0.0
 11
128.300204
 21
125.963113
 31
0.0
1001
GENIUS_GENOREF_13
1005
F56
1005
F58
  0
LINE
  5
F67
100
AcDbEntity
  8
0
100
AcDbLine
 10
128.913654
 20
131.349663
 30
0.0
 11
128.300204
 21
131.963113
 31
0.0
1001
GENIUS_GENOREF_13
1005
F56
1005
F58
  0
LINE
  5
F68
100
AcDbEntity
  8
0
  6
HIDDEN
100
AcDbLine
 10
150.800204
 20
131.963113
 30
0.0
 11
150.800204
 21
125.963113
 31
0.0
1001
GENIUS_GENOREF_13
1005
F56
1005
F58
  0
LINE
  5
F69
100
AcDbEntity
  8
0
  6
HIDDEN
100
AcDbLine
 10
151.413654
 20
131.349663
 30
0.0
 11
151.413654
 21
126.576563
 31
0.0
1001
GENIUS_GENOREF_13
1005
F56
1005
F58
  0
POINT
  5
F6A
100
AcDbEntity
  8
0
 60
     1
100
AcDbPoint
 10
184.592134
 20
188.451031
 30
0.0
 50
90.0
1001
GENIUS_GENOBJ-NBEHI-BHF_13
1002
{
1000
OWNER
1000
GENBEHI
1002
}
1001
GENIUS_GENOENT_13
1002
{
1000
MYREF
1005
F6A
1002
}
1002
{
1000
GRP
1005
0
1002
}
1001
GENIUS_GENOLIS_13
1002
{
1000
ENT
1005
0
1002
}
1001
GENIUS_GENODEF_13
1002
{
1000
HIER
1070
     1
1002
}
1002
{
1000
MANEDIT
1070
     0
1002
}
1002
{
1000
NOSEL
1070
     1
1002
}
1002
{
1000
BEHIND
1070
     0
1002
}
1002
{
1000
REACTOR
1002
}
1001
GENIUS_GENBH_13
1002
{
1000
OIUMAP
1000
OIU
1002
}
1002
{
1000
FLAGS
1070
    32
1002
}
1002
{
1000
BGO
1005
F6B
1002
}
  0
POINT
  5
F6B
100
AcDbEntity
  8
0
 60
     1
100
AcDbPoint
 10
184.592134
 20
188.451031
 30
0.0
 50
90.0
1001
GENIUS_GENOBJ-NBEHI-BHB_13
1002
{
1000
OWNER
1000
GENBEHI
1002
}
1001
GENIUS_GENOENT_13
1002
{
1000
MYREF
1005
F6B
1002
}
1002
{
1000
GRP
1005
0
1002
}
1001
GENIUS_GENOLIS_13
1002
{
1000
ENT
1002
}
1001
GENIUS_GENODEF_13
1002
{
1000
HIER
1070
     1
1002
}
1002
{
1000
MANEDIT
1070
     0
1002
}
1002
{
1000
NOSEL
1070
     1
1002
}
1002
{
1000
BEHIND
1070
     0
1002
}
1002
{
1000
REACTOR
1002
}
1002
{
1000
OTHER
1070
     1
1002
}
1001
GENIUS_GENBH_13
1002
{
1000
FGO
1005
F6A
1002
}
  0
POINT
  5
F6C
100
AcDbEntity
  8
0
 60
     1
100
AcDbPoint
 10
184.592134
 20
188.451031
 30
0.0
 50
90.0
1001
GENIUS_GENOBJ-NBEHI-BHF_13
1002
{
1000
OWNER
1000
GENBEHI
1002
}
1001
GENIUS_GENOENT_13
1002
{
1000
MYREF
1005
F6C
1002
}
1002
{
1000
GRP
1005
0
1002
}
1001
GENIUS_GENOLIS_13
1002
{
1000
ENT
1005
0
1002
}
1001
GENIUS_GENBH_13
1002
{
1000
OIUMAP
1000
OIU
1002
}
1002
{
1000
FLAGS
1070
    32
1002
}
1002
{
1000
BGO
1005
F6D
1002
}
1001
GENIUS_GENODEF_13
1002
{
1000
HIER
1070
     1
1002
}
1002
{
1000
MANEDIT
1070
     1
1002
}
1002
{
1000
NOSEL
1070
     1
1002
}
1002
{
1000
BEHIND
1070
     0
1002
}
1002
{
1000
REACTOR
1002
}
  0
POINT
  5
F6D
100
AcDbEntity
  8
0
 60
     1
100
AcDbPoint
 10
184.592134
 20
188.451031
 30
0.0
 50
90.0
1001
GENIUS_GENOBJ-NBEHI-BHB_13
1002
{
1000
OWNER
1000
GENBEHI
1002
}
1001
GENIUS_GENOENT_13
1002
{
1000
MYREF
1005
F6D
1002
}
1002
{
1000
GRP
1005
0
1002
}
1001
GENIUS_GENOLIS_13
1002
{
1000
ENT
1005
0
1002
}
1001
GENIUS_GENODEF_13
1002
{
1000
HIER
1070
     1
1002
}
1002
{
1000
MANEDIT
1070
     0
1002
}
1002
{
1000
NOSEL
1070
     1
1002
}
1002
{
1000
BEHIND
1070
     0
1002
}
1002
{
1000
REACTOR
1002
}
1002
{
1000
OTHER
1070
     1
1002
}
1001
GENIUS_GENBH_13
1002
{
1000
FGO
1005
F6C
1002
}
  0
POINT
  5
F6E
100
AcDbEntity
  8
0
 60
     1
100
AcDbPoint
 10
184.592134
 20
188.451031
 30
0.0
 50
90.0
1001
GENIUS_GENOBJ-F-SCPASSM_13
1002
{
1000
OWNER
1000
GEF
1002
}
1001
GENIUS_GENOENT_13
1002
{
1000
MYREF
1005
F6E
1002
}
1002
{
1000
GRP
1005
0
1002
}
1001
GENIUS_GENOLIS_13
1002
{
1000
ENT
1005
0
1005
0
1002
}
1001
GENIUS_GENODEF_13
1002
{
1000
HIER
1070
   200
1002
}
1002
{
1000
MANEDIT
1070
     1
1002
}
1002
{
1000
NOSEL
1070
     0
1002
}
1002
{
1000
BEHIND
1070
     0
1002
}
1002
{
1000
REACTOR
1002
}
  0
CIRCLE
  5
F6F
100
AcDbEntity
  8
0
100
AcDbCircle
 10
63.303747
 20
128.963113
 30
0.0
 40
5.0
1001
GENIUS_GENOREF_13
1005
F6C
1005
F6E
  0
LINE
  5
F70
100
AcDbEntity
  8
0
100
AcDbLine
 10
65.803747
 20
130.406489
 30
0.0
 11
63.303747
 21
131.849865
 31
0.0
1001
GENIUS_GENOREF_13
1005
F6C
1005
F6E
  0
LINE
  5
F71
100
AcDbEntity
  8
0
100
AcDbLine
 10
63.303747
 20
126.076362
 30
0.0
 11
65.803747
 21
127.519738
 31
0.0
1001
GENIUS_GENOREF_13
1005
F6C
1005
F6E
  0
LINE
  5
F72
100
AcDbEntity
  8
0
100
AcDbLine
 10
65.803747
 20
127.519738
 30
0.0
 11
65.803747
 21
130.406489
 31
0.0
1001
GENIUS_GENOREF_13
1005
F6C
1005
F6E
  0
LINE
  5
F73
100
AcDbEntity
  8
0
100
AcDbLine
 10
60.803747
 20
130.406489
 30
0.0
 11
60.803747
 21
127.519738
 31
0.0
1001
GENIUS_GENOREF_13
1005
F6C
1005
F6E
  0
LINE
  5
F74
100
AcDbEntity
  8
0
100
AcDbLine
 10
60.803747
 20
127.519738
 30
0.0
 11
63.303747
 21
126.076362
 31
0.0
1001
GENIUS_GENOREF_13
1005
F6C
1005
F6E
  0
LINE
  5
F75
100
AcDbEntity
  8
0
100
AcDbLine
 10
63.303747
 20
131.849865
 30
0.0
 11
60.803747
 21
130.406489
 31
0.0
1001
GENIUS_GENOREF_13
1005
F6C
1005
F6E
  0
LINE
  5
F7A
100
AcDbEntity
  8
0
100
AcDbLine
 10
120.413654
 20
124.563113
 30
0.0
 11
120.413654
 21
127.963113
 31
0.0
  0
LINE
  5
F7B
100
AcDbEntity
  8
0
  6
HIDDEN
100
AcDbLine
 10
139.413654
 20
131.963113
 30
0.0
 11
150.800204
 21
131.963113
 31
0.0
1001
GENIUS_GENOREF_13
1005
F56
1005
F58
  0
LINE
  5
F7C
100
AcDbEntity
  8
0
  6
HIDDEN
100
AcDbLine
 10
137.413654
 20
131.349663
 30
0.0
 11
128.913654
 21
131.349663
 31
0.0
1001
GENIUS_GENOREF_13
1005
F56
1005
F58
  0
LINE
  5
F7D
100
AcDbEntity
  8
0
  6
HIDDEN
100
AcDbLine
 10
137.413654
 20
126.576563
 30
0.0
 11
128.913654
 21
126.576563
 31
0.0
1001
GENIUS_GENOREF_13
1005
F56
1005
F58
  0
LINE
  5
F7E
100
AcDbEntity
  8
0
  6
HIDDEN
100
AcDbLine
 10
139.413654
 20
125.963113
 30
0.0
 11
150.800204
 21
125.963113
 31
0.0
1001
GENIUS_GENOREF_13
1005
F56
1005
F58
  0
LINE
  5
F7F
100
AcDbEntity
  8
0
100
AcDbLine
 10
137.413654
 20
131.963113
 30
0.0
 11
139.413654
 21
131.963113
 31
0.0
  0
LINE
  5
F80
100
AcDbEntity
  8
0
100
AcDbLine
 10
137.413654
 20
131.349663
 30
0.0
 11
139.413654
 21
131.349663
 31
0.0
  0
LINE
  5
F81
100
AcDbEntity
  8
0
100
AcDbLine
 10
137.413654
 20
126.576563
 30
0.0
 11
139.413654
 21
126.576563
 31
0.0
  0
LINE
  5
F82
100
AcDbEntity
  8
0
100
AcDbLine
 10
137.413654
 20
125.963113
 30
0.0
 11
139.413654
 21
125.963113
 31
0.0
  0
LINE
  5
F83
100
AcDbEntity
  8
0
100
AcDbLine
 10
61.114936
 20
124.467659
 30
0.0
 11
57.303747
 21
124.467659
 31
0.0
  0
LINE
  5
F86
100
AcDbEntity
  8
0
100
AcDbLine
 10
11.394933
 20
170.463113
 30
0.0
 11
11.394933
 21
180.963113
 31
0.0
  0
LINE
  5
F8B
100
AcDbEntity
  8
0
100
AcDbLine
 10
-3.605067
 20
133.463113
 30
0.0
 11
-3.605067
 21
122.963113
 31
0.0
  0
CIRCLE
  5
F8C
100
AcDbEntity
  8
0
  6
HIDDEN
100
AcDbCircle
 10
3.894933
 20
128.963113
 30
0.0
 40
5.0
1001
GENIUS_GENOREF_13
1005
F6C
1005
F6E
  0
LINE
  5
F9D
100
AcDbEntity
  8
0
100
AcDbLine
 10
121.013654
 20
123.963113
 30
0.0
 11
126.413654
 21
123.963113
 31
0.0
1001
GENIUS_GENOREF_13
1005
F56
1005
F58
  0
ARC
  5
F9E
100
AcDbEntity
  8
0
100
AcDbCircle
 10
121.013654
 20
124.563113
 30
0.0
 40
0.6
100
AcDbArc
 50
180.0
 51
270.0
1001
GENIUS_GENOREF_13
1005
F56
1005
F58
  0
ENDSEC
  0
SECTION
  2
OBJECTS
  0
DICTIONARY
  5
C
100
AcDbDictionary
  3
ACAD_GROUP
350
D
  3
ACAD_LAYOUT
350
C61
  3
ACAD_MLINESTYLE
350
1B
  3
ACAD_PLOTSETTINGS
350
C62
  3
ADE_QUERY_LIBRARY
350
100A
  3
CONTENTDICTIONARY
350
23
1001
ADE
1000
ADE02C004
1000
[Query]
1000
CaseSensitiveMatch=0
1000
SaveCurrQueryInSession=1
1000
MkSelSetWithQryObj=0
1000
ShowBlockAsInsPt=0
1000
CreateAssociativeHatchObjects=0
1000
ReferenceBoundaryForAreaLocation=1
1000
ShowImageAsBoundary=1
1000
DefaultJoinOperator=2
1000
ColorForAdd=red
1000
ColorForRemove=red
1000
BlockLocnForQuery=1
1000
TextLocnForQuery=1
1000
[Save Back]
1000
RedefineBlockDefinitions=1
1000
RedefineLayerDefinitions=1
1000
RedefineTextStyleDefinitions=1
1000
RemoveUnusedGroups=1
1000
EraseSavedBackObjects=1
1000
RemoveLockAfterSave=1
1000
CreateHistoryFileOfChanges=0
1000
CreateBackupFileOfSourceDwg=1
1000
DontAddObjectsToSaveSet=0
1000
MarkObjectsForEditingWithoutPrompting=0
1000
[Coordinate Transformation]
1000
RestoreLastActiveDwgsOnStartup=1
1000
ActivateDwgsOnAttach=1
1000
AdjustSizesAndScalesForChangesInUnits=1
1000
AdjustRotationsForMapDistortions=1
1000
AdjustSizesAndScalesForMapDistortions=1
1000
AdjustElevations=1
1000
AdjustZeroRotationObjects=1
1000
ReconnectDbOnWSOpen=1
1000
NoOfSQLConditionsInHistory=10
1001
ACAD
1000
TREAT_AS_HARD
1070
     0
  0
DICTIONARY
  5
100E
100
AcDbDictionary
  3
ACAD_LAYOUTSELFREF
350
100F
  0
DICTIONARY
  5
100C
100
AcDbDictionary
  3
ACAD_LAYOUTSELFREF
350
100D
  0
DICTIONARY
  5
D
102
{ACAD_REACTORS
330
C
102
}
100
AcDbDictionary
1001
ACAD
1000
TREAT_AS_HARD
1070
     0
  0
DICTIONARY
  5
C61
102
{ACAD_REACTORS
330
C
102
}
100
AcDbDictionary
1001
ACAD
1000
TREAT_AS_HARD
1070
     0
  0
DICTIONARY
  5
1B
102
{ACAD_REACTORS
330
C
102
}
100
AcDbDictionary
  3
STANDARD
350
1C
1001
ACAD
1000
TREAT_AS_HARD
1070
     0
  0
DICTIONARY
  5
C62
102
{ACAD_REACTORS
330
C
102
}
100
AcDbDictionary
1001
ACAD
1000
TREAT_AS_HARD
1070
     0
  0
DICTIONARY
  5
100A
102
{ACAD_REACTORS
330
C
102
}
100
AcDbDictionary
  3
_CURRQRY
350
100B
1001
ACAD
1000
TREAT_AS_HARD
1070
     0
  0
DICTIONARY
  5
23
102
{ACAD_REACTORS
330
C
102
}
100
AcDbDictionary
1001
ACAD
1000
TREAT_AS_HARD
1070
     0
  0
XRECORD
  5
100F
102
{ACAD_REACTORS
330
100E
102
}
100
AcDbXrecord
340
18
  0
XRECORD
  5
100D
102
{ACAD_REACTORS
330
100C
102
}
100
AcDbXrecord
340
15
  0
MLINESTYLE
  5
1C
102
{ACAD_REACTORS
330
1B
102
}
100
AcDbMlineStyle
  2
STANDARD
 70
     0
  3

 62
   256
 51
90.0
 52
90.0
 71
     2
 49
0.5
 62
   256
  6
BYLAYER
 49
-0.5
 62
   256
  6
BYLAYER
  0
XRECORD
  5
100B
102
{ACAD_REACTORS
330
100A
102
}
100
AcDbXrecord
1000
ADE02C001
1070
     1
1070
     0
1002
{
1002
}
1002
{
1002
}
1002
{
1002
}
1000

  0
ENDSEC
  0
EOF
