  0
SECTION
  2
HEADER
  9
$ACADVER
  1
AC1014
  9
$ACADMAINTVER
 70
     0
  9
$DWGCODEPAGE
  3
ANSI_932
  9
$INSBASE
 10
0.0
 20
0.0
 30
0.0
  9
$EXTMIN
 10
-3.001536
 20
80.705551
 30
0.0
  9
$EXTMAX
 10
179.851407
 20
181.913908
 30
0.0
  9
$LIMMIN
 10
0.0
 20
0.0
  9
$LIMMAX
 10
420.0
 20
297.0
  9
$ORTHOMODE
 70
     0
  9
$REGENMODE
 70
     1
  9
$FILLMODE
 70
     1
  9
$QTEXTMODE
 70
     0
  9
$MIRRTEXT
 70
     1
  9
$DRAGMODE
 70
     2
  9
$LTSCALE
 40
0.3
  9
$OSMODE
 70
    37
  9
$ATTMODE
 70
     1
  9
$TEXTSIZE
 40
10.0
  9
$TRACEWID
 40
1.0
  9
$TEXTSTYLE
  7
BIGFONT
  9
$CLAYER
  8
0
  9
$CELTYPE
  6
BYLAYER
  9
$CECOLOR
 62
   256
  9
$CELTSCALE
 40
1.0
  9
$DELOBJ
 70
     1
  9
$DISPSILH
 70
     0
  9
$DIMSCALE
 40
1.0
  9
$DIMASZ
 40
2.5
  9
$DIMEXO
 40
0.625
  9
$DIMDLI
 40
3.75
  9
$DIMRND
 40
0.0
  9
$DIMDLE
 40
0.0
  9
$DIMEXE
 40
1.25
  9
$DIMTP
 40
0.0
  9
$DIMTM
 40
0.0
  9
$DIMTXT
 40
2.5
  9
$DIMCEN
 40
0.5
  9
$DIMTSZ
 40
0.0
  9
$DIMTOL
 70
     0
  9
$DIMLIM
 70
     0
  9
$DIMTIH
 70
     0
  9
$DIMTOH
 70
     0
  9
$DIMSE1
 70
     0
  9
$DIMSE2
 70
     0
  9
$DIMTAD
 70
     3
  9
$DIMZIN
 70
     8
  9
$DIMBLK
  1

  9
$DIMASO
 70
     1
  9
$DIMSHO
 70
     1
  9
$DIMPOST
  1

  9
$DIMAPOST
  1

  9
$DIMALT
 70
     0
  9
$DIMALTD
 70
     4
  9
$DIMALTF
 40
0.0394
  9
$DIMLFAC
 40
1.0
  9
$DIMTOFL
 70
     1
  9
$DIMTVP
 40
0.0
  9
$DIMTIX
 70
     0
  9
$DIMSOXD
 70
     0
  9
$DIMSAH
 70
     0
  9
$DIMBLK1
  1

  9
$DIMBLK2
  1

  9
$DIMSTYLE
  2
STANDARD_WS
  9
$DIMCLRD
 70
     0
  9
$DIMCLRE
 70
     0
  9
$DIMCLRT
 70
   256
  9
$DIMTFAC
 40
1.0
  9
$DIMGAP
 40
1.2
  9
$DIMJUST
 70
     0
  9
$DIMSD1
 70
     0
  9
$DIMSD2
 70
     0
  9
$DIMTOLJ
 70
     1
  9
$DIMTZIN
 70
     0
  9
$DIMALTZ
 70
     0
  9
$DIMALTTZ
 70
     0
  9
$DIMFIT
 70
     3
  9
$DIMUPT
 70
     0
  9
$DIMUNIT
 70
     2
  9
$DIMDEC
 70
     4
  9
$DIMTDEC
 70
     4
  9
$DIMALTU
 70
     8
  9
$DIMALTTD
 70
     4
  9
$DIMTXSTY
  7
BIGFONT
  9
$DIMAUNIT
 70
     0
  9
$LUNITS
 70
     2
  9
$LUPREC
 70
     4
  9
$SKETCHINC
 40
1.0
  9
$FILLETRAD
 40
0.0
  9
$AUNITS
 70
     0
  9
$AUPREC
 70
     0
  9
$MENU
  1
acad
  9
$ELEVATION
 40
0.0
  9
$PELEVATION
 40
0.0
  9
$THICKNESS
 40
0.0
  9
$LIMCHECK
 70
     0
  9
$BLIPMODE
 70
     0
  9
$CHAMFERA
 40
0.5
  9
$CHAMFERB
 40
0.5
  9
$CHAMFERC
 40
20.0
  9
$CHAMFERD
 40
0.0
  9
$SKPOLY
 70
     0
  9
$TDCREATE
 40
2451225.415346065
  9
$TDUPDATE
 40
2453594.446443680
  9
$TDINDWG
 40
0.1596645718
  9
$TDUSRTIMER
 40
0.1596645718
  9
$USRTIMER
 70
     1
  9
$ANGBASE
 50
0.0
  9
$ANGDIR
 70
     0
  9
$PDMODE
 70
     0
  9
$PDSIZE
 40
0.0
  9
$PLINEWID
 40
0.0
  9
$COORDS
 70
     1
  9
$SPLFRAME
 70
     0
  9
$SPLINETYPE
 70
     6
  9
$SPLINESEGS
 70
     8
  9
$ATTDIA
 70
     0
  9
$ATTREQ
 70
     1
  9
$HANDLING
 70
     1
  9
$HANDSEED
  5
F7F
  9
$SURFTAB1
 70
     6
  9
$SURFTAB2
 70
     6
  9
$SURFTYPE
 70
     6
  9
$SURFU
 70
     6
  9
$SURFV
 70
     6
  9
$UCSNAME
  2

  9
$UCSORG
 10
0.0
 20
0.0
 30
0.0
  9
$UCSXDIR
 10
1.0
 20
0.0
 30
0.0
  9
$UCSYDIR
 10
0.0
 20
1.0
 30
0.0
  9
$PUCSNAME
  2

  9
$PUCSORG
 10
0.0
 20
0.0
 30
0.0
  9
$PUCSXDIR
 10
1.0
 20
0.0
 30
0.0
  9
$PUCSYDIR
 10
0.0
 20
1.0
 30
0.0
  9
$USERI1
 70
     0
  9
$USERI2
 70
     0
  9
$USERI3
 70
     0
  9
$USERI4
 70
     0
  9
$USERI5
 70
     0
  9
$USERR1
 40
0.0
  9
$USERR2
 40
0.0
  9
$USERR3
 40
0.0
  9
$USERR4
 40
0.0
  9
$USERR5
 40
0.0
  9
$WORLDVIEW
 70
     1
  9
$SHADEDGE
 70
     3
  9
$SHADEDIF
 70
    70
  9
$TILEMODE
 70
     1
  9
$MAXACTVP
 70
    48
  9
$PINSBASE
 10
0.0
 20
0.0
 30
0.0
  9
$PLIMCHECK
 70
     0
  9
$PEXTMIN
 10
1.000000E+20
 20
1.000000E+20
 30
1.000000E+20
  9
$PEXTMAX
 10
-1.000000E+20
 20
-1.000000E+20
 30
-1.000000E+20
  9
$PLIMMIN
 10
0.0
 20
0.0
  9
$PLIMMAX
 10
420.0
 20
297.0
  9
$UNITMODE
 70
     0
  9
$VISRETAIN
 70
     1
  9
$PLINEGEN
 70
     0
  9
$PSLTSCALE
 70
     0
  9
$TREEDEPTH
 70
  3020
  9
$PICKSTYLE
 70
     1
  9
$CMLSTYLE
  2
STANDARD
  9
$CMLJUST
 70
     0
  9
$CMLSCALE
 40
20.0
  9
$PROXYGRAPHICS
 70
     1
  9
$MEASUREMENT
 70
     0
  0
ENDSEC
  0
SECTION
  2
CLASSES
  0
CLASS
  1
DICTIONARYVAR
  2
AcDbDictionaryVar
  3
"AutoCAD"
 90
        0
280
     0
281
     0
  0
CLASS
  1
HATCH
  2
AcDbHatch
  3
"ACAD_SEDONA"
 90
        0
280
     0
281
     1
  0
CLASS
  1
LWPOLYLINE
  2
AcDbPolyline
  3
"AutoCAD"
 90
        0
280
     0
281
     1
  0
CLASS
  1
ACDBDICTIONARYWDFLT
  2
AcDbDictionaryWithDefault
  3
AutoCAD 2000
 90
        0
280
     0
281
     0
  0
CLASS
  1
ACDBPLACEHOLDER
  2
AcDbPlaceHolder
  3
AutoCAD 2000
 90
        0
280
     0
281
     0
  0
CLASS
  1
LAYOUT
  2
AcDbLayout
  3
AutoCAD 2000
 90
        0
280
     0
281
     0
  0
CLASS
  1
LONG_TRANSACTION
  2
AcDbLongTransaction
  3
AutoCAD 2000
 90
        0
280
     0
281
     0
  0
CLASS
  1
LWPOLYLINE
  2
AcDbPolyline
  3
"AutoCAD"
 90
        0
280
     0
281
     1
  0
CLASS
  1
HATCH
  2
AcDbHatch
  3
"ACAD_SEDONA"
 90
        0
280
     0
281
     1
  0
CLASS
  1
XRECORD
  2
AcDbXrecord
  3
"<Built In>"
 90
        0
280
     0
281
     0
  0
ENDSEC
  0
SECTION
  2
TABLES
  0
TABLE
  2
VPORT
  5
8
100
AcDbSymbolTable
 70
     2
  0
VPORT
  5
F7E
100
AcDbSymbolTableRecord
100
AcDbViewportTableRecord
  2
*ACTIVE
 70
     0
 10
0.0
 20
0.0
 11
1.0
 21
1.0
 12
208.499232
 22
148.5
 13
0.0
 23
0.0
 14
10.0
 24
10.0
 15
10.0
 25
10.0
 16
0.0
 26
0.0
 36
1.0
 17
0.0
 27
0.0
 37
0.0
 40
299.205446
 41
1.434944
 42
50.0
 43
0.0
 44
0.0
 50
0.0
 51
0.0
 71
     0
 72
   100
 73
     1
 74
     0
 75
     0
 76
     0
 77
     0
 78
     0
  0
ENDTAB
  0
TABLE
  2
LTYPE
  5
5
100
AcDbSymbolTable
 70
     3
  0
LTYPE
  5
12
100
AcDbSymbolTableRecord
100
AcDbLinetypeTableRecord
  2
BYBLOCK
 70
     0
  3

 72
    65
 73
     0
 40
0.0
  0
LTYPE
  5
13
100
AcDbSymbolTableRecord
100
AcDbLinetypeTableRecord
  2
BYLAYER
 70
     0
  3

 72
    65
 73
     0
 40
0.0
  0
LTYPE
  5
14
100
AcDbSymbolTableRecord
100
AcDbLinetypeTableRecord
  2
CONTINUOUS
 70
     0
  3
Solid line
 72
    65
 73
     0
 40
0.0
  0
LTYPE
  5
11A
100
AcDbSymbolTableRecord
100
AcDbLinetypeTableRecord
  2
CENTER
 70
     0
  3
Center ____ _ ____ _ ____ _ ____ _ ____ _ ____
 72
    65
 73
     4
 40
50.8
 49
31.75
 74
     0
 49
-6.35
 74
     0
 49
6.35
 74
     0
 49
-6.35
 74
     0
  0
LTYPE
  5
11B
100
AcDbSymbolTableRecord
100
AcDbLinetypeTableRecord
  2
HIDDEN
 70
     0
  3
Hidden __ __ __ __ __ __ __ __ __ __ __ __ __ _
 72
    65
 73
     2
 40
9.525
 49
6.35
 74
     0
 49
-3.175
 74
     0
  0
ENDTAB
  0
TABLE
  2
LAYER
  5
2
100
AcDbSymbolTable
 70
     6
  0
LAYER
  5
E
100
AcDbSymbolTableRecord
100
AcDbLayerTableRecord
  2
0
 70
     0
 62
     7
  6
CONTINUOUS
  0
LAYER
  5
37
100
AcDbSymbolTableRecord
100
AcDbLayerTableRecord
  2
図枠
 70
     0
 62
     7
  6
CONTINUOUS
  0
LAYER
  5
38
100
AcDbSymbolTableRecord
100
AcDbLayerTableRecord
  2
図枠部品表
 70
     0
 62
     7
  6
CONTINUOUS
  0
LAYER
  5
215
100
AcDbSymbolTableRecord
100
AcDbLayerTableRecord
  2
CENTER
 70
     0
 62
     2
  6
CENTER
  0
LAYER
  5
216
100
AcDbSymbolTableRecord
100
AcDbLayerTableRecord
  2
DIM
 70
     0
 62
     4
  6
CONTINUOUS
  0
LAYER
  5
21F
100
AcDbSymbolTableRecord
100
AcDbLayerTableRecord
  2
DEFPOINTS
 70
     0
 62
     7
  6
CONTINUOUS
  0
ENDTAB
  0
TABLE
  2
STYLE
  5
3
100
AcDbSymbolTable
 70
     4
  0
STYLE
  5
F
100
AcDbSymbolTableRecord
100
AcDbTextStyleTableRecord
  2
STANDARD
 70
     0
 40
0.0
 41
1.0
 50
0.0
 71
     0
 42
2.5
  3
txt
  4

  0
STYLE
  5
39
100
AcDbSymbolTableRecord
100
AcDbTextStyleTableRecord
  2
BIGFONT
 70
     0
 40
0.0
 41
1.0
 50
0.0
 71
     0
 42
10.0
  3
txt.shx
  4
bigfont.shx
  0
STYLE
  5
3B
100
AcDbSymbolTableRecord
100
AcDbTextStyleTableRecord
  2
KANJI
 70
     0
 40
0.0
 41
1.0
 50
0.0
 71
     0
 42
3.0
  3
TXT
  4
BIGFONT
  0
STYLE
  5
E77
100
AcDbSymbolTableRecord
100
AcDbTextStyleTableRecord
  2

 70
     1
 40
0.0
 41
1.0
 50
0.0
 71
     0
 42
2.5
  3
ltypeshp.shx
  4

  0
ENDTAB
  0
TABLE
  2
VIEW
  5
6
100
AcDbSymbolTable
 70
     0
  0
ENDTAB
  0
TABLE
  2
UCS
  5
7
100
AcDbSymbolTable
 70
     0
  0
ENDTAB
  0
TABLE
  2
APPID
  5
9
100
AcDbSymbolTable
 70
    34
  0
APPID
  5
10
100
AcDbSymbolTableRecord
100
AcDbRegAppTableRecord
  2
ACAD
 70
     0
  0
APPID
  5
24
100
AcDbSymbolTableRecord
100
AcDbRegAppTableRecord
  2
CONTENTTABDATA
 70
     0
  0
APPID
  5
25
100
AcDbSymbolTableRecord
100
AcDbRegAppTableRecord
  2
CONTENTCURRENTTAB
 70
     0
  0
APPID
  5
422
100
AcDbSymbolTableRecord
100
AcDbRegAppTableRecord
  2
CONTENTBLOCKDESCRIPTION
 70
     0
  0
APPID
  5
E81
100
AcDbSymbolTableRecord
100
AcDbRegAppTableRecord
  2
MCAD_NO_VIS
 70
     0
  0
APPID
  5
E82
100
AcDbSymbolTableRecord
100
AcDbRegAppTableRecord
  2
ACAD_TEMP_GRAPHIC
 70
     0
  0
APPID
  5
E83
100
AcDbSymbolTableRecord
100
AcDbRegAppTableRecord
  2
GEVID966397200
 70
     0
  0
APPID
  5
E84
100
AcDbSymbolTableRecord
100
AcDbRegAppTableRecord
  2
GEVDC
 70
     0
  0
APPID
  5
E85
100
AcDbSymbolTableRecord
100
AcDbRegAppTableRecord
  2
GEVCON
 70
     0
  0
APPID
  5
E86
100
AcDbSymbolTableRecord
100
AcDbRegAppTableRecord
  2
GEVID966397201
 70
     0
  0
APPID
  5
E87
100
AcDbSymbolTableRecord
100
AcDbRegAppTableRecord
  2
GEVID966397202
 70
     0
  0
APPID
  5
E88
100
AcDbSymbolTableRecord
100
AcDbRegAppTableRecord
  2
GEVID966397203
 70
     0
  0
APPID
  5
E89
100
AcDbSymbolTableRecord
100
AcDbRegAppTableRecord
  2
GEVID966397204
 70
     0
  0
APPID
  5
E8A
100
AcDbSymbolTableRecord
100
AcDbRegAppTableRecord
  2
GEVID966397205
 70
     0
  0
APPID
  5
E8B
100
AcDbSymbolTableRecord
100
AcDbRegAppTableRecord
  2
GEVID966397206
 70
     0
  0
APPID
  5
E8C
100
AcDbSymbolTableRecord
100
AcDbRegAppTableRecord
  2
GENIUS_GENBH_13
 70
     0
  0
APPID
  5
E8D
100
AcDbSymbolTableRecord
100
AcDbRegAppTableRecord
  2
GENIUS_GENODEF_13
 70
     0
  0
APPID
  5
E8E
100
AcDbSymbolTableRecord
100
AcDbRegAppTableRecord
  2
GENIUS_GENOBJ-NBEHI-BHF_13
 70
     0
  0
APPID
  5
E8F
100
AcDbSymbolTableRecord
100
AcDbRegAppTableRecord
  2
GENIUS_GENOENT_13
 70
     0
  0
APPID
  5
E90
100
AcDbSymbolTableRecord
100
AcDbRegAppTableRecord
  2
GENIUS_GENOREF_13
 70
     0
  0
APPID
  5
E91
100
AcDbSymbolTableRecord
100
AcDbRegAppTableRecord
  2
GENIUS_GENOLIS_13
 70
     0
  0
APPID
  5
E92
100
AcDbSymbolTableRecord
100
AcDbRegAppTableRecord
  2
GENIUS_GENOBJ-NBEHI-BHB_13
 70
     0
  0
APPID
  5
E93
100
AcDbSymbolTableRecord
100
AcDbRegAppTableRecord
  2
GEVID966397207
 70
     0
  0
APPID
  5
E94
100
AcDbSymbolTableRecord
100
AcDbRegAppTableRecord
  2
GENIUS_GENOBJ-F-SCPASSM_13
 70
     0
  0
APPID
  5
E95
100
AcDbSymbolTableRecord
100
AcDbRegAppTableRecord
  2
GENIUS_GENDTOL_13
 70
     0
  0
APPID
  5
E96
100
AcDbSymbolTableRecord
100
AcDbRegAppTableRecord
  2
GEVID966521051
 70
     0
  0
APPID
  5
E97
100
AcDbSymbolTableRecord
100
AcDbRegAppTableRecord
  2
GEVID966521052
 70
     0
  0
APPID
  5
E98
100
AcDbSymbolTableRecord
100
AcDbRegAppTableRecord
  2
GEVID966521054
 70
     0
  0
APPID
  5
E99
100
AcDbSymbolTableRecord
100
AcDbRegAppTableRecord
  2
GEVID966521055
 70
     0
  0
APPID
  5
E9A
100
AcDbSymbolTableRecord
100
AcDbRegAppTableRecord
  2
GEVID966521056
 70
     0
  0
APPID
  5
E9B
100
AcDbSymbolTableRecord
100
AcDbRegAppTableRecord
  2
GEVID966521057
 70
     0
  0
APPID
  5
E9C
100
AcDbSymbolTableRecord
100
AcDbRegAppTableRecord
  2
GEVID966521058
 70
     0
  0
APPID
  5
E9D
100
AcDbSymbolTableRecord
100
AcDbRegAppTableRecord
  2
GEVID966521059
 70
     0
  0
APPID
  5
F6B
100
AcDbSymbolTableRecord
100
AcDbRegAppTableRecord
  2
ADE
 70
     0
  0
ENDTAB
  0
TABLE
  2
DIMSTYLE
  5
A
100
AcDbSymbolTable
 70
     2
  0
DIMSTYLE
105
35
100
AcDbSymbolTableRecord
100
AcDbDimStyleTableRecord
  2
STANDARD_WS
 70
     0
  3

  4

  5

  6

  7

 40
1.0
 41
2.5
 42
0.625
 43
3.75
 44
1.25
 45
0.0
 46
0.0
 47
0.0
 48
0.0
140
2.5
141
2.5
142
0.0
143
0.0394
144
1.0
145
0.0
146
1.0
147
0.625
 71
     0
 72
     0
 73
     0
 74
     0
 75
     0
 76
     0
 77
     1
 78
     8
170
     0
171
     4
172
     1
173
     0
174
     0
175
     0
176
     0
177
     0
178
     0
270
     2
271
     4
272
     4
273
     8
274
     4
340
F
275
     0
280
     0
281
     0
282
     0
283
     1
284
     0
285
     0
286
     0
287
     3
288
     0
  0
DIMSTYLE
105
E7A
100
AcDbSymbolTableRecord
100
AcDbDimStyleTableRecord
  2
AM_JIS
 70
     0
  3

  4
"
  5
OPEN30
  6
OPEN30
  7
OPEN30
 40
1.0
 41
2.5
 42
1.0
 43
10.0
 44
1.0
 45
0.0
 46
0.0
 47
0.1
 48
0.1
140
3.5
141
0.0
142
0.0
143
0.03937
144
1.0
145
0.0
146
0.71
147
1.5
 71
     0
 72
     0
 73
     0
 74
     0
 75
     0
 76
     0
 77
     3
 78
     8
170
     0
171
     2
172
     1
173
     0
174
     0
175
     0
176
   256
177
   256
178
     2
270
     2
271
     2
272
     3
273
     2
274
     4
340
F
275
     0
280
     0
281
     0
282
     0
283
     0
284
     0
285
     0
286
     0
287
     3
288
     0
  0
ENDTAB
  0
TABLE
  2
BLOCK_RECORD
  5
1
100
AcDbSymbolTable
 70
    13
  0
BLOCK_RECORD
  5
18
102
{ACAD_XDICTIONARY
360
F70
102
}
100
AcDbSymbolTableRecord
100
AcDbBlockTableRecord
  2
*MODEL_SPACE
  0
BLOCK_RECORD
  5
15
102
{ACAD_XDICTIONARY
360
F6E
102
}
100
AcDbSymbolTableRecord
100
AcDbBlockTableRecord
  2
*PAPER_SPACE
  0
BLOCK_RECORD
  5
B49
100
AcDbSymbolTableRecord
100
AcDbBlockTableRecord
  2
*D0
  0
BLOCK_RECORD
  5
B56
100
AcDbSymbolTableRecord
100
AcDbBlockTableRecord
  2
*D1
  0
BLOCK_RECORD
  5
B63
100
AcDbSymbolTableRecord
100
AcDbBlockTableRecord
  2
*D2
  0
BLOCK_RECORD
  5
B70
100
AcDbSymbolTableRecord
100
AcDbBlockTableRecord
  2
*D3
  0
BLOCK_RECORD
  5
B7D
100
AcDbSymbolTableRecord
100
AcDbBlockTableRecord
  2
*D4
  0
BLOCK_RECORD
  5
B8A
100
AcDbSymbolTableRecord
100
AcDbBlockTableRecord
  2
*D5
  0
BLOCK_RECORD
  5
BAF
100
AcDbSymbolTableRecord
100
AcDbBlockTableRecord
  2
*D6
  0
BLOCK_RECORD
  5
BBC
100
AcDbSymbolTableRecord
100
AcDbBlockTableRecord
  2
*D7
  0
BLOCK_RECORD
  5
BC9
100
AcDbSymbolTableRecord
100
AcDbBlockTableRecord
  2
*D8
  0
BLOCK_RECORD
  5
BD6
100
AcDbSymbolTableRecord
100
AcDbBlockTableRecord
  2
*D9
  0
BLOCK_RECORD
  5
CA1
100
AcDbSymbolTableRecord
100
AcDbBlockTableRecord
  2
*D10
  0
BLOCK_RECORD
  5
E64
100
AcDbSymbolTableRecord
100
AcDbBlockTableRecord
  2
_OPEN30
  0
BLOCK_RECORD
  5
E6A
100
AcDbSymbolTableRecord
100
AcDbBlockTableRecord
  2
GENAXEH
  0
ENDTAB
  0
ENDSEC
  0
SECTION
  2
BLOCKS
  0
BLOCK
  5
19
100
AcDbEntity
  8
0
100
AcDbBlockBegin
  2
*MODEL_SPACE
 70
     2
 10
0.0
 20
0.0
 30
0.0
  3
*MODEL_SPACE
  1

  0
ENDBLK
  5
1A
100
AcDbEntity
  8
0
100
AcDbBlockEnd
  0
BLOCK
  5
16
100
AcDbEntity
 67
     1
  8
0
100
AcDbBlockBegin
  2
*PAPER_SPACE
 70
     0
 10
0.0
 20
0.0
 30
0.0
  3
*PAPER_SPACE
  1

  0
ENDBLK
  5
17
100
AcDbEntity
 67
     1
  8
0
100
AcDbBlockEnd
  0
BLOCK
  5
BF8
100
AcDbEntity
  8
0
100
AcDbBlockBegin
  2
*D0
 70
     1
 10
0.0
 20
0.0
 30
0.0
  3
*D0
  1

  0
LINE
  5
F5A
100
AcDbEntity
  8
DIM
 62
     0
100
AcDbLine
 10
55.785169
 20
171.623811
 30
0.0
 11
35.291827
 21
171.623811
 31
0.0
  0
LINE
  5
F5B
100
AcDbEntity
  8
DIM
 62
     0
100
AcDbLine
 10
55.785169
 20
121.623811
 30
0.0
 11
35.291827
 21
121.623811
 31
0.0
  0
LINE
  5
F5C
100
AcDbEntity
  8
DIM
 62
     0
100
AcDbLine
 10
36.541827
 20
169.123811
 30
0.0
 11
36.541827
 21
124.123811
 31
0.0
  0
SOLID
  5
F5D
100
AcDbEntity
  8
DIM
 62
     0
100
AcDbTrace
 10
36.12516
 20
169.123811
 30
0.0
 11
36.958494
 21
169.123811
 31
0.0
 12
36.541827
 22
171.623811
 32
0.0
 13
36.541827
 23
171.623811
 33
0.0
  0
SOLID
  5
F5E
100
AcDbEntity
  8
DIM
 62
     0
100
AcDbTrace
 10
36.12516
 20
124.123811
 30
0.0
 11
36.958494
 21
124.123811
 31
0.0
 12
36.541827
 22
121.623811
 32
0.0
 13
36.541827
 23
121.623811
 33
0.0
  0
MTEXT
  5
F5F
100
AcDbEntity
  8
DIM
100
AcDbMText
 10
34.091827
 20
146.623811
 30
0.0
 40
2.5
 41
0.0
 71
     5
 72
     5
  1
\A1;%%c50\H1.5;%%p0.1
  7
BIGFONT
 11
0.0
 21
1.0
 31
0.0
1001
ACAD
1000
MTEXTBEGIN
1070
    73
1070
     1
1070
    44
1040
1.0
1070
    74
1070
     0
1000
MTEXTEND
  0
POINT
  5
F60
100
AcDbEntity
  8
DEFPOINTS
 62
     0
100
AcDbPoint
 10
56.410169
 20
171.623811
 30
0.0
  0
POINT
  5
F61
100
AcDbEntity
  8
DEFPOINTS
 62
     0
100
AcDbPoint
 10
56.410169
 20
121.623811
 30
0.0
  0
POINT
  5
F62
100
AcDbEntity
  8
DEFPOINTS
 62
     0
100
AcDbPoint
 10
36.541827
 20
121.623811
 30
0.0
  0
ENDBLK
  5
C02
100
AcDbEntity
  8
0
100
AcDbBlockEnd
  0
BLOCK
  5
BED
100
AcDbEntity
  8
0
100
AcDbBlockBegin
  2
*D1
 70
     1
 10
0.0
 20
0.0
 30
0.0
  3
*D1
  1

  0
LINE
  5
F51
100
AcDbEntity
  8
DIM
 62
     0
100
AcDbLine
 10
55.785169
 20
159.123811
 30
0.0
 11
41.862862
 21
159.123811
 31
0.0
  0
LINE
  5
F52
100
AcDbEntity
  8
DIM
 62
     0
100
AcDbLine
 10
55.785169
 20
134.123811
 30
0.0
 11
41.862862
 21
134.123811
 31
0.0
  0
LINE
  5
F53
100
AcDbEntity
  8
DIM
 62
     0
100
AcDbLine
 10
43.112862
 20
156.623811
 30
0.0
 11
43.112862
 21
136.623811
 31
0.0
  0
SOLID
  5
F54
100
AcDbEntity
  8
DIM
 62
     0
100
AcDbTrace
 10
42.696196
 20
156.623811
 30
0.0
 11
43.529529
 21
156.623811
 31
0.0
 12
43.112862
 22
159.123811
 32
0.0
 13
43.112862
 23
159.123811
 33
0.0
  0
SOLID
  5
F55
100
AcDbEntity
  8
DIM
 62
     0
100
AcDbTrace
 10
42.696196
 20
136.623811
 30
0.0
 11
43.529529
 21
136.623811
 31
0.0
 12
43.112862
 22
134.123811
 32
0.0
 13
43.112862
 23
134.123811
 33
0.0
  0
MTEXT
  5
F56
100
AcDbEntity
  8
DIM
100
AcDbMText
 10
40.162862
 20
146.623811
 30
0.0
 40
2.5
 41
0.0
 71
     5
 72
     5
  1
\A1;%%c25\H1.5;\S+0.05^ +0.01;
  7
BIGFONT
 11
0.0
 21
1.0
 31
0.0
1001
ACAD
1000
MTEXTBEGIN
1070
    73
1070
     1
1070
    44
1040
1.0
1070
    74
1070
     0
1000
MTEXTEND
  0
POINT
  5
F57
100
AcDbEntity
  8
DEFPOINTS
 62
     0
100
AcDbPoint
 10
56.410169
 20
159.123811
 30
0.0
  0
POINT
  5
F58
100
AcDbEntity
  8
DEFPOINTS
 62
     0
100
AcDbPoint
 10
56.410169
 20
134.123811
 30
0.0
  0
POINT
  5
F59
100
AcDbEntity
  8
DEFPOINTS
 62
     0
100
AcDbPoint
 10
43.112862
 20
134.123811
 30
0.0
  0
ENDBLK
  5
BF7
100
AcDbEntity
  8
0
100
AcDbBlockEnd
  0
BLOCK
  5
C47
100
AcDbEntity
  8
0
100
AcDbBlockBegin
  2
*D2
 70
     1
 10
0.0
 20
0.0
 30
0.0
  3
*D2
  1

  0
LINE
  5
F46
100
AcDbEntity
  8
DIM
 62
     0
100
AcDbLine
 10
57.410169
 20
123.085933
 30
0.0
 11
57.410169
 21
105.234979
 31
0.0
  0
LINE
  5
F47
100
AcDbEntity
  8
DIM
 62
     0
100
AcDbLine
 10
69.410169
 20
123.085933
 30
0.0
 11
69.410169
 21
105.234979
 31
0.0
  0
LINE
  5
F48
100
AcDbEntity
  8
DIM
 62
     0
100
AcDbLine
 10
54.910169
 20
106.484979
 30
0.0
 11
52.410169
 21
106.484979
 31
0.0
  0
LINE
  5
F49
100
AcDbEntity
  8
DIM
 62
     0
100
AcDbLine
 10
71.910169
 20
106.484979
 30
0.0
 11
74.410169
 21
106.484979
 31
0.0
  0
LINE
  5
F4A
100
AcDbEntity
  8
DIM
 62
     0
100
AcDbLine
 10
57.410169
 20
106.484979
 30
0.0
 11
69.410169
 21
106.484979
 31
0.0
  0
SOLID
  5
F4B
100
AcDbEntity
  8
DIM
 62
     0
100
AcDbTrace
 10
54.910169
 20
106.901645
 30
0.0
 11
54.910169
 21
106.068312
 31
0.0
 12
57.410169
 22
106.484979
 32
0.0
 13
57.410169
 23
106.484979
 33
0.0
  0
SOLID
  5
F4C
100
AcDbEntity
  8
DIM
 62
     0
100
AcDbTrace
 10
71.910169
 20
106.901645
 30
0.0
 11
71.910169
 21
106.068312
 31
0.0
 12
69.410169
 22
106.484979
 32
0.0
 13
69.410169
 23
106.484979
 33
0.0
  0
MTEXT
  5
F4D
100
AcDbEntity
  8
DIM
100
AcDbMText
 10
65.963798
 20
108.934979
 30
0.0
 40
2.5
 41
0.0
 71
     5
 72
     5
  1
\A1;12
  7
BIGFONT
1001
ACAD
1000
MTEXTBEGIN
1070
    73
1070
     1
1070
    44
1040
1.0
1070
    74
1070
     0
1000
MTEXTEND
  0
POINT
  5
F4E
100
AcDbEntity
  8
DEFPOINTS
 62
     0
100
AcDbPoint
 10
57.410169
 20
123.710933
 30
0.0
  0
POINT
  5
F4F
100
AcDbEntity
  8
DEFPOINTS
 62
     0
100
AcDbPoint
 10
69.410169
 20
123.710933
 30
0.0
  0
POINT
  5
F50
100
AcDbEntity
  8
DEFPOINTS
 62
     0
100
AcDbPoint
 10
69.410169
 20
106.484979
 30
0.0
  0
ENDBLK
  5
C52
100
AcDbEntity
  8
0
100
AcDbBlockEnd
  0
BLOCK
  5
C3C
100
AcDbEntity
  8
0
100
AcDbBlockBegin
  2
*D3
 70
     1
 10
0.0
 20
0.0
 30
0.0
  3
*D3
  1

  0
LINE
  5
F3D
100
AcDbEntity
  8
DIM
 62
     0
100
AcDbLine
 10
70.910169
 20
121.498811
 30
0.0
 11
70.910169
 21
95.770174
 31
0.0
  0
LINE
  5
F3E
100
AcDbEntity
  8
DIM
 62
     0
100
AcDbLine
 10
63.410169
 20
119.39229
 30
0.0
 11
63.410169
 21
95.770174
 31
0.0
  0
LINE
  5
F3F
100
AcDbEntity
  8
DIM
 62
     0
100
AcDbLine
 10
68.410169
 20
97.020174
 30
0.0
 11
65.910169
 21
97.020174
 31
0.0
  0
SOLID
  5
F40
100
AcDbEntity
  8
DIM
 62
     0
100
AcDbTrace
 10
68.410169
 20
97.436841
 30
0.0
 11
68.410169
 21
96.603508
 31
0.0
 12
70.910169
 22
97.020174
 32
0.0
 13
70.910169
 23
97.020174
 33
0.0
  0
SOLID
  5
F41
100
AcDbEntity
  8
DIM
 62
     0
100
AcDbTrace
 10
65.910169
 20
97.436841
 30
0.0
 11
65.910169
 21
96.603508
 31
0.0
 12
63.410169
 22
97.020174
 32
0.0
 13
63.410169
 23
97.020174
 33
0.0
  0
MTEXT
  5
F42
100
AcDbEntity
  8
DIM
100
AcDbMText
 10
67.160169
 20
99.470174
 30
0.0
 40
2.5
 41
0.0
 71
     5
 72
     5
  1
\A1;7.5
  7
BIGFONT
1001
ACAD
1000
MTEXTBEGIN
1070
    73
1070
     1
1070
    44
1040
1.0
1070
    74
1070
     0
1000
MTEXTEND
  0
POINT
  5
F43
100
AcDbEntity
  8
DEFPOINTS
 62
     0
100
AcDbPoint
 10
70.910169
 20
122.123811
 30
0.0
  0
POINT
  5
F44
100
AcDbEntity
  8
DEFPOINTS
 62
     0
100
AcDbPoint
 10
63.410169
 20
120.01729
 30
0.0
  0
POINT
  5
F45
100
AcDbEntity
  8
DEFPOINTS
 62
     0
100
AcDbPoint
 10
63.410169
 20
97.020174
 30
0.0
  0
ENDBLK
  5
C46
100
AcDbEntity
  8
0
100
AcDbBlockEnd
  0
BLOCK
  5
C31
100
AcDbEntity
  8
0
100
AcDbBlockBegin
  2
*D4
 70
     1
 10
0.0
 20
0.0
 30
0.0
  3
*D4
  1

  0
LINE
  5
F34
100
AcDbEntity
  8
DIM
 62
     0
100
AcDbLine
 10
63.410169
 20
119.39229
 30
0.0
 11
63.410169
 21
95.770174
 31
0.0
  0
LINE
  5
F35
100
AcDbEntity
  8
DIM
 62
     0
100
AcDbLine
 10
55.910169
 20
121.498811
 30
0.0
 11
55.910169
 21
95.770174
 31
0.0
  0
LINE
  5
F36
100
AcDbEntity
  8
DIM
 62
     0
100
AcDbLine
 10
60.910169
 20
97.020174
 30
0.0
 11
58.410169
 21
97.020174
 31
0.0
  0
SOLID
  5
F37
100
AcDbEntity
  8
DIM
 62
     0
100
AcDbTrace
 10
60.910169
 20
97.436841
 30
0.0
 11
60.910169
 21
96.603508
 31
0.0
 12
63.410169
 22
97.020174
 32
0.0
 13
63.410169
 23
97.020174
 33
0.0
  0
SOLID
  5
F38
100
AcDbEntity
  8
DIM
 62
     0
100
AcDbTrace
 10
58.410169
 20
97.436841
 30
0.0
 11
58.410169
 21
96.603508
 31
0.0
 12
55.910169
 22
97.020174
 32
0.0
 13
55.910169
 23
97.020174
 33
0.0
  0
MTEXT
  5
F39
100
AcDbEntity
  8
DIM
100
AcDbMText
 10
59.660169
 20
99.470174
 30
0.0
 40
2.5
 41
0.0
 71
     5
 72
     5
  1
\A1;7.5
  7
BIGFONT
1001
ACAD
1000
MTEXTBEGIN
1070
    73
1070
     1
1070
    44
1040
1.0
1070
    74
1070
     0
1000
MTEXTEND
  0
POINT
  5
F3A
100
AcDbEntity
  8
DEFPOINTS
 62
     0
100
AcDbPoint
 10
63.410169
 20
120.01729
 30
0.0
  0
POINT
  5
F3B
100
AcDbEntity
  8
DEFPOINTS
 62
     0
100
AcDbPoint
 10
55.910169
 20
122.123811
 30
0.0
  0
POINT
  5
F3C
100
AcDbEntity
  8
DEFPOINTS
 62
     0
100
AcDbPoint
 10
55.910169
 20
97.020174
 30
0.0
  0
ENDBLK
  5
C3B
100
AcDbEntity
  8
0
100
AcDbBlockEnd
  0
BLOCK
  5
C26
100
AcDbEntity
  8
0
100
AcDbBlockBegin
  2
*D5
 70
     1
 10
0.0
 20
0.0
 30
0.0
  3
*D5
  1

  0
LINE
  5
F2B
100
AcDbEntity
  8
DIM
 62
     0
100
AcDbLine
 10
70.910169
 20
121.498811
 30
0.0
 11
70.910169
 21
86.828661
 31
0.0
  0
LINE
  5
F2C
100
AcDbEntity
  8
DIM
 62
     0
100
AcDbLine
 10
55.910169
 20
121.498811
 30
0.0
 11
55.910169
 21
86.828661
 31
0.0
  0
LINE
  5
F2D
100
AcDbEntity
  8
DIM
 62
     0
100
AcDbLine
 10
68.410169
 20
88.078661
 30
0.0
 11
58.410169
 21
88.078661
 31
0.0
  0
SOLID
  5
F2E
100
AcDbEntity
  8
DIM
 62
     0
100
AcDbTrace
 10
68.410169
 20
88.495327
 30
0.0
 11
68.410169
 21
87.661994
 31
0.0
 12
70.910169
 22
88.078661
 32
0.0
 13
70.910169
 23
88.078661
 33
0.0
  0
SOLID
  5
F2F
100
AcDbEntity
  8
DIM
 62
     0
100
AcDbTrace
 10
58.410169
 20
88.495327
 30
0.0
 11
58.410169
 21
87.661994
 31
0.0
 12
55.910169
 22
88.078661
 32
0.0
 13
55.910169
 23
88.078661
 33
0.0
  0
MTEXT
  5
F30
100
AcDbEntity
  8
DIM
100
AcDbMText
 10
63.410169
 20
90.528661
 30
0.0
 40
2.5
 41
0.0
 71
     5
 72
     5
  1
\A1;15\H1.5;%%p0.1
  7
BIGFONT
1001
ACAD
1000
MTEXTBEGIN
1070
    73
1070
     1
1070
    44
1040
1.0
1070
    74
1070
     0
1000
MTEXTEND
  0
POINT
  5
F31
100
AcDbEntity
  8
DEFPOINTS
 62
     0
100
AcDbPoint
 10
70.910169
 20
122.123811
 30
0.0
  0
POINT
  5
F32
100
AcDbEntity
  8
DEFPOINTS
 62
     0
100
AcDbPoint
 10
55.910169
 20
122.123811
 30
0.0
  0
POINT
  5
F33
100
AcDbEntity
  8
DEFPOINTS
 62
     0
100
AcDbPoint
 10
55.910169
 20
88.078661
 30
0.0
  0
ENDBLK
  5
C30
100
AcDbEntity
  8
0
100
AcDbBlockEnd
  0
BLOCK
  5
BB0
100
AcDbEntity
  8
0
100
AcDbBlockBegin
  2
*D6
 70
     1
 10
0.0
 20
0.0
 30
0.0
  3
*D6
  1

  0
LINE
  5
F22
100
AcDbEntity
  8
DIM
 62
     0
100
AcDbLine
 10
138.096051
 20
164.623811
 30
0.0
 11
173.461844
 21
164.623811
 31
0.0
  0
LINE
  5
F23
100
AcDbEntity
  8
DIM
 62
     0
100
AcDbLine
 10
167.346051
 20
146.623811
 30
0.0
 11
173.461844
 21
146.623811
 31
0.0
  0
LINE
  5
F24
100
AcDbEntity
  8
DIM
 62
     0
100
AcDbLine
 10
172.211844
 20
162.123811
 30
0.0
 11
172.211844
 21
149.123811
 31
0.0
  0
SOLID
  5
F25
100
AcDbEntity
  8
DIM
 62
     0
100
AcDbTrace
 10
171.795178
 20
162.123811
 30
0.0
 11
172.628511
 21
162.123811
 31
0.0
 12
172.211844
 22
164.623811
 32
0.0
 13
172.211844
 23
164.623811
 33
0.0
  0
SOLID
  5
F26
100
AcDbEntity
  8
DIM
 62
     0
100
AcDbTrace
 10
171.795178
 20
149.123811
 30
0.0
 11
172.628511
 21
149.123811
 31
0.0
 12
172.211844
 22
146.623811
 32
0.0
 13
172.211844
 23
146.623811
 33
0.0
  0
MTEXT
  5
F27
100
AcDbEntity
  8
DIM
100
AcDbMText
 10
169.761844
 20
155.623811
 30
0.0
 40
2.5
 41
0.0
 71
     5
 72
     5
  1
\A1;18
  7
BIGFONT
 11
0.0
 21
1.0
 31
0.0
1001
ACAD
1000
MTEXTBEGIN
1070
    73
1070
     1
1070
    44
1040
1.0
1070
    74
1070
     0
1000
MTEXTEND
  0
POINT
  5
F28
100
AcDbEntity
  8
DEFPOINTS
 62
     0
100
AcDbPoint
 10
137.471051
 20
164.623811
 30
0.0
  0
POINT
  5
F29
100
AcDbEntity
  8
DEFPOINTS
 62
     0
100
AcDbPoint
 10
166.721051
 20
146.623811
 30
0.0
  0
POINT
  5
F2A
100
AcDbEntity
  8
DEFPOINTS
 62
     0
100
AcDbPoint
 10
172.211844
 20
146.623811
 30
0.0
  0
ENDBLK
  5
BBA
100
AcDbEntity
  8
0
100
AcDbBlockEnd
  0
BLOCK
  5
BBD
100
AcDbEntity
  8
0
100
AcDbBlockBegin
  2
*D7
 70
     1
 10
0.0
 20
0.0
 30
0.0
  3
*D7
  1

  0
LINE
  5
F19
100
AcDbEntity
  8
DIM
 62
     0
100
AcDbLine
 10
106.096051
 20
146.623811
 30
0.0
 11
101.238672
 21
146.623811
 31
0.0
  0
LINE
  5
F1A
100
AcDbEntity
  8
DIM
 62
     0
100
AcDbLine
 10
112.096051
 20
128.623811
 30
0.0
 11
101.238672
 21
128.623811
 31
0.0
  0
LINE
  5
F1B
100
AcDbEntity
  8
DIM
 62
     0
100
AcDbLine
 10
102.488672
 20
144.123811
 30
0.0
 11
102.488672
 21
131.123811
 31
0.0
  0
SOLID
  5
F1C
100
AcDbEntity
  8
DIM
 62
     0
100
AcDbTrace
 10
102.072006
 20
144.123811
 30
0.0
 11
102.905339
 21
144.123811
 31
0.0
 12
102.488672
 22
146.623811
 32
0.0
 13
102.488672
 23
146.623811
 33
0.0
  0
SOLID
  5
F1D
100
AcDbEntity
  8
DIM
 62
     0
100
AcDbTrace
 10
102.072006
 20
131.123811
 30
0.0
 11
102.905339
 21
131.123811
 31
0.0
 12
102.488672
 22
128.623811
 32
0.0
 13
102.488672
 23
128.623811
 33
0.0
  0
MTEXT
  5
F1E
100
AcDbEntity
  8
DIM
100
AcDbMText
 10
100.038672
 20
137.623811
 30
0.0
 40
2.5
 41
0.0
 71
     5
 72
     5
  1
\A1;18
  7
BIGFONT
 11
0.0
 21
1.0
 31
0.0
1001
ACAD
1000
MTEXTBEGIN
1070
    73
1070
     1
1070
    44
1040
1.0
1070
    74
1070
     0
1000
MTEXTEND
  0
POINT
  5
F1F
100
AcDbEntity
  8
DEFPOINTS
 62
     0
100
AcDbPoint
 10
106.721051
 20
146.623811
 30
0.0
  0
POINT
  5
F20
100
AcDbEntity
  8
DEFPOINTS
 62
     0
100
AcDbPoint
 10
112.721051
 20
128.623811
 30
0.0
  0
POINT
  5
F21
100
AcDbEntity
  8
DEFPOINTS
 62
     0
100
AcDbPoint
 10
102.488672
 20
128.623811
 30
0.0
  0
ENDBLK
  5
BC7
100
AcDbEntity
  8
0
100
AcDbBlockEnd
  0
BLOCK
  5
BCA
100
AcDbEntity
  8
0
100
AcDbBlockBegin
  2
*D8
 70
     1
 10
0.0
 20
0.0
 30
0.0
  3
*D8
  1

  0
LINE
  5
F10
100
AcDbEntity
  8
DIM
 62
     0
100
AcDbLine
 10
136.721051
 20
115.998811
 30
0.0
 11
136.721051
 21
100.694877
 31
0.0
  0
LINE
  5
F11
100
AcDbEntity
  8
DIM
 62
     0
100
AcDbLine
 10
126.721051
 20
123.085933
 30
0.0
 11
126.721051
 21
100.694877
 31
0.0
  0
LINE
  5
F12
100
AcDbEntity
  8
DIM
 62
     0
100
AcDbLine
 10
134.221051
 20
101.944877
 30
0.0
 11
129.221051
 21
101.944877
 31
0.0
  0
SOLID
  5
F13
100
AcDbEntity
  8
DIM
 62
     0
100
AcDbTrace
 10
134.221051
 20
102.361544
 30
0.0
 11
134.221051
 21
101.528211
 31
0.0
 12
136.721051
 22
101.944877
 32
0.0
 13
136.721051
 23
101.944877
 33
0.0
  0
SOLID
  5
F14
100
AcDbEntity
  8
DIM
 62
     0
100
AcDbTrace
 10
129.221051
 20
102.361544
 30
0.0
 11
129.221051
 21
101.528211
 31
0.0
 12
126.721051
 22
101.944877
 32
0.0
 13
126.721051
 23
101.944877
 33
0.0
  0
MTEXT
  5
F15
100
AcDbEntity
  8
DIM
100
AcDbMText
 10
131.721051
 20
104.394877
 30
0.0
 40
2.5
 41
0.0
 71
     5
 72
     5
  1
\A1;10
  7
BIGFONT
1001
ACAD
1000
MTEXTBEGIN
1070
    73
1070
     1
1070
    44
1040
1.0
1070
    74
1070
     0
1000
MTEXTEND
  0
POINT
  5
F16
100
AcDbEntity
  8
DEFPOINTS
 62
     0
100
AcDbPoint
 10
136.721051
 20
116.623811
 30
0.0
  0
POINT
  5
F17
100
AcDbEntity
  8
DEFPOINTS
 62
     0
100
AcDbPoint
 10
126.721051
 20
123.710933
 30
0.0
  0
POINT
  5
F18
100
AcDbEntity
  8
DEFPOINTS
 62
     0
100
AcDbPoint
 10
126.721051
 20
101.944877
 30
0.0
  0
ENDBLK
  5
BD4
100
AcDbEntity
  8
0
100
AcDbBlockEnd
  0
BLOCK
  5
BD7
100
AcDbEntity
  8
0
100
AcDbBlockBegin
  2
*D9
 70
     1
 10
0.0
 20
0.0
 30
0.0
  3
*D9
  1

  0
LINE
  5
F05
100
AcDbEntity
  8
DIM
 62
     0
100
AcDbLine
 10
135.971051
 20
121.010064
 30
0.0
 11
135.971051
 21
107.757605
 31
0.0
  0
LINE
  5
F06
100
AcDbEntity
  8
DIM
 62
     0
100
AcDbLine
 10
137.471051
 20
121.010064
 30
0.0
 11
137.471051
 21
107.757605
 31
0.0
  0
LINE
  5
F07
100
AcDbEntity
  8
DIM
 62
     0
100
AcDbLine
 10
133.471051
 20
109.007605
 30
0.0
 11
130.971051
 21
109.007605
 31
0.0
  0
LINE
  5
F08
100
AcDbEntity
  8
DIM
 62
     0
100
AcDbLine
 10
139.971051
 20
109.007605
 30
0.0
 11
149.037718
 21
109.007605
 31
0.0
  0
LINE
  5
F09
100
AcDbEntity
  8
DIM
 62
     0
100
AcDbLine
 10
135.971051
 20
109.007605
 30
0.0
 11
137.471051
 21
109.007605
 31
0.0
  0
SOLID
  5
F0A
100
AcDbEntity
  8
DIM
 62
     0
100
AcDbTrace
 10
133.471051
 20
109.424272
 30
0.0
 11
133.471051
 21
108.590938
 31
0.0
 12
135.971051
 22
109.007605
 32
0.0
 13
135.971051
 23
109.007605
 33
0.0
  0
SOLID
  5
F0B
100
AcDbEntity
  8
DIM
 62
     0
100
AcDbTrace
 10
139.971051
 20
109.424272
 30
0.0
 11
139.971051
 21
108.590938
 31
0.0
 12
137.471051
 22
109.007605
 32
0.0
 13
137.471051
 23
109.007605
 33
0.0
  0
MTEXT
  5
F0C
100
AcDbEntity
  8
DIM
100
AcDbMText
 10
145.754385
 20
111.457605
 30
0.0
 40
2.5
 41
0.0
 71
     5
 72
     5
  1
\A1;1.5
  7
BIGFONT
1001
ACAD
1000
MTEXTBEGIN
1070
    73
1070
     1
1070
    44
1040
1.0
1070
    74
1070
     0
1000
MTEXTEND
  0
POINT
  5
F0D
100
AcDbEntity
  8
DEFPOINTS
 62
     0
100
AcDbPoint
 10
135.971051
 20
121.635064
 30
0.0
  0
POINT
  5
F0E
100
AcDbEntity
  8
DEFPOINTS
 62
     0
100
AcDbPoint
 10
137.471051
 20
121.635064
 30
0.0
  0
POINT
  5
F0F
100
AcDbEntity
  8
DEFPOINTS
 62
     0
100
AcDbPoint
 10
137.471051
 20
109.007605
 30
0.0
  0
ENDBLK
  5
BE3
100
AcDbEntity
  8
0
100
AcDbBlockEnd
  0
BLOCK
  5
CA8
100
AcDbEntity
  8
0
100
AcDbBlockBegin
  2
*D10
 70
     1
 10
0.0
 20
0.0
 30
0.0
  3
*D10
  1

  0
LINE
  5
EFF
100
AcDbEntity
  8
DIM
 62
     0
100
AcDbLine
 10
80.781519
 20
132.330018
 30
0.0
 11
71.723077
 21
130.397384
 31
0.0
  0
MTEXT
  5
F00
100
AcDbEntity
  8
DIM
100
AcDbMText
 10
77.059248
 20
134.041006
 30
0.0
 40
2.5
 41
0.0
 71
     5
 72
     5
  1
\A1;R6
  7
BIGFONT
 11
0.977989
 21
0.208656
 31
0.0
1001
ACAD
1000
MTEXTBEGIN
1070
    73
1070
     1
1070
    44
1040
1.0
1070
    74
1070
     0
1000
MTEXTEND
  0
LINE
  5
F01
100
AcDbEntity
  8
DIM
 62
     0
100
AcDbLine
 10
63.410169
 20
128.623811
 30
0.0
 11
69.278104
 21
129.875745
 31
0.0
  0
SOLID
  5
F02
100
AcDbEntity
  8
DIM
 62
     0
100
AcDbTrace
 10
71.636137
 20
130.80488
 30
0.0
 11
71.810016
 21
129.989889
 31
0.0
 12
69.278104
 22
129.875745
 32
0.0
 13
69.278104
 23
129.875745
 33
0.0
  0
POINT
  5
F03
100
AcDbEntity
  8
DEFPOINTS
 62
     0
100
AcDbPoint
 10
69.278104
 20
129.875745
 30
0.0
  0
POINT
  5
F04
100
AcDbEntity
  8
DEFPOINTS
 62
     0
100
AcDbPoint
 10
63.410169
 20
128.623811
 30
0.0
  0
ENDBLK
  5
CA9
100
AcDbEntity
  8
0
100
AcDbBlockEnd
  0
BLOCK
  5
E68
100
AcDbEntity
  8
0
100
AcDbBlockBegin
  2
_OPEN30
 70
     0
 10
0.0
 20
0.0
 30
0.0
  3
_OPEN30
  1

  0
LINE
  5
E65
100
AcDbEntity
  8
0
 62
     0
100
AcDbLine
 10
-1.0
 20
0.267949
 30
0.0
 11
0.0
 21
0.0
 31
0.0
  0
LINE
  5
E66
100
AcDbEntity
  8
0
 62
     0
100
AcDbLine
 10
0.0
 20
0.0
 30
0.0
 11
-1.0
 21
-0.267949
 31
0.0
  0
LINE
  5
E67
100
AcDbEntity
  8
0
 62
     0
100
AcDbLine
 10
0.0
 20
0.0
 30
0.0
 11
-1.0
 21
0.0
 31
0.0
  0
ENDBLK
  5
E69
100
AcDbEntity
  8
0
100
AcDbBlockEnd
  0
BLOCK
  5
E6C
100
AcDbEntity
  8
0
100
AcDbBlockBegin
  2
GENAXEH
 70
     0
 10
0.0
 20
0.0
 30
0.0
  3
GENAXEH
  1

  0
LINE
  5
E6B
100
AcDbEntity
  8
0
100
AcDbLine
 10
-1.0
 20
0.0
 30
0.0
 11
1.0
 21
0.0
 31
0.0
  0
ENDBLK
  5
E6D
100
AcDbEntity
  8
0
100
AcDbBlockEnd
  0
ENDSEC
  0
SECTION
  2
ENTITIES
  0
TEXT
  5
3E9
100
AcDbEntity
  8
図枠部品表
 62
     3
100
AcDbText
 10
403.65269
 20
422.521663
 30
0.0
 40
2.4325
  1

 41
0.8
  7
KANJI
 72
     1
 11
403.65269
 21
423.737913
 31
0.0
100
AcDbText
 73
     2
  0
TEXT
  5
A9F
100
AcDbEntity
  8
図枠
 62
     7
100
AcDbText
 10
162.933452
 20
10.11536
 30
0.0
 40
2.6
  1

  7
KANJI
 72
     1
 11
162.933452
 21
11.41536
 31
0.0
100
AcDbText
 73
     2
  0
LINE
  5
AFC
100
AcDbEntity
  8
CENTER
100
AcDbLine
 10
106.721051
 20
146.623811
 30
0.0
 11
166.721051
 21
146.623811
 31
0.0
  0
LINE
  5
AFD
100
AcDbEntity
  8
CENTER
100
AcDbLine
 10
136.721051
 20
113.13599
 30
0.0
 11
136.721051
 21
176.623811
 31
0.0
  0
ARC
  5
AFF
100
AcDbEntity
  8
0
100
AcDbCircle
 10
136.721051
 20
146.623811
 30
0.0
 40
25.0
100
AcDbArc
 50
271.719131
 51
268.280869
  0
ARC
  5
B00
100
AcDbEntity
  8
0
100
AcDbCircle
 10
136.721051
 20
146.623811
 30
0.0
 40
12.5
100
AcDbArc
 50
93.439813
 51
266.560187
  0
ARC
  5
B01
100
AcDbEntity
  8
0
100
AcDbCircle
 10
136.721051
 20
146.623811
 30
0.0
 40
24.5
100
AcDbArc
 50
271.754226
 51
268.245774
  0
ARC
  5
B02
100
AcDbEntity
  8
0
100
AcDbCircle
 10
136.721051
 20
146.623811
 30
0.0
 40
13.0
100
AcDbArc
 50
93.307362
 51
266.692638
  0
LINE
  5
B04
100
AcDbEntity
  8
0
100
AcDbLine
 10
137.471051
 20
164.623811
 30
0.0
 11
137.471051
 21
159.101291
 31
0.0
  0
LINE
  5
B06
100
AcDbEntity
  8
0
100
AcDbLine
 10
135.971051
 20
121.635064
 30
0.0
 11
135.971051
 21
134.146332
 31
0.0
  0
LINE
  5
B08
100
AcDbEntity
  8
0
100
AcDbLine
 10
137.471051
 20
164.623811
 30
0.0
 11
135.971051
 21
164.623811
 31
0.0
  0
LINE
  5
B0A
100
AcDbEntity
  8
CENTER
100
AcDbLine
 10
112.721051
 20
128.623811
 30
0.0
 11
160.721051
 21
128.623811
 31
0.0
  0
ARC
  5
B0C
100
AcDbEntity
  8
0
100
AcDbCircle
 10
136.721051
 20
146.623811
 30
0.0
 40
12.5
100
AcDbArc
 50
273.439813
 51
86.560187
  0
ARC
  5
B0D
100
AcDbEntity
  8
0
100
AcDbCircle
 10
136.721051
 20
146.623811
 30
0.0
 40
13.0
100
AcDbArc
 50
273.307362
 51
86.692638
  0
LINE
  5
B10
100
AcDbEntity
  8
0
  6
HIDDEN
 62
     3
100
AcDbLine
 10
151.107601
 20
131.623811
 30
0.0
 11
156.721051
 21
131.623811
 31
0.0
  0
LINE
  5
B15
100
AcDbEntity
  8
0
  6
HIDDEN
100
AcDbLine
 10
126.721051
 20
132.123811
 30
0.0
 11
135.971051
 21
132.123811
 31
0.0
  0
LINE
  5
B17
100
AcDbEntity
  8
0
  6
HIDDEN
100
AcDbLine
 10
126.721051
 20
125.123811
 30
0.0
 11
135.971051
 21
125.123811
 31
0.0
  0
LINE
  5
B19
100
AcDbEntity
  8
0
  6
HIDDEN
100
AcDbLine
 10
114.789339
 20
134.623811
 30
0.0
 11
126.721051
 21
134.623811
 31
0.0
  0
LINE
  5
B1B
100
AcDbEntity
  8
0
  6
HIDDEN
100
AcDbLine
 10
126.721051
 20
123.710933
 30
0.0
 11
126.721051
 21
134.623811
 31
0.0
  0
LINE
  5
B1E
100
AcDbEntity
  8
CENTER
100
AcDbLine
 10
63.410169
 20
137.230333
 30
0.0
 11
63.410169
 21
120.01729
 31
0.0
  0
LINE
  5
B21
100
AcDbEntity
  8
0
100
AcDbLine
 10
70.410169
 20
171.623811
 30
0.0
 11
56.410169
 21
171.623811
 31
0.0
  0
LINE
  5
B22
100
AcDbEntity
  8
CENTER
  6
CENTER
100
AcDbLine
 10
73.410169
 20
146.623811
 30
0.0
 11
53.410169
 21
146.623811
 31
0.0
  0
LINE
  5
B23
100
AcDbEntity
  8
CENTER
  6
CENTER
100
AcDbLine
 10
72.01669
 20
128.623811
 30
0.0
 11
54.803647
 21
128.623811
 31
0.0
  0
LINE
  5
B26
100
AcDbEntity
  8
0
100
AcDbLine
 10
55.910169
 20
171.123811
 30
0.0
 11
55.910169
 21
122.123811
 31
0.0
  0
LINE
  5
B28
100
AcDbEntity
  8
0
100
AcDbLine
 10
70.910169
 20
122.123811
 30
0.0
 11
70.910169
 21
171.123811
 31
0.0
  0
LINE
  5
B29
100
AcDbEntity
  8
0
100
AcDbLine
 10
70.410169
 20
121.623811
 30
0.0
 11
56.410169
 21
121.623811
 31
0.0
  0
LINE
  5
B2A
100
AcDbEntity
  8
0
100
AcDbLine
 10
70.410169
 20
171.623811
 30
0.0
 11
70.910169
 21
171.123811
 31
0.0
  0
LINE
  5
B2B
100
AcDbEntity
  8
0
100
AcDbLine
 10
70.910169
 20
122.123811
 30
0.0
 11
70.410169
 21
121.623811
 31
0.0
  0
LINE
  5
B2C
100
AcDbEntity
  8
0
100
AcDbLine
 10
56.410169
 20
121.623811
 30
0.0
 11
55.910169
 21
122.123811
 31
0.0
  0
LINE
  5
B2D
100
AcDbEntity
  8
0
100
AcDbLine
 10
55.910169
 20
171.123811
 30
0.0
 11
56.410169
 21
171.623811
 31
0.0
  0
LINE
  5
B32
100
AcDbEntity
  8
0
100
AcDbLine
 10
70.410169
 20
171.623811
 30
0.0
 11
70.410169
 21
121.623811
 31
0.0
  0
LINE
  5
B33
100
AcDbEntity
  8
0
100
AcDbLine
 10
56.410169
 20
171.623811
 30
0.0
 11
56.410169
 21
121.623811
 31
0.0
  0
LINE
  5
B35
100
AcDbEntity
  8
0
100
AcDbLine
 10
69.410169
 20
123.710933
 30
0.0
 11
64.339483
 21
123.710933
 31
0.0
  0
ARC
  5
B3D
100
AcDbEntity
  8
0
100
AcDbCircle
 10
63.410169
 20
128.623811
 30
0.0
 40
6.0
100
AcDbArc
 50
0.0
 51
180.0
  0
LINE
  5
B3E
100
AcDbEntity
  8
0
100
AcDbLine
 10
69.410169
 20
128.623811
 30
0.0
 11
69.410169
 21
123.710933
 31
0.0
  0
LINE
  5
B3F
100
AcDbEntity
  8
0
100
AcDbLine
 10
57.410169
 20
128.623811
 30
0.0
 11
57.410169
 21
123.710933
 31
0.0
  0
LINE
  5
B40
100
AcDbEntity
  8
0
  6
HIDDEN
100
AcDbLine
 10
70.910169
 20
164.623811
 30
0.0
 11
55.910169
 21
164.623811
 31
0.0
  0
LINE
  5
B42
100
AcDbEntity
  8
0
  6
HIDDEN
100
AcDbLine
 10
70.410169
 20
159.123811
 30
0.0
 11
56.410169
 21
159.123811
 31
0.0
  0
LINE
  5
B44
100
AcDbEntity
  8
0
  6
HIDDEN
100
AcDbLine
 10
56.410169
 20
134.123811
 30
0.0
 11
70.410169
 21
134.123811
 31
0.0
  0
LINE
  5
B45
100
AcDbEntity
  8
0
100
AcDbLine
 10
56.410169
 20
159.123811
 30
0.0
 11
55.910169
 21
159.623811
 31
0.0
  0
LINE
  5
B46
100
AcDbEntity
  8
0
100
AcDbLine
 10
70.410169
 20
159.123811
 30
0.0
 11
70.910169
 21
159.623811
 31
0.0
  0
LINE
  5
B47
100
AcDbEntity
  8
0
100
AcDbLine
 10
56.410169
 20
134.123811
 30
0.0
 11
55.910169
 21
133.623811
 31
0.0
  0
LINE
  5
B48
100
AcDbEntity
  8
0
100
AcDbLine
 10
70.410169
 20
134.123811
 30
0.0
 11
70.910169
 21
133.623811
 31
0.0
  0
LINE
  5
C18
100
AcDbEntity
  8
0
100
AcDbLine
 10
135.971051
 20
159.101291
 30
0.0
 11
135.971051
 21
164.623811
 31
0.0
  0
LINE
  5
C19
100
AcDbEntity
  8
0
100
AcDbLine
 10
137.471051
 20
134.146332
 30
0.0
 11
137.471051
 21
121.635064
 31
0.0
  0
LINE
  5
E31
100
AcDbEntity
  8
0
100
AcDbLine
 10
14.498464
 20
122.123811
 30
0.0
 11
14.498464
 21
133.623811
 31
0.0
  0
LINE
  5
E32
100
AcDbEntity
  8
0
100
AcDbLine
 10
-0.501536
 20
171.123811
 30
0.0
 11
-0.501536
 21
159.623811
 31
0.0
  0
CIRCLE
  5
E35
100
AcDbEntity
  8
0
100
AcDbCircle
 10
6.998464
 20
128.623811
 30
0.0
 40
3.5
  0
LINE
  5
E36
100
AcDbEntity
  8
CENTER
100
AcDbLine
 10
6.998464
 20
137.230333
 30
0.0
 11
6.998464
 21
120.01729
 31
0.0
  0
LINE
  5
E38
100
AcDbEntity
  8
0
100
AcDbLine
 10
13.998464
 20
121.623811
 30
0.0
 11
-0.001536
 21
121.623811
 31
0.0
  0
LINE
  5
E39
100
AcDbEntity
  8
0
100
AcDbLine
 10
-0.001536
 20
121.623811
 30
0.0
 11
-0.501536
 21
122.123811
 31
0.0
  0
LINE
  5
E3A
100
AcDbEntity
  8
0
100
AcDbLine
 10
14.498464
 20
122.123811
 30
0.0
 11
13.998464
 21
121.623811
 31
0.0
  0
LINE
  5
E3B
100
AcDbEntity
  8
0
100
AcDbLine
 10
-0.001536
 20
134.123811
 30
0.0
 11
13.998464
 21
134.123811
 31
0.0
  0
CIRCLE
  5
E3D
100
AcDbEntity
  8
0
100
AcDbCircle
 10
6.998464
 20
128.623811
 30
0.0
 40
3.0
  0
CIRCLE
  5
E3E
100
AcDbEntity
  8
0
 62
     3
100
AcDbCircle
 10
6.998464
 20
128.623811
 30
0.0
 40
2.4585
  0
LINE
  5
E3F
100
AcDbEntity
  8
CENTER
  6
CENTER
100
AcDbLine
 10
15.604985
 20
128.623811
 30
0.0
 11
-1.608058
 21
128.623811
 31
0.0
  0
LINE
  5
E40
100
AcDbEntity
  8
CENTER
  6
CENTER
100
AcDbLine
 10
16.998464
 20
146.623811
 30
0.0
 11
-3.001536
 21
146.623811
 31
0.0
  0
LINE
  5
E41
100
AcDbEntity
  8
0
100
AcDbLine
 10
-0.001536
 20
134.123811
 30
0.0
 11
-0.501536
 21
133.623811
 31
0.0
  0
LINE
  5
E42
100
AcDbEntity
  8
0
100
AcDbLine
 10
13.998464
 20
134.123811
 30
0.0
 11
14.498464
 21
133.623811
 31
0.0
  0
LINE
  5
E43
100
AcDbEntity
  8
0
100
AcDbLine
 10
13.998464
 20
159.123811
 30
0.0
 11
-0.001536
 21
159.123811
 31
0.0
  0
LINE
  5
E44
100
AcDbEntity
  8
0
100
AcDbLine
 10
14.498464
 20
164.623811
 30
0.0
 11
-0.501536
 21
164.623811
 31
0.0
  0
LINE
  5
E45
100
AcDbEntity
  8
0
100
AcDbLine
 10
13.998464
 20
171.623811
 30
0.0
 11
-0.001536
 21
171.623811
 31
0.0
  0
LINE
  5
E46
100
AcDbEntity
  8
0
100
AcDbLine
 10
-0.001536
 20
159.123811
 30
0.0
 11
-0.501536
 21
159.623811
 31
0.0
  0
LINE
  5
E47
100
AcDbEntity
  8
0
100
AcDbLine
 10
-0.501536
 20
171.123811
 30
0.0
 11
-0.001536
 21
171.623811
 31
0.0
  0
LINE
  5
E48
100
AcDbEntity
  8
0
100
AcDbLine
 10
13.998464
 20
159.123811
 30
0.0
 11
14.498464
 21
159.623811
 31
0.0
  0
LINE
  5
E49
100
AcDbEntity
  8
0
100
AcDbLine
 10
13.998464
 20
171.623811
 30
0.0
 11
14.498464
 21
171.123811
 31
0.0
  0
POINT
  5
E9E
100
AcDbEntity
  8
0
 60
     1
100
AcDbPoint
 10
165.380755
 20
188.138822
 30
0.0
 50
90.0
1001
GENIUS_GENOBJ-NBEHI-BHF_13
1002
{
1000
OWNER
1000
GENBEHI
1002
}
1001
GENIUS_GENOENT_13
1002
{
1000
MYREF
1005
E9E
1002
}
1002
{
1000
GRP
1005
0
1002
}
1001
GENIUS_GENOLIS_13
1002
{
1000
ENT
1005
0
1002
}
1001
GENIUS_GENBH_13
1002
{
1000
OIUMAP
1000
OIU
1002
}
1002
{
1000
FLAGS
1070
    32
1002
}
1002
{
1000
BGO
1005
E9F
1002
}
1001
GENIUS_GENODEF_13
1002
{
1000
HIER
1070
     1
1002
}
1002
{
1000
MANEDIT
1070
     1
1002
}
1002
{
1000
NOSEL
1070
     1
1002
}
1002
{
1000
BEHIND
1070
     0
1002
}
1002
{
1000
REACTOR
1002
}
  0
POINT
  5
E9F
100
AcDbEntity
  8
0
 60
     1
100
AcDbPoint
 10
165.380755
 20
188.138822
 30
0.0
 50
90.0
1001
GENIUS_GENOBJ-NBEHI-BHB_13
1002
{
1000
OWNER
1000
GENBEHI
1002
}
1001
GENIUS_GENOENT_13
1002
{
1000
MYREF
1005
E9F
1002
}
1002
{
1000
GRP
1005
0
1002
}
1001
GENIUS_GENOLIS_13
1002
{
1000
ENT
1002
}
1001
GENIUS_GENODEF_13
1002
{
1000
HIER
1070
     1
1002
}
1002
{
1000
MANEDIT
1070
     0
1002
}
1002
{
1000
NOSEL
1070
     1
1002
}
1002
{
1000
BEHIND
1070
     0
1002
}
1002
{
1000
REACTOR
1002
}
1002
{
1000
OTHER
1070
     1
1002
}
1001
GENIUS_GENBH_13
1002
{
1000
FGO
1005
E9E
1002
}
  0
POINT
  5
EA0
100
AcDbEntity
  8
0
 60
     1
100
AcDbPoint
 10
165.380755
 20
188.138822
 30
0.0
 50
90.0
1001
GENIUS_GENOBJ-NBEHI-BHF_13
1002
{
1000
OWNER
1000
GENBEHI
1002
}
1001
GENIUS_GENOENT_13
1002
{
1000
MYREF
1005
EA0
1002
}
1002
{
1000
GRP
1005
0
1002
}
1001
GENIUS_GENOLIS_13
1002
{
1000
ENT
1005
0
1002
}
1001
GENIUS_GENODEF_13
1002
{
1000
HIER
1070
     1
1002
}
1002
{
1000
MANEDIT
1070
     0
1002
}
1002
{
1000
NOSEL
1070
     1
1002
}
1002
{
1000
BEHIND
1070
     0
1002
}
1002
{
1000
REACTOR
1002
}
1001
GENIUS_GENBH_13
1002
{
1000
OIUMAP
1000
OIU
1002
}
1002
{
1000
FLAGS
1070
    32
1002
}
1002
{
1000
BGO
1005
EA1
1002
}
  0
POINT
  5
EA1
100
AcDbEntity
  8
0
 60
     1
100
AcDbPoint
 10
165.380755
 20
188.138822
 30
0.0
 50
90.0
1001
GENIUS_GENOBJ-NBEHI-BHB_13
1002
{
1000
OWNER
1000
GENBEHI
1002
}
1001
GENIUS_GENOENT_13
1002
{
1000
MYREF
1005
EA1
1002
}
1002
{
1000
GRP
1005
0
1002
}
1001
GENIUS_GENOLIS_13
1002
{
1000
ENT
1002
}
1001
GENIUS_GENODEF_13
1002
{
1000
HIER
1070
     1
1002
}
1002
{
1000
MANEDIT
1070
     0
1002
}
1002
{
1000
NOSEL
1070
     1
1002
}
1002
{
1000
BEHIND
1070
     0
1002
}
1002
{
1000
REACTOR
1002
}
1002
{
1000
OTHER
1070
     1
1002
}
1001
GENIUS_GENBH_13
1002
{
1000
FGO
1005
EA0
1002
}
  0
POINT
  5
EA2
100
AcDbEntity
  8
0
 60
     1
100
AcDbPoint
 10
165.380755
 20
188.138822
 30
0.0
 50
90.0
1001
GENIUS_GENOBJ-NBEHI-BHF_13
1002
{
1000
OWNER
1000
GENBEHI
1002
}
1001
GENIUS_GENOENT_13
1002
{
1000
MYREF
1005
EA2
1002
}
1002
{
1000
GRP
1005
0
1002
}
1001
GENIUS_GENOLIS_13
1002
{
1000
ENT
1005
0
1002
}
1001
GENIUS_GENBH_13
1002
{
1000
OIUMAP
1000
OIU
1002
}
1002
{
1000
FLAGS
1070
    32
1002
}
1002
{
1000
BGO
1005
EA3
1002
}
1001
GENIUS_GENODEF_13
1002
{
1000
HIER
1070
     1
1002
}
1002
{
1000
MANEDIT
1070
     1
1002
}
1002
{
1000
NOSEL
1070
     1
1002
}
1002
{
1000
BEHIND
1070
     0
1002
}
1002
{
1000
REACTOR
1002
}
  0
POINT
  5
EA3
100
AcDbEntity
  8
0
 60
     1
100
AcDbPoint
 10
165.380755
 20
188.138822
 30
0.0
 50
90.0
1001
GENIUS_GENOBJ-NBEHI-BHB_13
1002
{
1000
OWNER
1000
GENBEHI
1002
}
1001
GENIUS_GENOENT_13
1002
{
1000
MYREF
1005
EA3
1002
}
1002
{
1000
GRP
1005
0
1002
}
1001
GENIUS_GENOLIS_13
1002
{
1000
ENT
1002
}
1001
GENIUS_GENODEF_13
1002
{
1000
HIER
1070
     1
1002
}
1002
{
1000
MANEDIT
1070
     0
1002
}
1002
{
1000
NOSEL
1070
     1
1002
}
1002
{
1000
BEHIND
1070
     0
1002
}
1002
{
1000
REACTOR
1002
}
1002
{
1000
OTHER
1070
     1
1002
}
1001
GENIUS_GENBH_13
1002
{
1000
FGO
1005
EA2
1002
}
  0
POINT
  5
EA4
100
AcDbEntity
  8
0
 60
     1
100
AcDbPoint
 10
165.380755
 20
188.138822
 30
0.0
 50
90.0
1001
GENIUS_GENOBJ-F-SCPASSM_13
1002
{
1000
OWNER
1000
GEF
1002
}
1001
GENIUS_GENOENT_13
1002
{
1000
MYREF
1005
EA4
1002
}
1002
{
1000
GRP
1005
0
1002
}
1001
GENIUS_GENOLIS_13
1002
{
1000
ENT
1005
0
1005
0
1002
}
1001
GENIUS_GENODEF_13
1002
{
1000
HIER
1070
   200
1002
}
1002
{
1000
MANEDIT
1070
     1
1002
}
1002
{
1000
NOSEL
1070
     0
1002
}
1002
{
1000
BEHIND
1070
     0
1002
}
1002
{
1000
REACTOR
1002
}
  0
POINT
  5
EA5
100
AcDbEntity
  8
0
 60
     1
100
AcDbPoint
 10
165.380755
 20
188.138822
 30
0.0
 50
90.0
1001
GENIUS_GENOBJ-NBEHI-BHF_13
1002
{
1000
OWNER
1000
GENBEHI
1002
}
1001
GENIUS_GENOENT_13
1002
{
1000
MYREF
1005
EA5
1002
}
1002
{
1000
GRP
1005
0
1002
}
1001
GENIUS_GENOLIS_13
1002
{
1000
ENT
1005
0
1002
}
1001
GENIUS_GENODEF_13
1002
{
1000
HIER
1070
     1
1002
}
1002
{
1000
MANEDIT
1070
     0
1002
}
1002
{
1000
NOSEL
1070
     1
1002
}
1002
{
1000
BEHIND
1070
     0
1002
}
1002
{
1000
REACTOR
1002
}
1001
GENIUS_GENBH_13
1002
{
1000
OIUMAP
1000
OIU
1002
}
1002
{
1000
FLAGS
1070
    32
1002
}
1002
{
1000
BGO
1005
EA6
1002
}
  0
POINT
  5
EA6
100
AcDbEntity
  8
0
 60
     1
100
AcDbPoint
 10
165.380755
 20
188.138822
 30
0.0
 50
90.0
1001
GENIUS_GENOBJ-NBEHI-BHB_13
1002
{
1000
OWNER
1000
GENBEHI
1002
}
1001
GENIUS_GENOENT_13
1002
{
1000
MYREF
1005
EA6
1002
}
1002
{
1000
GRP
1005
0
1002
}
1001
GENIUS_GENOLIS_13
1002
{
1000
ENT
1002
}
1001
GENIUS_GENODEF_13
1002
{
1000
HIER
1070
     1
1002
}
1002
{
1000
MANEDIT
1070
     0
1002
}
1002
{
1000
NOSEL
1070
     1
1002
}
1002
{
1000
BEHIND
1070
     0
1002
}
1002
{
1000
REACTOR
1002
}
1002
{
1000
OTHER
1070
     1
1002
}
1001
GENIUS_GENBH_13
1002
{
1000
FGO
1005
EA5
1002
}
  0
POINT
  5
EA7
100
AcDbEntity
  8
0
 60
     1
100
AcDbPoint
 10
165.380755
 20
188.138822
 30
0.0
 50
90.0
1001
GENIUS_GENOBJ-NBEHI-BHF_13
1002
{
1000
OWNER
1000
GENBEHI
1002
}
1001
GENIUS_GENOENT_13
1002
{
1000
MYREF
1005
EA7
1002
}
1002
{
1000
GRP
1005
0
1002
}
1001
GENIUS_GENOLIS_13
1002
{
1000
ENT
1005
0
1002
}
1001
GENIUS_GENBH_13
1002
{
1000
OIUMAP
1000
OIU
1002
}
1002
{
1000
FLAGS
1070
    32
1002
}
1002
{
1000
BGO
1005
EA8
1002
}
1001
GENIUS_GENODEF_13
1002
{
1000
HIER
1070
     1
1002
}
1002
{
1000
MANEDIT
1070
     1
1002
}
1002
{
1000
NOSEL
1070
     1
1002
}
1002
{
1000
BEHIND
1070
     0
1002
}
1002
{
1000
REACTOR
1002
}
  0
POINT
  5
EA8
100
AcDbEntity
  8
0
 60
     1
100
AcDbPoint
 10
165.380755
 20
188.138822
 30
0.0
 50
90.0
1001
GENIUS_GENOBJ-NBEHI-BHB_13
1002
{
1000
OWNER
1000
GENBEHI
1002
}
1001
GENIUS_GENOENT_13
1002
{
1000
MYREF
1005
EA8
1002
}
1002
{
1000
GRP
1005
0
1002
}
1001
GENIUS_GENOLIS_13
1002
{
1000
ENT
1005
0
1002
}
1001
GENIUS_GENODEF_13
1002
{
1000
HIER
1070
     1
1002
}
1002
{
1000
MANEDIT
1070
     0
1002
}
1002
{
1000
NOSEL
1070
     1
1002
}
1002
{
1000
BEHIND
1070
     0
1002
}
1002
{
1000
REACTOR
1002
}
1002
{
1000
OTHER
1070
     1
1002
}
1001
GENIUS_GENBH_13
1002
{
1000
FGO
1005
EA7
1002
}
  0
POINT
  5
EA9
100
AcDbEntity
  8
0
 60
     1
100
AcDbPoint
 10
165.380755
 20
188.138822
 30
0.0
 50
90.0
1001
GENIUS_GENOBJ-F-SCPASSM_13
1002
{
1000
OWNER
1000
GEF
1002
}
1001
GENIUS_GENOENT_13
1002
{
1000
MYREF
1005
EA9
1002
}
1002
{
1000
GRP
1005
0
1002
}
1001
GENIUS_GENOLIS_13
1002
{
1000
ENT
1005
0
1005
0
1002
}
1001
GENIUS_GENODEF_13
1002
{
1000
HIER
1070
   200
1002
}
1002
{
1000
MANEDIT
1070
     1
1002
}
1002
{
1000
NOSEL
1070
     0
1002
}
1002
{
1000
BEHIND
1070
     0
1002
}
1002
{
1000
REACTOR
1002
}
  0
POINT
  5
EAA
100
AcDbEntity
  8
0
 60
     1
100
AcDbPoint
 10
165.380755
 20
188.138822
 30
0.0
 50
90.0
1001
GENIUS_GENOBJ-NBEHI-BHF_13
1002
{
1000
OWNER
1000
GENBEHI
1002
}
1001
GENIUS_GENOENT_13
1002
{
1000
MYREF
1005
EAA
1002
}
1002
{
1000
GRP
1005
0
1002
}
1001
GENIUS_GENOLIS_13
1002
{
1000
ENT
1005
0
1002
}
1001
GENIUS_GENODEF_13
1002
{
1000
HIER
1070
     1
1002
}
1002
{
1000
MANEDIT
1070
     0
1002
}
1002
{
1000
NOSEL
1070
     1
1002
}
1002
{
1000
BEHIND
1070
     0
1002
}
1002
{
1000
REACTOR
1002
}
1001
GENIUS_GENBH_13
1002
{
1000
OIUMAP
1000
OIU
1002
}
1002
{
1000
FLAGS
1070
    32
1002
}
1002
{
1000
BGO
1005
EAB
1002
}
  0
POINT
  5
EAB
100
AcDbEntity
  8
0
 60
     1
100
AcDbPoint
 10
165.380755
 20
188.138822
 30
0.0
 50
90.0
1001
GENIUS_GENOBJ-NBEHI-BHB_13
1002
{
1000
OWNER
1000
GENBEHI
1002
}
1001
GENIUS_GENOENT_13
1002
{
1000
MYREF
1005
EAB
1002
}
1002
{
1000
GRP
1005
0
1002
}
1001
GENIUS_GENOLIS_13
1002
{
1000
ENT
1002
}
1001
GENIUS_GENODEF_13
1002
{
1000
HIER
1070
     1
1002
}
1002
{
1000
MANEDIT
1070
     0
1002
}
1002
{
1000
NOSEL
1070
     1
1002
}
1002
{
1000
BEHIND
1070
     0
1002
}
1002
{
1000
REACTOR
1002
}
1002
{
1000
OTHER
1070
     1
1002
}
1001
GENIUS_GENBH_13
1002
{
1000
FGO
1005
EAA
1002
}
  0
POINT
  5
EAC
100
AcDbEntity
  8
0
 60
     1
100
AcDbPoint
 10
165.380755
 20
188.138822
 30
0.0
 50
90.0
1001
GENIUS_GENOBJ-NBEHI-BHF_13
1002
{
1000
OWNER
1000
GENBEHI
1002
}
1001
GENIUS_GENOENT_13
1002
{
1000
MYREF
1005
EAC
1002
}
1002
{
1000
GRP
1005
0
1002
}
1001
GENIUS_GENOLIS_13
1002
{
1000
ENT
1005
0
1002
}
1001
GENIUS_GENBH_13
1002
{
1000
OIUMAP
1000
OIU
1002
}
1002
{
1000
FLAGS
1070
    32
1002
}
1002
{
1000
BGO
1005
EAD
1002
}
1001
GENIUS_GENODEF_13
1002
{
1000
HIER
1070
     1
1002
}
1002
{
1000
MANEDIT
1070
     1
1002
}
1002
{
1000
NOSEL
1070
     1
1002
}
1002
{
1000
BEHIND
1070
     0
1002
}
1002
{
1000
REACTOR
1002
}
  0
POINT
  5
EAD
100
AcDbEntity
  8
0
 60
     1
100
AcDbPoint
 10
165.380755
 20
188.138822
 30
0.0
 50
90.0
1001
GENIUS_GENOBJ-NBEHI-BHB_13
1002
{
1000
OWNER
1000
GENBEHI
1002
}
1001
GENIUS_GENOENT_13
1002
{
1000
MYREF
1005
EAD
1002
}
1002
{
1000
GRP
1005
0
1002
}
1001
GENIUS_GENOLIS_13
1002
{
1000
ENT
1005
0
1002
}
1001
GENIUS_GENODEF_13
1002
{
1000
HIER
1070
     1
1002
}
1002
{
1000
MANEDIT
1070
     0
1002
}
1002
{
1000
NOSEL
1070
     1
1002
}
1002
{
1000
BEHIND
1070
     0
1002
}
1002
{
1000
REACTOR
1002
}
1002
{
1000
OTHER
1070
     1
1002
}
1001
GENIUS_GENBH_13
1002
{
1000
FGO
1005
EAC
1002
}
  0
POINT
  5
EAE
100
AcDbEntity
  8
0
 60
     1
100
AcDbPoint
 10
165.380755
 20
188.138822
 30
0.0
 50
90.0
1001
GENIUS_GENOBJ-F-SCPASSM_13
1002
{
1000
OWNER
1000
GEF
1002
}
1001
GENIUS_GENOENT_13
1002
{
1000
MYREF
1005
EAE
1002
}
1002
{
1000
GRP
1005
0
1002
}
1001
GENIUS_GENOLIS_13
1002
{
1000
ENT
1005
0
1005
0
1002
}
1001
GENIUS_GENODEF_13
1002
{
1000
HIER
1070
   200
1002
}
1002
{
1000
MANEDIT
1070
     1
1002
}
1002
{
1000
NOSEL
1070
     0
1002
}
1002
{
1000
BEHIND
1070
     0
1002
}
1002
{
1000
REACTOR
1002
}
  0
POINT
  5
EAF
100
AcDbEntity
  8
0
 60
     1
100
AcDbPoint
 10
165.380755
 20
188.138822
 30
0.0
 50
90.0
1001
GENIUS_GENOBJ-NBEHI-BHF_13
1002
{
1000
OWNER
1000
GENBEHI
1002
}
1001
GENIUS_GENOENT_13
1002
{
1000
MYREF
1005
EAF
1002
}
1002
{
1000
GRP
1005
0
1002
}
1001
GENIUS_GENOLIS_13
1002
{
1000
ENT
1005
0
1002
}
1001
GENIUS_GENODEF_13
1002
{
1000
HIER
1070
     1
1002
}
1002
{
1000
MANEDIT
1070
     0
1002
}
1002
{
1000
NOSEL
1070
     1
1002
}
1002
{
1000
BEHIND
1070
     0
1002
}
1002
{
1000
REACTOR
1002
}
1001
GENIUS_GENBH_13
1002
{
1000
OIUMAP
1000
OIU
1002
}
1002
{
1000
FLAGS
1070
    32
1002
}
1002
{
1000
BGO
1005
EB0
1002
}
  0
POINT
  5
EB0
100
AcDbEntity
  8
0
 60
     1
100
AcDbPoint
 10
165.380755
 20
188.138822
 30
0.0
 50
90.0
1001
GENIUS_GENOBJ-NBEHI-BHB_13
1002
{
1000
OWNER
1000
GENBEHI
1002
}
1001
GENIUS_GENOENT_13
1002
{
1000
MYREF
1005
EB0
1002
}
1002
{
1000
GRP
1005
0
1002
}
1001
GENIUS_GENOLIS_13
1002
{
1000
ENT
1002
}
1001
GENIUS_GENODEF_13
1002
{
1000
HIER
1070
     1
1002
}
1002
{
1000
MANEDIT
1070
     0
1002
}
1002
{
1000
NOSEL
1070
     1
1002
}
1002
{
1000
BEHIND
1070
     0
1002
}
1002
{
1000
REACTOR
1002
}
1002
{
1000
OTHER
1070
     1
1002
}
1001
GENIUS_GENBH_13
1002
{
1000
FGO
1005
EAF
1002
}
  0
POINT
  5
EB1
100
AcDbEntity
  8
0
 60
     1
100
AcDbPoint
 10
165.380755
 20
188.138822
 30
0.0
 50
90.0
1001
GENIUS_GENOBJ-NBEHI-BHF_13
1002
{
1000
OWNER
1000
GENBEHI
1002
}
1001
GENIUS_GENOENT_13
1002
{
1000
MYREF
1005
EB1
1002
}
1002
{
1000
GRP
1005
0
1002
}
1001
GENIUS_GENOLIS_13
1002
{
1000
ENT
1005
0
1002
}
1001
GENIUS_GENBH_13
1002
{
1000
OIUMAP
1000
OIU
1002
}
1002
{
1000
FLAGS
1070
    32
1002
}
1002
{
1000
BGO
1005
EB2
1002
}
1001
GENIUS_GENODEF_13
1002
{
1000
HIER
1070
     1
1002
}
1002
{
1000
MANEDIT
1070
     1
1002
}
1002
{
1000
NOSEL
1070
     1
1002
}
1002
{
1000
BEHIND
1070
     0
1002
}
1002
{
1000
REACTOR
1002
}
  0
POINT
  5
EB2
100
AcDbEntity
  8
0
 60
     1
100
AcDbPoint
 10
165.380755
 20
188.138822
 30
0.0
 50
90.0
1001
GENIUS_GENOBJ-NBEHI-BHB_13
1002
{
1000
OWNER
1000
GENBEHI
1002
}
1001
GENIUS_GENOENT_13
1002
{
1000
MYREF
1005
EB2
1002
}
1002
{
1000
GRP
1005
0
1002
}
1001
GENIUS_GENOLIS_13
1002
{
1000
ENT
1005
0
1002
}
1001
GENIUS_GENODEF_13
1002
{
1000
HIER
1070
     1
1002
}
1002
{
1000
MANEDIT
1070
     0
1002
}
1002
{
1000
NOSEL
1070
     1
1002
}
1002
{
1000
BEHIND
1070
     0
1002
}
1002
{
1000
REACTOR
1002
}
1002
{
1000
OTHER
1070
     1
1002
}
1001
GENIUS_GENBH_13
1002
{
1000
FGO
1005
EB1
1002
}
  0
POINT
  5
EB3
100
AcDbEntity
  8
0
 60
     1
100
AcDbPoint
 10
165.380755
 20
188.138822
 30
0.0
 50
90.0
1001
GENIUS_GENOBJ-F-SCPASSM_13
1002
{
1000
OWNER
1000
GEF
1002
}
1001
GENIUS_GENOENT_13
1002
{
1000
MYREF
1005
EB3
1002
}
1002
{
1000
GRP
1005
0
1002
}
1001
GENIUS_GENOLIS_13
1002
{
1000
ENT
1005
0
1005
0
1002
}
1001
GENIUS_GENODEF_13
1002
{
1000
HIER
1070
   200
1002
}
1002
{
1000
MANEDIT
1070
     1
1002
}
1002
{
1000
NOSEL
1070
     0
1002
}
1002
{
1000
BEHIND
1070
     0
1002
}
1002
{
1000
REACTOR
1002
}
  0
POINT
  5
EB4
100
AcDbEntity
  8
0
 60
     1
100
AcDbPoint
 10
165.380755
 20
188.138822
 30
0.0
 50
90.0
1001
GENIUS_GENOBJ-NBEHI-BHB_13
1002
{
1000
OWNER
1000
GENBEHI
1002
}
1001
GENIUS_GENOENT_13
1002
{
1000
MYREF
1005
EB4
1002
}
1002
{
1000
GRP
1005
0
1002
}
1001
GENIUS_GENOLIS_13
1002
{
1000
ENT
1002
}
1001
GENIUS_GENODEF_13
1002
{
1000
HIER
1070
     1
1002
}
1002
{
1000
MANEDIT
1070
     0
1002
}
1002
{
1000
NOSEL
1070
     1
1002
}
1002
{
1000
BEHIND
1070
     0
1002
}
1002
{
1000
REACTOR
1002
}
1002
{
1000
OTHER
1070
     1
1002
}
1001
GENIUS_GENBH_13
1002
{
1000
FGO
1005
0
1002
}
  0
POINT
  5
EB5
100
AcDbEntity
  8
0
 60
     1
100
AcDbPoint
 10
165.380755
 20
188.138822
 30
0.0
 50
90.0
1001
GENIUS_GENOBJ-NBEHI-BHF_13
1002
{
1000
OWNER
1000
GENBEHI
1002
}
1001
GENIUS_GENOENT_13
1002
{
1000
MYREF
1005
EB5
1002
}
1002
{
1000
GRP
1005
0
1002
}
1001
GENIUS_GENOLIS_13
1002
{
1000
ENT
1005
0
1002
}
1001
GENIUS_GENBH_13
1002
{
1000
OIUMAP
1000
OIU
1002
}
1002
{
1000
FLAGS
1070
    32
1002
}
1002
{
1000
BGO
1005
0
1002
}
1001
GENIUS_GENODEF_13
1002
{
1000
HIER
1070
     1
1002
}
1002
{
1000
MANEDIT
1070
     1
1002
}
1002
{
1000
NOSEL
1070
     1
1002
}
1002
{
1000
BEHIND
1070
     0
1002
}
1002
{
1000
REACTOR
1002
}
  0
POINT
  5
EB6
100
AcDbEntity
  8
0
 60
     1
100
AcDbPoint
 10
165.380755
 20
188.138822
 30
0.0
 50
90.0
1001
GENIUS_GENOBJ-NBEHI-BHF_13
1002
{
1000
OWNER
1000
GENBEHI
1002
}
1001
GENIUS_GENOENT_13
1002
{
1000
MYREF
1005
EB6
1002
}
1002
{
1000
GRP
1005
0
1002
}
1001
GENIUS_GENOLIS_13
1002
{
1000
ENT
1005
0
1002
}
1001
GENIUS_GENODEF_13
1002
{
1000
HIER
1070
     1
1002
}
1002
{
1000
MANEDIT
1070
     0
1002
}
1002
{
1000
NOSEL
1070
     1
1002
}
1002
{
1000
BEHIND
1070
     0
1002
}
1002
{
1000
REACTOR
1002
}
1001
GENIUS_GENBH_13
1002
{
1000
OIUMAP
1000
OIU
1002
}
1002
{
1000
FLAGS
1070
    32
1002
}
1002
{
1000
BGO
1005
EB7
1002
}
  0
POINT
  5
EB7
100
AcDbEntity
  8
0
 60
     1
100
AcDbPoint
 10
165.380755
 20
188.138822
 30
0.0
 50
90.0
1001
GENIUS_GENOBJ-NBEHI-BHB_13
1002
{
1000
OWNER
1000
GENBEHI
1002
}
1001
GENIUS_GENOENT_13
1002
{
1000
MYREF
1005
EB7
1002
}
1002
{
1000
GRP
1005
0
1002
}
1001
GENIUS_GENOLIS_13
1002
{
1000
ENT
1002
}
1001
GENIUS_GENODEF_13
1002
{
1000
HIER
1070
     1
1002
}
1002
{
1000
MANEDIT
1070
     0
1002
}
1002
{
1000
NOSEL
1070
     1
1002
}
1002
{
1000
BEHIND
1070
     0
1002
}
1002
{
1000
REACTOR
1002
}
1002
{
1000
OTHER
1070
     1
1002
}
1001
GENIUS_GENBH_13
1002
{
1000
FGO
1005
EB6
1002
}
  0
POINT
  5
EB8
100
AcDbEntity
  8
0
 60
     1
100
AcDbPoint
 10
165.380755
 20
188.138822
 30
0.0
 50
90.0
1001
GENIUS_GENOBJ-NBEHI-BHF_13
1002
{
1000
OWNER
1000
GENBEHI
1002
}
1001
GENIUS_GENOENT_13
1002
{
1000
MYREF
1005
EB8
1002
}
1002
{
1000
GRP
1005
0
1002
}
1001
GENIUS_GENOLIS_13
1002
{
1000
ENT
1005
0
1002
}
1001
GENIUS_GENBH_13
1002
{
1000
OIUMAP
1000
OIU
1002
}
1002
{
1000
FLAGS
1070
    32
1002
}
1002
{
1000
BGO
1005
EB9
1002
}
1001
GENIUS_GENODEF_13
1002
{
1000
HIER
1070
     1
1002
}
1002
{
1000
MANEDIT
1070
     1
1002
}
1002
{
1000
NOSEL
1070
     1
1002
}
1002
{
1000
BEHIND
1070
     0
1002
}
1002
{
1000
REACTOR
1002
}
  0
POINT
  5
EB9
100
AcDbEntity
  8
0
 60
     1
100
AcDbPoint
 10
165.380755
 20
188.138822
 30
0.0
 50
90.0
1001
GENIUS_GENOBJ-NBEHI-BHB_13
1002
{
1000
OWNER
1000
GENBEHI
1002
}
1001
GENIUS_GENOENT_13
1002
{
1000
MYREF
1005
EB9
1002
}
1002
{
1000
GRP
1005
0
1002
}
1001
GENIUS_GENOLIS_13
1002
{
1000
ENT
1005
0
1002
}
1001
GENIUS_GENODEF_13
1002
{
1000
HIER
1070
     1
1002
}
1002
{
1000
MANEDIT
1070
     0
1002
}
1002
{
1000
NOSEL
1070
     1
1002
}
1002
{
1000
BEHIND
1070
     0
1002
}
1002
{
1000
REACTOR
1002
}
1002
{
1000
OTHER
1070
     1
1002
}
1001
GENIUS_GENBH_13
1002
{
1000
FGO
1005
EB8
1002
}
  0
POINT
  5
EBA
100
AcDbEntity
  8
0
 60
     1
100
AcDbPoint
 10
165.380755
 20
188.138822
 30
0.0
 50
90.0
1001
GENIUS_GENOBJ-F-SCPASSM_13
1002
{
1000
OWNER
1000
GEF
1002
}
1001
GENIUS_GENOENT_13
1002
{
1000
MYREF
1005
EBA
1002
}
1002
{
1000
GRP
1005
0
1002
}
1001
GENIUS_GENOLIS_13
1002
{
1000
ENT
1005
0
1005
0
1002
}
1001
GENIUS_GENODEF_13
1002
{
1000
HIER
1070
   200
1002
}
1002
{
1000
MANEDIT
1070
     1
1002
}
1002
{
1000
NOSEL
1070
     0
1002
}
1002
{
1000
BEHIND
1070
     0
1002
}
1002
{
1000
REACTOR
1002
}
  0
LINE
  5
EBB
100
AcDbEntity
  8
0
  6
HIDDEN
100
AcDbLine
 10
121.321051
 20
133.623811
 30
0.0
 11
126.721051
 21
133.623811
 31
0.0
1001
GENIUS_GENOREF_13
1005
EB8
1005
EBA
  0
LINE
  5
EBC
100
AcDbEntity
  8
0
  6
HIDDEN
100
AcDbLine
 10
126.721051
 20
123.623811
 30
0.0
 11
126.721051
 21
123.623811
 31
0.0
1001
GENIUS_GENOREF_13
1005
EB8
1005
EBA
  0
LINE
  5
EBD
100
AcDbEntity
  8
0
  6
HIDDEN
100
AcDbLine
 10
120.721051
 20
127.414439
 30
0.0
 11
120.721051
 21
133.023811
 31
0.0
1001
GENIUS_GENOREF_13
1005
EB8
1005
EBA
  0
ARC
  5
EBE
100
AcDbEntity
  8
0
100
AcDbCircle
 10
121.321051
 20
124.223811
 30
0.0
 40
0.6
100
AcDbArc
 50
180.0
 51
270.0
1001
GENIUS_GENOREF_13
1005
EB8
1005
EBA
  0
ARC
  5
EBF
100
AcDbEntity
  8
0
100
AcDbCircle
 10
121.321051
 20
133.023811
 30
0.0
 40
0.6
100
AcDbArc
 50
90.0
 51
180.0
1001
GENIUS_GENOREF_13
1005
EB8
1005
EBA
  0
LINE
  5
EC0
100
AcDbEntity
  8
0
  6
HIDDEN
100
AcDbLine
 10
151.721051
 20
126.237261
 30
0.0
 11
137.471051
 21
126.237261
 31
0.0
1001
GENIUS_GENOREF_13
1005
EB8
1005
EBA
  0
LINE
  5
EC1
100
AcDbEntity
  8
0
  6
HIDDEN
100
AcDbLine
 10
156.245912
 20
131.010361
 30
0.0
 11
137.471051
 21
131.010361
 31
0.0
1001
GENIUS_GENOREF_13
1005
EB8
1005
EBA
  0
LINE
  5
EC2
100
AcDbEntity
  8
0
100
AcDbLine
 10
151.107601
 20
125.623811
 30
0.0
 11
151.721051
 21
126.237261
 31
0.0
1001
GENIUS_GENOREF_13
1005
EB8
1005
EBA
  0
LINE
  5
EC3
100
AcDbEntity
  8
0
100
AcDbLine
 10
151.107601
 20
131.623811
 30
0.0
 11
151.721051
 21
131.010361
 31
0.0
1001
GENIUS_GENOREF_13
1005
EB8
1005
EBA
  0
LINE
  5
EC4
100
AcDbEntity
  8
0
  6
HIDDEN
100
AcDbLine
 10
126.721051
 20
125.623811
 30
0.0
 11
135.971051
 21
125.623811
 31
0.0
1001
GENIUS_GENOREF_13
1005
EB8
1005
EBA
  0
LINE
  5
EC5
100
AcDbEntity
  8
0
  6
HIDDEN
100
AcDbLine
 10
126.721051
 20
131.623811
 30
0.0
 11
135.971051
 21
131.623811
 31
0.0
1001
GENIUS_GENOREF_13
1005
EB8
1005
EBA
  0
LINE
  5
EC7
100
AcDbEntity
  8
0
  6
HIDDEN
100
AcDbLine
 10
129.221051
 20
131.623811
 30
0.0
 11
129.221051
 21
125.623811
 31
0.0
1001
GENIUS_GENOREF_13
1005
EB8
1005
EBA
  0
LINE
  5
EC8
100
AcDbEntity
  8
0
100
AcDbLine
 10
129.221051
 20
126.237261
 30
0.0
 11
128.607601
 21
125.623811
 31
0.0
1001
GENIUS_GENOREF_13
1005
EB8
1005
EBA
  0
LINE
  5
EC9
100
AcDbEntity
  8
0
100
AcDbLine
 10
129.221051
 20
131.010361
 30
0.0
 11
128.607601
 21
131.623811
 31
0.0
1001
GENIUS_GENOREF_13
1005
EB8
1005
EBA
  0
LINE
  5
ECA
100
AcDbEntity
  8
0
  6
HIDDEN
100
AcDbLine
 10
151.107601
 20
131.623811
 30
0.0
 11
151.107601
 21
125.623811
 31
0.0
1001
GENIUS_GENOREF_13
1005
EB8
1005
EBA
  0
LINE
  5
ECB
100
AcDbEntity
  8
0
  6
HIDDEN
100
AcDbLine
 10
151.721051
 20
131.010361
 30
0.0
 11
151.721051
 21
126.237261
 31
0.0
1001
GENIUS_GENOREF_13
1005
EB8
1005
EBA
  0
POINT
  5
ECC
100
AcDbEntity
  8
0
 60
     1
100
AcDbPoint
 10
165.380755
 20
188.138822
 30
0.0
 50
90.0
1001
GENIUS_GENOBJ-NBEHI-BHF_13
1002
{
1000
OWNER
1000
GENBEHI
1002
}
1001
GENIUS_GENOENT_13
1002
{
1000
MYREF
1005
ECC
1002
}
1002
{
1000
GRP
1005
0
1002
}
1001
GENIUS_GENOLIS_13
1002
{
1000
ENT
1005
0
1002
}
1001
GENIUS_GENODEF_13
1002
{
1000
HIER
1070
     1
1002
}
1002
{
1000
MANEDIT
1070
     0
1002
}
1002
{
1000
NOSEL
1070
     1
1002
}
1002
{
1000
BEHIND
1070
     0
1002
}
1002
{
1000
REACTOR
1002
}
1001
GENIUS_GENBH_13
1002
{
1000
OIUMAP
1000
OIU
1002
}
1002
{
1000
FLAGS
1070
    32
1002
}
1002
{
1000
BGO
1005
ECD
1002
}
  0
POINT
  5
ECD
100
AcDbEntity
  8
0
 60
     1
100
AcDbPoint
 10
165.380755
 20
188.138822
 30
0.0
 50
90.0
1001
GENIUS_GENOBJ-NBEHI-BHB_13
1002
{
1000
OWNER
1000
GENBEHI
1002
}
1001
GENIUS_GENOENT_13
1002
{
1000
MYREF
1005
ECD
1002
}
1002
{
1000
GRP
1005
0
1002
}
1001
GENIUS_GENOLIS_13
1002
{
1000
ENT
1002
}
1001
GENIUS_GENODEF_13
1002
{
1000
HIER
1070
     1
1002
}
1002
{
1000
MANEDIT
1070
     0
1002
}
1002
{
1000
NOSEL
1070
     1
1002
}
1002
{
1000
BEHIND
1070
     0
1002
}
1002
{
1000
REACTOR
1002
}
1002
{
1000
OTHER
1070
     1
1002
}
1001
GENIUS_GENBH_13
1002
{
1000
FGO
1005
ECC
1002
}
  0
POINT
  5
ECE
100
AcDbEntity
  8
0
 60
     1
100
AcDbPoint
 10
165.380755
 20
188.138822
 30
0.0
 50
90.0
1001
GENIUS_GENOBJ-NBEHI-BHF_13
1002
{
1000
OWNER
1000
GENBEHI
1002
}
1001
GENIUS_GENOENT_13
1002
{
1000
MYREF
1005
ECE
1002
}
1002
{
1000
GRP
1005
0
1002
}
1001
GENIUS_GENOLIS_13
1002
{
1000
ENT
1005
0
1002
}
1001
GENIUS_GENBH_13
1002
{
1000
OIUMAP
1000
OIU
1002
}
1002
{
1000
FLAGS
1070
    32
1002
}
1002
{
1000
BGO
1005
ECF
1002
}
1001
GENIUS_GENODEF_13
1002
{
1000
HIER
1070
     1
1002
}
1002
{
1000
MANEDIT
1070
     1
1002
}
1002
{
1000
NOSEL
1070
     1
1002
}
1002
{
1000
BEHIND
1070
     0
1002
}
1002
{
1000
REACTOR
1002
}
  0
POINT
  5
ECF
100
AcDbEntity
  8
0
 60
     1
100
AcDbPoint
 10
165.380755
 20
188.138822
 30
0.0
 50
90.0
1001
GENIUS_GENOBJ-NBEHI-BHB_13
1002
{
1000
OWNER
1000
GENBEHI
1002
}
1001
GENIUS_GENOENT_13
1002
{
1000
MYREF
1005
ECF
1002
}
1002
{
1000
GRP
1005
0
1002
}
1001
GENIUS_GENOLIS_13
1002
{
1000
ENT
1005
0
1002
}
1001
GENIUS_GENODEF_13
1002
{
1000
HIER
1070
     1
1002
}
1002
{
1000
MANEDIT
1070
     0
1002
}
1002
{
1000
NOSEL
1070
     1
1002
}
1002
{
1000
BEHIND
1070
     0
1002
}
1002
{
1000
REACTOR
1002
}
1002
{
1000
OTHER
1070
     1
1002
}
1001
GENIUS_GENBH_13
1002
{
1000
FGO
1005
ECE
1002
}
  0
POINT
  5
ED0
100
AcDbEntity
  8
0
 60
     1
100
AcDbPoint
 10
165.380755
 20
188.138822
 30
0.0
 50
90.0
1001
GENIUS_GENOBJ-F-SCPASSM_13
1002
{
1000
OWNER
1000
GEF
1002
}
1001
GENIUS_GENOENT_13
1002
{
1000
MYREF
1005
ED0
1002
}
1002
{
1000
GRP
1005
0
1002
}
1001
GENIUS_GENOLIS_13
1002
{
1000
ENT
1005
0
1005
0
1002
}
1001
GENIUS_GENODEF_13
1002
{
1000
HIER
1070
   200
1002
}
1002
{
1000
MANEDIT
1070
     1
1002
}
1002
{
1000
NOSEL
1070
     0
1002
}
1002
{
1000
BEHIND
1070
     0
1002
}
1002
{
1000
REACTOR
1002
}
  0
CIRCLE
  5
ED1
100
AcDbEntity
  8
0
100
AcDbCircle
 10
63.410169
 20
128.623811
 30
0.0
 40
5.0
1001
GENIUS_GENOREF_13
1005
ECE
1005
ED0
  0
LINE
  5
ED2
100
AcDbEntity
  8
0
100
AcDbLine
 10
65.910169
 20
130.067187
 30
0.0
 11
63.410169
 21
131.510563
 31
0.0
1001
GENIUS_GENOREF_13
1005
ECE
1005
ED0
  0
LINE
  5
ED3
100
AcDbEntity
  8
0
100
AcDbLine
 10
63.410169
 20
125.73706
 30
0.0
 11
65.910169
 21
127.180436
 31
0.0
1001
GENIUS_GENOREF_13
1005
ECE
1005
ED0
  0
LINE
  5
ED4
100
AcDbEntity
  8
0
100
AcDbLine
 10
65.910169
 20
127.180436
 30
0.0
 11
65.910169
 21
130.067187
 31
0.0
1001
GENIUS_GENOREF_13
1005
ECE
1005
ED0
  0
LINE
  5
ED5
100
AcDbEntity
  8
0
100
AcDbLine
 10
60.910169
 20
130.067187
 30
0.0
 11
60.910169
 21
127.180436
 31
0.0
1001
GENIUS_GENOREF_13
1005
ECE
1005
ED0
  0
LINE
  5
ED6
100
AcDbEntity
  8
0
100
AcDbLine
 10
60.910169
 20
127.180436
 30
0.0
 11
63.410169
 21
125.73706
 31
0.0
1001
GENIUS_GENOREF_13
1005
ECE
1005
ED0
  0
LINE
  5
ED7
100
AcDbEntity
  8
0
100
AcDbLine
 10
63.410169
 20
131.510563
 30
0.0
 11
60.910169
 21
130.067187
 31
0.0
1001
GENIUS_GENOREF_13
1005
ECE
1005
ED0
  0
LINE
  5
EDB
100
AcDbEntity
  8
0
  6
HIDDEN
100
AcDbLine
 10
137.471051
 20
131.623811
 30
0.0
 11
151.107601
 21
131.623811
 31
0.0
1001
GENIUS_GENOREF_13
1005
EB8
1005
EBA
  0
LINE
  5
EDC
100
AcDbEntity
  8
0
  6
HIDDEN
100
AcDbLine
 10
135.971051
 20
131.010361
 30
0.0
 11
129.221051
 21
131.010361
 31
0.0
1001
GENIUS_GENOREF_13
1005
EB8
1005
EBA
  0
LINE
  5
EDD
100
AcDbEntity
  8
0
  6
HIDDEN
100
AcDbLine
 10
135.971051
 20
126.237261
 30
0.0
 11
129.221051
 21
126.237261
 31
0.0
1001
GENIUS_GENOREF_13
1005
EB8
1005
EBA
  0
LINE
  5
EDE
100
AcDbEntity
  8
0
  6
HIDDEN
100
AcDbLine
 10
137.471051
 20
125.623811
 30
0.0
 11
151.107601
 21
125.623811
 31
0.0
1001
GENIUS_GENOREF_13
1005
EB8
1005
EBA
  0
LINE
  5
EDF
100
AcDbEntity
  8
0
100
AcDbLine
 10
135.971051
 20
131.623811
 30
0.0
 11
137.471051
 21
131.623811
 31
0.0
  0
LINE
  5
EE0
100
AcDbEntity
  8
0
100
AcDbLine
 10
135.971051
 20
131.010361
 30
0.0
 11
137.471051
 21
131.010361
 31
0.0
  0
LINE
  5
EE1
100
AcDbEntity
  8
0
100
AcDbLine
 10
135.971051
 20
126.237261
 30
0.0
 11
137.471051
 21
126.237261
 31
0.0
  0
LINE
  5
EE2
100
AcDbEntity
  8
0
100
AcDbLine
 10
135.971051
 20
125.623811
 30
0.0
 11
137.471051
 21
125.623811
 31
0.0
  0
LINE
  5
EE3
100
AcDbEntity
  8
0
100
AcDbLine
 10
120.721051
 20
124.223811
 30
0.0
 11
120.721051
 21
127.414439
 31
0.0
  0
LINE
  5
EE4
100
AcDbEntity
  8
0
100
AcDbLine
 10
121.321051
 20
123.623811
 30
0.0
 11
126.721051
 21
123.623811
 31
0.0
  0
LINE
  5
EE7
100
AcDbEntity
  8
0
100
AcDbLine
 10
14.498464
 20
159.623811
 30
0.0
 11
14.498464
 21
171.123811
 31
0.0
  0
LINE
  5
EEB
100
AcDbEntity
  8
0
100
AcDbLine
 10
-0.501536
 20
133.623811
 30
0.0
 11
-0.501536
 21
122.123811
 31
0.0
  0
CIRCLE
  5
EED
100
AcDbEntity
  8
0
  6
HIDDEN
100
AcDbCircle
 10
6.998464
 20
128.623811
 30
0.0
 40
5.0
1001
GENIUS_GENOREF_13
1005
ECE
1005
ED0
  0
LINE
  5
EEE
100
AcDbEntity
  8
0
100
AcDbLine
 10
62.480854
 20
123.710933
 30
0.0
 11
57.410169
 21
123.710933
 31
0.0
  0
ENDSEC
  0
SECTION
  2
OBJECTS
  0
DICTIONARY
  5
C
100
AcDbDictionary
  3
ACAD_GROUP
350
D
  3
ACAD_LAYOUT
350
C5C
  3
ACAD_MLINESTYLE
350
1B
  3
ACAD_PLOTSETTINGS
350
C5D
  3
ADE_QUERY_LIBRARY
350
F6C
  3
CONTENTDICTIONARY
350
23
1001
ADE
1000
ADE02C004
1000
[Query]
1000
CaseSensitiveMatch=0
1000
SaveCurrQueryInSession=1
1000
MkSelSetWithQryObj=0
1000
ShowBlockAsInsPt=0
1000
CreateAssociativeHatchObjects=0
1000
ReferenceBoundaryForAreaLocation=1
1000
ShowImageAsBoundary=1
1000
DefaultJoinOperator=2
1000
ColorForAdd=red
1000
ColorForRemove=red
1000
BlockLocnForQuery=1
1000
TextLocnForQuery=1
1000
[Save Back]
1000
RedefineBlockDefinitions=1
1000
RedefineLayerDefinitions=1
1000
RedefineTextStyleDefinitions=1
1000
RemoveUnusedGroups=1
1000
EraseSavedBackObjects=1
1000
RemoveLockAfterSave=1
1000
CreateHistoryFileOfChanges=0
1000
CreateBackupFileOfSourceDwg=1
1000
DontAddObjectsToSaveSet=0
1000
MarkObjectsForEditingWithoutPrompting=0
1000
[Coordinate Transformation]
1000
RestoreLastActiveDwgsOnStartup=1
1000
ActivateDwgsOnAttach=1
1000
AdjustSizesAndScalesForChangesInUnits=1
1000
AdjustRotationsForMapDistortions=1
1000
AdjustSizesAndScalesForMapDistortions=1
1000
AdjustElevations=1
1000
AdjustZeroRotationObjects=1
1000
ReconnectDbOnWSOpen=1
1000
NoOfSQLConditionsInHistory=10
1001
ACAD
1000
TREAT_AS_HARD
1070
     0
  0
DICTIONARY
  5
F70
100
AcDbDictionary
  3
ACAD_LAYOUTSELFREF
350
F71
  0
DICTIONARY
  5
F6E
100
AcDbDictionary
  3
ACAD_LAYOUTSELFREF
350
F6F
  0
DICTIONARY
  5
D
102
{ACAD_REACTORS
330
C
102
}
100
AcDbDictionary
1001
ACAD
1000
TREAT_AS_HARD
1070
     0
  0
DICTIONARY
  5
C5C
102
{ACAD_REACTORS
330
C
102
}
100
AcDbDictionary
1001
ACAD
1000
TREAT_AS_HARD
1070
     0
  0
DICTIONARY
  5
1B
102
{ACAD_REACTORS
330
C
102
}
100
AcDbDictionary
  3
STANDARD
350
1C
1001
ACAD
1000
TREAT_AS_HARD
1070
     0
  0
DICTIONARY
  5
C5D
102
{ACAD_REACTORS
330
C
102
}
100
AcDbDictionary
1001
ACAD
1000
TREAT_AS_HARD
1070
     0
  0
DICTIONARY
  5
F6C
102
{ACAD_REACTORS
330
C
102
}
100
AcDbDictionary
  3
_CURRQRY
350
F6D
1001
ACAD
1000
TREAT_AS_HARD
1070
     0
  0
DICTIONARY
  5
23
102
{ACAD_REACTORS
330
C
102
}
100
AcDbDictionary
1001
ACAD
1000
TREAT_AS_HARD
1070
     0
  0
XRECORD
  5
F71
102
{ACAD_REACTORS
330
F70
102
}
100
AcDbXrecord
340
18
  0
XRECORD
  5
F6F
102
{ACAD_REACTORS
330
F6E
102
}
100
AcDbXrecord
340
15
  0
MLINESTYLE
  5
1C
102
{ACAD_REACTORS
330
1B
102
}
100
AcDbMlineStyle
  2
STANDARD
 70
     0
  3

 62
   256
 51
90.0
 52
90.0
 71
     2
 49
0.5
 62
   256
  6
BYLAYER
 49
-0.5
 62
   256
  6
BYLAYER
  0
XRECORD
  5
F6D
102
{ACAD_REACTORS
330
F6C
102
}
100
AcDbXrecord
1000
ADE02C001
1070
     1
1070
     0
1002
{
1002
}
1002
{
1002
}
1002
{
1002
}
1000

  0
ENDSEC
  0
EOF
