  0
SECTION
  2
HEADER
  9
$ACADVER
  1
AC1014
  9
$ACADMAINTVER
 70
     0
  9
$DWGCODEPAGE
  3
ANSI_932
  9
$INSBASE
 10
0.0
 20
0.0
 30
0.0
  9
$EXTMIN
 10
-6.671722
 20
88.587604
 30
0.0
  9
$EXTMAX
 10
179.851407
 20
183.78958
 30
0.0
  9
$LIMMIN
 10
0.0
 20
0.0
  9
$LIMMAX
 10
420.0
 20
297.0
  9
$ORTHOMODE
 70
     0
  9
$REGENMODE
 70
     1
  9
$FILLMODE
 70
     1
  9
$QTEXTMODE
 70
     0
  9
$MIRRTEXT
 70
     1
  9
$DRAGMODE
 70
     2
  9
$LTSCALE
 40
0.2
  9
$OSMODE
 70
    37
  9
$ATTMODE
 70
     1
  9
$TEXTSIZE
 40
10.0
  9
$TRACEWID
 40
1.0
  9
$TEXTSTYLE
  7
BIGFONT
  9
$CLAYER
  8
0
  9
$CELTYPE
  6
BYLAYER
  9
$CECOLOR
 62
   256
  9
$CELTSCALE
 40
1.0
  9
$DELOBJ
 70
     1
  9
$DISPSILH
 70
     0
  9
$DIMSCALE
 40
1.0
  9
$DIMASZ
 40
2.5
  9
$DIMEXO
 40
0.625
  9
$DIMDLI
 40
3.75
  9
$DIMRND
 40
0.0
  9
$DIMDLE
 40
0.0
  9
$DIMEXE
 40
1.25
  9
$DIMTP
 40
0.0
  9
$DIMTM
 40
0.0
  9
$DIMTXT
 40
2.5
  9
$DIMCEN
 40
0.5
  9
$DIMTSZ
 40
0.0
  9
$DIMTOL
 70
     0
  9
$DIMLIM
 70
     0
  9
$DIMTIH
 70
     0
  9
$DIMTOH
 70
     0
  9
$DIMSE1
 70
     0
  9
$DIMSE2
 70
     0
  9
$DIMTAD
 70
     3
  9
$DIMZIN
 70
     8
  9
$DIMBLK
  1

  9
$DIMASO
 70
     1
  9
$DIMSHO
 70
     1
  9
$DIMPOST
  1

  9
$DIMAPOST
  1

  9
$DIMALT
 70
     0
  9
$DIMALTD
 70
     4
  9
$DIMALTF
 40
0.0394
  9
$DIMLFAC
 40
1.0
  9
$DIMTOFL
 70
     1
  9
$DIMTVP
 40
0.0
  9
$DIMTIX
 70
     0
  9
$DIMSOXD
 70
     0
  9
$DIMSAH
 70
     0
  9
$DIMBLK1
  1

  9
$DIMBLK2
  1

  9
$DIMSTYLE
  2
STANDARD_WS
  9
$DIMCLRD
 70
     0
  9
$DIMCLRE
 70
     0
  9
$DIMCLRT
 70
   256
  9
$DIMTFAC
 40
1.0
  9
$DIMGAP
 40
1.2
  9
$DIMJUST
 70
     0
  9
$DIMSD1
 70
     0
  9
$DIMSD2
 70
     0
  9
$DIMTOLJ
 70
     1
  9
$DIMTZIN
 70
     0
  9
$DIMALTZ
 70
     0
  9
$DIMALTTZ
 70
     0
  9
$DIMFIT
 70
     3
  9
$DIMUPT
 70
     0
  9
$DIMUNIT
 70
     2
  9
$DIMDEC
 70
     4
  9
$DIMTDEC
 70
     4
  9
$DIMALTU
 70
     8
  9
$DIMALTTD
 70
     4
  9
$DIMTXSTY
  7
BIGFONT
  9
$DIMAUNIT
 70
     0
  9
$LUNITS
 70
     2
  9
$LUPREC
 70
     4
  9
$SKETCHINC
 40
1.0
  9
$FILLETRAD
 40
0.0
  9
$AUNITS
 70
     0
  9
$AUPREC
 70
     0
  9
$MENU
  1
acad
  9
$ELEVATION
 40
0.0
  9
$PELEVATION
 40
0.0
  9
$THICKNESS
 40
0.0
  9
$LIMCHECK
 70
     0
  9
$BLIPMODE
 70
     0
  9
$CHAMFERA
 40
0.5
  9
$CHAMFERB
 40
0.5
  9
$CHAMFERC
 40
20.0
  9
$CHAMFERD
 40
0.0
  9
$SKPOLY
 70
     0
  9
$TDCREATE
 40
2451225.415346065
  9
$TDUPDATE
 40
2453594.445099826
  9
$TDINDWG
 40
0.2059905556
  9
$TDUSRTIMER
 40
0.2059905556
  9
$USRTIMER
 70
     1
  9
$ANGBASE
 50
0.0
  9
$ANGDIR
 70
     0
  9
$PDMODE
 70
     0
  9
$PDSIZE
 40
0.0
  9
$PLINEWID
 40
0.0
  9
$COORDS
 70
     1
  9
$SPLFRAME
 70
     0
  9
$SPLINETYPE
 70
     6
  9
$SPLINESEGS
 70
     8
  9
$ATTDIA
 70
     0
  9
$ATTREQ
 70
     1
  9
$HANDLING
 70
     1
  9
$HANDSEED
  5
FBB
  9
$SURFTAB1
 70
     6
  9
$SURFTAB2
 70
     6
  9
$SURFTYPE
 70
     6
  9
$SURFU
 70
     6
  9
$SURFV
 70
     6
  9
$UCSNAME
  2

  9
$UCSORG
 10
0.0
 20
0.0
 30
0.0
  9
$UCSXDIR
 10
1.0
 20
0.0
 30
0.0
  9
$UCSYDIR
 10
0.0
 20
1.0
 30
0.0
  9
$PUCSNAME
  2

  9
$PUCSORG
 10
0.0
 20
0.0
 30
0.0
  9
$PUCSXDIR
 10
1.0
 20
0.0
 30
0.0
  9
$PUCSYDIR
 10
0.0
 20
1.0
 30
0.0
  9
$USERI1
 70
     0
  9
$USERI2
 70
     0
  9
$USERI3
 70
     0
  9
$USERI4
 70
     0
  9
$USERI5
 70
     0
  9
$USERR1
 40
0.0
  9
$USERR2
 40
0.0
  9
$USERR3
 40
0.0
  9
$USERR4
 40
0.0
  9
$USERR5
 40
0.0
  9
$WORLDVIEW
 70
     1
  9
$SHADEDGE
 70
     3
  9
$SHADEDIF
 70
    70
  9
$TILEMODE
 70
     1
  9
$MAXACTVP
 70
    48
  9
$PINSBASE
 10
0.0
 20
0.0
 30
0.0
  9
$PLIMCHECK
 70
     0
  9
$PEXTMIN
 10
1.000000E+20
 20
1.000000E+20
 30
1.000000E+20
  9
$PEXTMAX
 10
-1.000000E+20
 20
-1.000000E+20
 30
-1.000000E+20
  9
$PLIMMIN
 10
0.0
 20
0.0
  9
$PLIMMAX
 10
420.0
 20
297.0
  9
$UNITMODE
 70
     0
  9
$VISRETAIN
 70
     1
  9
$PLINEGEN
 70
     0
  9
$PSLTSCALE
 70
     0
  9
$TREEDEPTH
 70
  3020
  9
$PICKSTYLE
 70
     1
  9
$CMLSTYLE
  2
STANDARD
  9
$CMLJUST
 70
     0
  9
$CMLSCALE
 40
20.0
  9
$PROXYGRAPHICS
 70
     1
  9
$MEASUREMENT
 70
     0
  0
ENDSEC
  0
SECTION
  2
CLASSES
  0
CLASS
  1
DICTIONARYVAR
  2
AcDbDictionaryVar
  3
"AutoCAD"
 90
        0
280
     0
281
     0
  0
CLASS
  1
HATCH
  2
AcDbHatch
  3
"ACAD_SEDONA"
 90
        0
280
     0
281
     1
  0
CLASS
  1
LWPOLYLINE
  2
AcDbPolyline
  3
"AutoCAD"
 90
        0
280
     0
281
     1
  0
CLASS
  1
ACDBDICTIONARYWDFLT
  2
AcDbDictionaryWithDefault
  3
AutoCAD 2000
 90
        0
280
     0
281
     0
  0
CLASS
  1
ACDBPLACEHOLDER
  2
AcDbPlaceHolder
  3
AutoCAD 2000
 90
        0
280
     0
281
     0
  0
CLASS
  1
LAYOUT
  2
AcDbLayout
  3
AutoCAD 2000
 90
        0
280
     0
281
     0
  0
CLASS
  1
LONG_TRANSACTION
  2
AcDbLongTransaction
  3
AutoCAD 2000
 90
        0
280
     0
281
     0
  0
CLASS
  1
LWPOLYLINE
  2
AcDbPolyline
  3
"AutoCAD"
 90
        0
280
     0
281
     1
  0
CLASS
  1
HATCH
  2
AcDbHatch
  3
"ACAD_SEDONA"
 90
        0
280
     0
281
     1
  0
CLASS
  1
XRECORD
  2
AcDbXrecord
  3
"<Built In>"
 90
        0
280
     0
281
     0
  0
ENDSEC
  0
SECTION
  2
TABLES
  0
TABLE
  2
VPORT
  5
8
100
AcDbSymbolTable
 70
     2
  0
VPORT
  5
FBA
100
AcDbSymbolTableRecord
100
AcDbViewportTableRecord
  2
*ACTIVE
 70
     0
 10
0.0
 20
0.0
 11
1.0
 21
1.0
 12
206.664139
 22
148.5
 13
0.0
 23
0.0
 14
10.0
 24
10.0
 15
10.0
 25
10.0
 16
0.0
 26
0.0
 36
1.0
 17
0.0
 27
0.0
 37
0.0
 40
299.207998
 41
1.434944
 42
50.0
 43
0.0
 44
0.0
 50
0.0
 51
0.0
 71
     0
 72
   100
 73
     1
 74
     0
 75
     0
 76
     0
 77
     0
 78
     0
  0
ENDTAB
  0
TABLE
  2
LTYPE
  5
5
100
AcDbSymbolTable
 70
     3
  0
LTYPE
  5
12
100
AcDbSymbolTableRecord
100
AcDbLinetypeTableRecord
  2
BYBLOCK
 70
     0
  3

 72
    65
 73
     0
 40
0.0
  0
LTYPE
  5
13
100
AcDbSymbolTableRecord
100
AcDbLinetypeTableRecord
  2
BYLAYER
 70
     0
  3

 72
    65
 73
     0
 40
0.0
  0
LTYPE
  5
14
100
AcDbSymbolTableRecord
100
AcDbLinetypeTableRecord
  2
CONTINUOUS
 70
     0
  3
Solid line
 72
    65
 73
     0
 40
0.0
  0
LTYPE
  5
11A
100
AcDbSymbolTableRecord
100
AcDbLinetypeTableRecord
  2
CENTER
 70
     0
  3
Center ____ _ ____ _ ____ _ ____ _ ____ _ ____
 72
    65
 73
     4
 40
50.8
 49
31.75
 74
     0
 49
-6.35
 74
     0
 49
6.35
 74
     0
 49
-6.35
 74
     0
  0
LTYPE
  5
11B
100
AcDbSymbolTableRecord
100
AcDbLinetypeTableRecord
  2
HIDDEN
 70
     0
  3
Hidden __ __ __ __ __ __ __ __ __ __ __ __ __ _
 72
    65
 73
     2
 40
9.525
 49
6.35
 74
     0
 49
-3.175
 74
     0
  0
ENDTAB
  0
TABLE
  2
LAYER
  5
2
100
AcDbSymbolTable
 70
     6
  0
LAYER
  5
E
100
AcDbSymbolTableRecord
100
AcDbLayerTableRecord
  2
0
 70
     0
 62
     7
  6
CONTINUOUS
  0
LAYER
  5
37
100
AcDbSymbolTableRecord
100
AcDbLayerTableRecord
  2
図枠
 70
     0
 62
     7
  6
CONTINUOUS
  0
LAYER
  5
38
100
AcDbSymbolTableRecord
100
AcDbLayerTableRecord
  2
図枠部品表
 70
     0
 62
     7
  6
CONTINUOUS
  0
LAYER
  5
215
100
AcDbSymbolTableRecord
100
AcDbLayerTableRecord
  2
CENTER
 70
     0
 62
     2
  6
CENTER
  0
LAYER
  5
216
100
AcDbSymbolTableRecord
100
AcDbLayerTableRecord
  2
DIM
 70
     0
 62
     4
  6
CONTINUOUS
  0
LAYER
  5
21F
100
AcDbSymbolTableRecord
100
AcDbLayerTableRecord
  2
DEFPOINTS
 70
     0
 62
     7
  6
CONTINUOUS
  0
ENDTAB
  0
TABLE
  2
STYLE
  5
3
100
AcDbSymbolTable
 70
     3
  0
STYLE
  5
F
100
AcDbSymbolTableRecord
100
AcDbTextStyleTableRecord
  2
STANDARD
 70
     0
 40
0.0
 41
1.0
 50
0.0
 71
     0
 42
2.5
  3
txt
  4

  0
STYLE
  5
39
100
AcDbSymbolTableRecord
100
AcDbTextStyleTableRecord
  2
BIGFONT
 70
     0
 40
0.0
 41
1.0
 50
0.0
 71
     0
 42
10.0
  3
txt.shx
  4
bigfont.shx
  0
STYLE
  5
3B
100
AcDbSymbolTableRecord
100
AcDbTextStyleTableRecord
  2
KANJI
 70
     0
 40
0.0
 41
1.0
 50
0.0
 71
     0
 42
3.0
  3
TXT
  4
BIGFONT
  0
ENDTAB
  0
TABLE
  2
VIEW
  5
6
100
AcDbSymbolTable
 70
     0
  0
ENDTAB
  0
TABLE
  2
UCS
  5
7
100
AcDbSymbolTable
 70
     0
  0
ENDTAB
  0
TABLE
  2
APPID
  5
9
100
AcDbSymbolTable
 70
    34
  0
APPID
  5
10
100
AcDbSymbolTableRecord
100
AcDbRegAppTableRecord
  2
ACAD
 70
     0
  0
APPID
  5
24
100
AcDbSymbolTableRecord
100
AcDbRegAppTableRecord
  2
CONTENTTABDATA
 70
     0
  0
APPID
  5
25
100
AcDbSymbolTableRecord
100
AcDbRegAppTableRecord
  2
CONTENTCURRENTTAB
 70
     0
  0
APPID
  5
422
100
AcDbSymbolTableRecord
100
AcDbRegAppTableRecord
  2
CONTENTBLOCKDESCRIPTION
 70
     0
  0
APPID
  5
ECA
100
AcDbSymbolTableRecord
100
AcDbRegAppTableRecord
  2
MCAD_NO_VIS
 70
     0
  0
APPID
  5
ECB
100
AcDbSymbolTableRecord
100
AcDbRegAppTableRecord
  2
ACAD_TEMP_GRAPHIC
 70
     0
  0
APPID
  5
ECC
100
AcDbSymbolTableRecord
100
AcDbRegAppTableRecord
  2
GEVID966397200
 70
     0
  0
APPID
  5
ECD
100
AcDbSymbolTableRecord
100
AcDbRegAppTableRecord
  2
GEVDC
 70
     0
  0
APPID
  5
ECE
100
AcDbSymbolTableRecord
100
AcDbRegAppTableRecord
  2
GEVCON
 70
     0
  0
APPID
  5
ECF
100
AcDbSymbolTableRecord
100
AcDbRegAppTableRecord
  2
GEVID966397201
 70
     0
  0
APPID
  5
ED0
100
AcDbSymbolTableRecord
100
AcDbRegAppTableRecord
  2
GEVID966397202
 70
     0
  0
APPID
  5
ED1
100
AcDbSymbolTableRecord
100
AcDbRegAppTableRecord
  2
GEVID966397203
 70
     0
  0
APPID
  5
ED2
100
AcDbSymbolTableRecord
100
AcDbRegAppTableRecord
  2
GEVID966397204
 70
     0
  0
APPID
  5
ED3
100
AcDbSymbolTableRecord
100
AcDbRegAppTableRecord
  2
GEVID966397205
 70
     0
  0
APPID
  5
ED4
100
AcDbSymbolTableRecord
100
AcDbRegAppTableRecord
  2
GEVID966397206
 70
     0
  0
APPID
  5
ED5
100
AcDbSymbolTableRecord
100
AcDbRegAppTableRecord
  2
GENIUS_GENBH_13
 70
     0
  0
APPID
  5
ED6
100
AcDbSymbolTableRecord
100
AcDbRegAppTableRecord
  2
GENIUS_GENODEF_13
 70
     0
  0
APPID
  5
ED7
100
AcDbSymbolTableRecord
100
AcDbRegAppTableRecord
  2
GENIUS_GENOBJ-NBEHI-BHF_13
 70
     0
  0
APPID
  5
ED8
100
AcDbSymbolTableRecord
100
AcDbRegAppTableRecord
  2
GENIUS_GENOENT_13
 70
     0
  0
APPID
  5
ED9
100
AcDbSymbolTableRecord
100
AcDbRegAppTableRecord
  2
GENIUS_GENOREF_13
 70
     0
  0
APPID
  5
EDA
100
AcDbSymbolTableRecord
100
AcDbRegAppTableRecord
  2
GENIUS_GENOLIS_13
 70
     0
  0
APPID
  5
EDB
100
AcDbSymbolTableRecord
100
AcDbRegAppTableRecord
  2
GENIUS_GENOBJ-NBEHI-BHB_13
 70
     0
  0
APPID
  5
EDC
100
AcDbSymbolTableRecord
100
AcDbRegAppTableRecord
  2
GEVID966397207
 70
     0
  0
APPID
  5
EDD
100
AcDbSymbolTableRecord
100
AcDbRegAppTableRecord
  2
GENIUS_GENOBJ-F-SCPASSM_13
 70
     0
  0
APPID
  5
EDE
100
AcDbSymbolTableRecord
100
AcDbRegAppTableRecord
  2
GENIUS_GENDTOL_13
 70
     0
  0
APPID
  5
EDF
100
AcDbSymbolTableRecord
100
AcDbRegAppTableRecord
  2
GEVID966521051
 70
     0
  0
APPID
  5
EE0
100
AcDbSymbolTableRecord
100
AcDbRegAppTableRecord
  2
GEVID966521052
 70
     0
  0
APPID
  5
EE1
100
AcDbSymbolTableRecord
100
AcDbRegAppTableRecord
  2
GEVID966521054
 70
     0
  0
APPID
  5
EE2
100
AcDbSymbolTableRecord
100
AcDbRegAppTableRecord
  2
GEVID966521055
 70
     0
  0
APPID
  5
EE3
100
AcDbSymbolTableRecord
100
AcDbRegAppTableRecord
  2
GEVID966521056
 70
     0
  0
APPID
  5
EE4
100
AcDbSymbolTableRecord
100
AcDbRegAppTableRecord
  2
GEVID966521057
 70
     0
  0
APPID
  5
EE5
100
AcDbSymbolTableRecord
100
AcDbRegAppTableRecord
  2
GEVID966521058
 70
     0
  0
APPID
  5
EE6
100
AcDbSymbolTableRecord
100
AcDbRegAppTableRecord
  2
GEVID966521059
 70
     0
  0
APPID
  5
FA8
100
AcDbSymbolTableRecord
100
AcDbRegAppTableRecord
  2
ADE
 70
     0
  0
ENDTAB
  0
TABLE
  2
DIMSTYLE
  5
A
100
AcDbSymbolTable
 70
     1
  0
DIMSTYLE
105
35
100
AcDbSymbolTableRecord
100
AcDbDimStyleTableRecord
  2
STANDARD_WS
 70
     0
  3

  4

  5

  6

  7

 40
1.0
 41
2.5
 42
0.625
 43
3.75
 44
1.25
 45
0.0
 46
0.0
 47
0.0
 48
0.0
140
2.5
141
2.5
142
0.0
143
0.0394
144
1.0
145
0.0
146
1.0
147
0.625
 71
     0
 72
     0
 73
     0
 74
     0
 75
     0
 76
     0
 77
     1
 78
     8
170
     0
171
     4
172
     1
173
     0
174
     0
175
     0
176
     0
177
     0
178
     0
270
     2
271
     4
272
     4
273
     8
274
     4
340
F
275
     0
280
     0
281
     0
282
     0
283
     1
284
     0
285
     0
286
     0
287
     3
288
     0
  0
ENDTAB
  0
TABLE
  2
BLOCK_RECORD
  5
1
100
AcDbSymbolTable
 70
    12
  0
BLOCK_RECORD
  5
18
102
{ACAD_XDICTIONARY
360
FAD
102
}
100
AcDbSymbolTableRecord
100
AcDbBlockTableRecord
  2
*MODEL_SPACE
  0
BLOCK_RECORD
  5
15
102
{ACAD_XDICTIONARY
360
FAB
102
}
100
AcDbSymbolTableRecord
100
AcDbBlockTableRecord
  2
*PAPER_SPACE
  0
BLOCK_RECORD
  5
B64
100
AcDbSymbolTableRecord
100
AcDbBlockTableRecord
  2
*D0
  0
BLOCK_RECORD
  5
B7E
100
AcDbSymbolTableRecord
100
AcDbBlockTableRecord
  2
*D1
  0
BLOCK_RECORD
  5
B8B
100
AcDbSymbolTableRecord
100
AcDbBlockTableRecord
  2
*D2
  0
BLOCK_RECORD
  5
B98
100
AcDbSymbolTableRecord
100
AcDbBlockTableRecord
  2
*D3
  0
BLOCK_RECORD
  5
BA5
100
AcDbSymbolTableRecord
100
AcDbBlockTableRecord
  2
*D4
  0
BLOCK_RECORD
  5
BB2
100
AcDbSymbolTableRecord
100
AcDbBlockTableRecord
  2
*D5
  0
BLOCK_RECORD
  5
BBF
100
AcDbSymbolTableRecord
100
AcDbBlockTableRecord
  2
*D6
  0
BLOCK_RECORD
  5
BCC
100
AcDbSymbolTableRecord
100
AcDbBlockTableRecord
  2
*D7
  0
BLOCK_RECORD
  5
BD9
100
AcDbSymbolTableRecord
100
AcDbBlockTableRecord
  2
*D8
  0
BLOCK_RECORD
  5
BF6
100
AcDbSymbolTableRecord
100
AcDbBlockTableRecord
  2
*D9
  0
BLOCK_RECORD
  5
C6E
100
AcDbSymbolTableRecord
100
AcDbBlockTableRecord
  2
*D10
  0
BLOCK_RECORD
  5
EAD
100
AcDbSymbolTableRecord
100
AcDbBlockTableRecord
  2
_OPEN30
  0
ENDTAB
  0
ENDSEC
  0
SECTION
  2
BLOCKS
  0
BLOCK
  5
19
100
AcDbEntity
  8
0
100
AcDbBlockBegin
  2
*MODEL_SPACE
 70
     2
 10
0.0
 20
0.0
 30
0.0
  3
*MODEL_SPACE
  1

  0
ENDBLK
  5
1A
100
AcDbEntity
  8
0
100
AcDbBlockEnd
  0
BLOCK
  5
16
100
AcDbEntity
 67
     1
  8
0
100
AcDbBlockBegin
  2
*PAPER_SPACE
 70
     0
 10
0.0
 20
0.0
 30
0.0
  3
*PAPER_SPACE
  1

  0
ENDBLK
  5
17
100
AcDbEntity
 67
     1
  8
0
100
AcDbBlockEnd
  0
BLOCK
  5
C4F
100
AcDbEntity
  8
0
100
AcDbBlockBegin
  2
*D0
 70
     1
 10
0.0
 20
0.0
 30
0.0
  3
*D0
  1

  0
LINE
  5
F98
100
AcDbEntity
  8
DIM
 62
     0
100
AcDbLine
 10
57.856964
 20
171.588517
 30
0.0
 11
31.839385
 21
171.588517
 31
0.0
  0
LINE
  5
F99
100
AcDbEntity
  8
DIM
 62
     0
100
AcDbLine
 10
57.856964
 20
131.588517
 30
0.0
 11
31.839385
 21
131.588517
 31
0.0
  0
LINE
  5
F9A
100
AcDbEntity
  8
DIM
 62
     0
100
AcDbLine
 10
33.089385
 20
169.088517
 30
0.0
 11
33.089385
 21
134.088517
 31
0.0
  0
SOLID
  5
F9B
100
AcDbEntity
  8
DIM
 62
     0
100
AcDbTrace
 10
32.672719
 20
169.088517
 30
0.0
 11
33.506052
 21
169.088517
 31
0.0
 12
33.089385
 22
171.588517
 32
0.0
 13
33.089385
 23
171.588517
 33
0.0
  0
SOLID
  5
F9C
100
AcDbEntity
  8
DIM
 62
     0
100
AcDbTrace
 10
32.672719
 20
134.088517
 30
0.0
 11
33.506052
 21
134.088517
 31
0.0
 12
33.089385
 22
131.588517
 32
0.0
 13
33.089385
 23
131.588517
 33
0.0
  0
MTEXT
  5
F9D
100
AcDbEntity
  8
DIM
100
AcDbMText
 10
30.639385
 20
151.588517
 30
0.0
 40
2.5
 41
0.0
 71
     5
 72
     5
  1
\A1;%%c40\H1.5;%%p0.1
  7
BIGFONT
 11
0.0
 21
1.0
 31
0.0
1001
ACAD
1000
MTEXTBEGIN
1070
    73
1070
     1
1070
    44
1040
1.0
1070
    74
1070
     0
1000
MTEXTEND
  0
POINT
  5
F9E
100
AcDbEntity
  8
DEFPOINTS
 62
     0
100
AcDbPoint
 10
58.481964
 20
171.588517
 30
0.0
  0
POINT
  5
F9F
100
AcDbEntity
  8
DEFPOINTS
 62
     0
100
AcDbPoint
 10
58.481964
 20
131.588517
 30
0.0
  0
POINT
  5
FA0
100
AcDbEntity
  8
DEFPOINTS
 62
     0
100
AcDbPoint
 10
33.089385
 20
131.588517
 30
0.0
  0
ENDBLK
  5
C59
100
AcDbEntity
  8
0
100
AcDbBlockEnd
  0
BLOCK
  5
CBB
100
AcDbEntity
  8
0
100
AcDbBlockBegin
  2
*D1
 70
     1
 10
0.0
 20
0.0
 30
0.0
  3
*D1
  1

  0
LINE
  5
F8D
100
AcDbEntity
  8
DIM
 62
     0
100
AcDbLine
 10
71.481964
 20
132.633215
 30
0.0
 11
71.481964
 21
117.833088
 31
0.0
  0
LINE
  5
F8E
100
AcDbEntity
  8
DIM
 62
     0
100
AcDbLine
 10
59.481964
 20
132.633215
 30
0.0
 11
59.481964
 21
117.833088
 31
0.0
  0
LINE
  5
F8F
100
AcDbEntity
  8
DIM
 62
     0
100
AcDbLine
 10
73.981964
 20
119.083088
 30
0.0
 11
76.481964
 21
119.083088
 31
0.0
  0
LINE
  5
F90
100
AcDbEntity
  8
DIM
 62
     0
100
AcDbLine
 10
56.981964
 20
119.083088
 30
0.0
 11
54.481964
 21
119.083088
 31
0.0
  0
LINE
  5
F91
100
AcDbEntity
  8
DIM
 62
     0
100
AcDbLine
 10
71.481964
 20
119.083088
 30
0.0
 11
59.481964
 21
119.083088
 31
0.0
  0
SOLID
  5
F92
100
AcDbEntity
  8
DIM
 62
     0
100
AcDbTrace
 10
73.981964
 20
119.499755
 30
0.0
 11
73.981964
 21
118.666422
 31
0.0
 12
71.481964
 22
119.083088
 32
0.0
 13
71.481964
 23
119.083088
 33
0.0
  0
SOLID
  5
F93
100
AcDbEntity
  8
DIM
 62
     0
100
AcDbTrace
 10
56.981964
 20
119.499755
 30
0.0
 11
56.981964
 21
118.666422
 31
0.0
 12
59.481964
 22
119.083088
 32
0.0
 13
59.481964
 23
119.083088
 33
0.0
  0
MTEXT
  5
F94
100
AcDbEntity
  8
DIM
100
AcDbMText
 10
68.338267
 20
121.533088
 30
0.0
 40
2.5
 41
0.0
 71
     5
 72
     5
  1
\A1;12
  7
BIGFONT
1001
ACAD
1000
MTEXTBEGIN
1070
    73
1070
     1
1070
    44
1040
1.0
1070
    74
1070
     0
1000
MTEXTEND
  0
POINT
  5
F95
100
AcDbEntity
  8
DEFPOINTS
 62
     0
100
AcDbPoint
 10
71.481964
 20
133.258215
 30
0.0
  0
POINT
  5
F96
100
AcDbEntity
  8
DEFPOINTS
 62
     0
100
AcDbPoint
 10
59.481964
 20
133.258215
 30
0.0
  0
POINT
  5
F97
100
AcDbEntity
  8
DEFPOINTS
 62
     0
100
AcDbPoint
 10
59.481964
 20
119.083088
 30
0.0
  0
ENDBLK
  5
CC6
100
AcDbEntity
  8
0
100
AcDbBlockEnd
  0
BLOCK
  5
CB0
100
AcDbEntity
  8
0
100
AcDbBlockBegin
  2
*D2
 70
     1
 10
0.0
 20
0.0
 30
0.0
  3
*D2
  1

  0
LINE
  5
F84
100
AcDbEntity
  8
DIM
 62
     0
100
AcDbLine
 10
72.981964
 20
131.463517
 30
0.0
 11
72.981964
 21
108.699109
 31
0.0
  0
LINE
  5
F85
100
AcDbEntity
  8
DIM
 62
     0
100
AcDbLine
 10
65.481964
 20
129.304499
 30
0.0
 11
65.481964
 21
108.699109
 31
0.0
  0
LINE
  5
F86
100
AcDbEntity
  8
DIM
 62
     0
100
AcDbLine
 10
70.481964
 20
109.949109
 30
0.0
 11
67.981964
 21
109.949109
 31
0.0
  0
SOLID
  5
F87
100
AcDbEntity
  8
DIM
 62
     0
100
AcDbTrace
 10
70.481964
 20
110.365776
 30
0.0
 11
70.481964
 21
109.532443
 31
0.0
 12
72.981964
 22
109.949109
 32
0.0
 13
72.981964
 23
109.949109
 33
0.0
  0
SOLID
  5
F88
100
AcDbEntity
  8
DIM
 62
     0
100
AcDbTrace
 10
67.981964
 20
110.365776
 30
0.0
 11
67.981964
 21
109.532443
 31
0.0
 12
65.481964
 22
109.949109
 32
0.0
 13
65.481964
 23
109.949109
 33
0.0
  0
MTEXT
  5
F89
100
AcDbEntity
  8
DIM
100
AcDbMText
 10
69.231964
 20
112.399109
 30
0.0
 40
2.5
 41
0.0
 71
     5
 72
     5
  1
\A1;7.5
  7
BIGFONT
1001
ACAD
1000
MTEXTBEGIN
1070
    73
1070
     1
1070
    44
1040
1.0
1070
    74
1070
     0
1000
MTEXTEND
  0
POINT
  5
F8A
100
AcDbEntity
  8
DEFPOINTS
 62
     0
100
AcDbPoint
 10
72.981964
 20
132.088517
 30
0.0
  0
POINT
  5
F8B
100
AcDbEntity
  8
DEFPOINTS
 62
     0
100
AcDbPoint
 10
65.481964
 20
129.929499
 30
0.0
  0
POINT
  5
F8C
100
AcDbEntity
  8
DEFPOINTS
 62
     0
100
AcDbPoint
 10
65.481964
 20
109.949109
 30
0.0
  0
ENDBLK
  5
CBA
100
AcDbEntity
  8
0
100
AcDbBlockEnd
  0
BLOCK
  5
CA5
100
AcDbEntity
  8
0
100
AcDbBlockBegin
  2
*D3
 70
     1
 10
0.0
 20
0.0
 30
0.0
  3
*D3
  1

  0
LINE
  5
F7B
100
AcDbEntity
  8
DIM
 62
     0
100
AcDbLine
 10
65.481964
 20
129.304499
 30
0.0
 11
65.481964
 21
108.699109
 31
0.0
  0
LINE
  5
F7C
100
AcDbEntity
  8
DIM
 62
     0
100
AcDbLine
 10
57.981964
 20
131.463517
 30
0.0
 11
57.981964
 21
108.699109
 31
0.0
  0
LINE
  5
F7D
100
AcDbEntity
  8
DIM
 62
     0
100
AcDbLine
 10
62.981964
 20
109.949109
 30
0.0
 11
60.481964
 21
109.949109
 31
0.0
  0
SOLID
  5
F7E
100
AcDbEntity
  8
DIM
 62
     0
100
AcDbTrace
 10
62.981964
 20
110.365776
 30
0.0
 11
62.981964
 21
109.532443
 31
0.0
 12
65.481964
 22
109.949109
 32
0.0
 13
65.481964
 23
109.949109
 33
0.0
  0
SOLID
  5
F7F
100
AcDbEntity
  8
DIM
 62
     0
100
AcDbTrace
 10
60.481964
 20
110.365776
 30
0.0
 11
60.481964
 21
109.532443
 31
0.0
 12
57.981964
 22
109.949109
 32
0.0
 13
57.981964
 23
109.949109
 33
0.0
  0
MTEXT
  5
F80
100
AcDbEntity
  8
DIM
100
AcDbMText
 10
61.731964
 20
112.399109
 30
0.0
 40
2.5
 41
0.0
 71
     5
 72
     5
  1
\A1;7.5
  7
BIGFONT
1001
ACAD
1000
MTEXTBEGIN
1070
    73
1070
     1
1070
    44
1040
1.0
1070
    74
1070
     0
1000
MTEXTEND
  0
POINT
  5
F81
100
AcDbEntity
  8
DEFPOINTS
 62
     0
100
AcDbPoint
 10
65.481964
 20
129.929499
 30
0.0
  0
POINT
  5
F82
100
AcDbEntity
  8
DEFPOINTS
 62
     0
100
AcDbPoint
 10
57.981964
 20
132.088517
 30
0.0
  0
POINT
  5
F83
100
AcDbEntity
  8
DEFPOINTS
 62
     0
100
AcDbPoint
 10
57.981964
 20
109.949109
 30
0.0
  0
ENDBLK
  5
CAF
100
AcDbEntity
  8
0
100
AcDbBlockEnd
  0
BLOCK
  5
C9A
100
AcDbEntity
  8
0
100
AcDbBlockBegin
  2
*D4
 70
     1
 10
0.0
 20
0.0
 30
0.0
  3
*D4
  1

  0
LINE
  5
F72
100
AcDbEntity
  8
DIM
 62
     0
100
AcDbLine
 10
72.981964
 20
131.463517
 30
0.0
 11
72.981964
 21
100.326295
 31
0.0
  0
LINE
  5
F73
100
AcDbEntity
  8
DIM
 62
     0
100
AcDbLine
 10
57.981964
 20
131.463517
 30
0.0
 11
57.981964
 21
100.326295
 31
0.0
  0
LINE
  5
F74
100
AcDbEntity
  8
DIM
 62
     0
100
AcDbLine
 10
70.481964
 20
101.576295
 30
0.0
 11
60.481964
 21
101.576295
 31
0.0
  0
SOLID
  5
F75
100
AcDbEntity
  8
DIM
 62
     0
100
AcDbTrace
 10
70.481964
 20
101.992962
 30
0.0
 11
70.481964
 21
101.159628
 31
0.0
 12
72.981964
 22
101.576295
 32
0.0
 13
72.981964
 23
101.576295
 33
0.0
  0
SOLID
  5
F76
100
AcDbEntity
  8
DIM
 62
     0
100
AcDbTrace
 10
60.481964
 20
101.992962
 30
0.0
 11
60.481964
 21
101.159628
 31
0.0
 12
57.981964
 22
101.576295
 32
0.0
 13
57.981964
 23
101.576295
 33
0.0
  0
MTEXT
  5
F77
100
AcDbEntity
  8
DIM
100
AcDbMText
 10
65.481964
 20
104.026295
 30
0.0
 40
2.5
 41
0.0
 71
     5
 72
     5
  1
\A1;15\H1.5;%%p0.1
  7
BIGFONT
1001
ACAD
1000
MTEXTBEGIN
1070
    73
1070
     1
1070
    44
1040
1.0
1070
    74
1070
     0
1000
MTEXTEND
  0
POINT
  5
F78
100
AcDbEntity
  8
DEFPOINTS
 62
     0
100
AcDbPoint
 10
72.981964
 20
132.088517
 30
0.0
  0
POINT
  5
F79
100
AcDbEntity
  8
DEFPOINTS
 62
     0
100
AcDbPoint
 10
57.981964
 20
132.088517
 30
0.0
  0
POINT
  5
F7A
100
AcDbEntity
  8
DEFPOINTS
 62
     0
100
AcDbPoint
 10
57.981964
 20
101.576295
 30
0.0
  0
ENDBLK
  5
CA4
100
AcDbEntity
  8
0
100
AcDbBlockEnd
  0
BLOCK
  5
BB3
100
AcDbEntity
  8
0
100
AcDbBlockBegin
  2
*D5
 70
     1
 10
0.0
 20
0.0
 30
0.0
  3
*D5
  1

  0
LINE
  5
F69
100
AcDbEntity
  8
DIM
 62
     0
100
AcDbLine
 10
113.260911
 20
151.588517
 30
0.0
 11
108.264918
 21
151.588517
 31
0.0
  0
LINE
  5
F6A
100
AcDbEntity
  8
DIM
 62
     0
100
AcDbLine
 10
119.025216
 20
138.588517
 30
0.0
 11
108.264918
 21
138.588517
 31
0.0
  0
LINE
  5
F6B
100
AcDbEntity
  8
DIM
 62
     0
100
AcDbLine
 10
109.514918
 20
149.088517
 30
0.0
 11
109.514918
 21
141.088517
 31
0.0
  0
SOLID
  5
F6C
100
AcDbEntity
  8
DIM
 62
     0
100
AcDbTrace
 10
109.098251
 20
149.088517
 30
0.0
 11
109.931585
 21
149.088517
 31
0.0
 12
109.514918
 22
151.588517
 32
0.0
 13
109.514918
 23
151.588517
 33
0.0
  0
SOLID
  5
F6D
100
AcDbEntity
  8
DIM
 62
     0
100
AcDbTrace
 10
109.098251
 20
141.088517
 30
0.0
 11
109.931585
 21
141.088517
 31
0.0
 12
109.514918
 22
138.588517
 32
0.0
 13
109.514918
 23
138.588517
 33
0.0
  0
MTEXT
  5
F6E
100
AcDbEntity
  8
DIM
100
AcDbMText
 10
107.064918
 20
145.088517
 30
0.0
 40
2.5
 41
0.0
 71
     5
 72
     5
  1
\A1;13
  7
BIGFONT
 11
0.0
 21
1.0
 31
0.0
1001
ACAD
1000
MTEXTBEGIN
1070
    73
1070
     1
1070
    44
1040
1.0
1070
    74
1070
     0
1000
MTEXTEND
  0
POINT
  5
F6F
100
AcDbEntity
  8
DEFPOINTS
 62
     0
100
AcDbPoint
 10
113.885911
 20
151.588517
 30
0.0
  0
POINT
  5
F70
100
AcDbEntity
  8
DEFPOINTS
 62
     0
100
AcDbPoint
 10
119.650216
 20
138.588517
 30
0.0
  0
POINT
  5
F71
100
AcDbEntity
  8
DEFPOINTS
 62
     0
100
AcDbPoint
 10
109.514918
 20
138.588517
 30
0.0
  0
ENDBLK
  5
BBD
100
AcDbEntity
  8
0
100
AcDbBlockEnd
  0
BLOCK
  5
BC0
100
AcDbEntity
  8
0
100
AcDbBlockBegin
  2
*D6
 70
     1
 10
0.0
 20
0.0
 30
0.0
  3
*D6
  1

  0
LINE
  5
F60
100
AcDbEntity
  8
DIM
 62
     0
100
AcDbLine
 10
164.510911
 20
151.588517
 30
0.0
 11
168.662583
 21
151.588517
 31
0.0
  0
LINE
  5
F61
100
AcDbEntity
  8
DIM
 62
     0
100
AcDbLine
 10
140.260911
 20
164.588517
 30
0.0
 11
168.662583
 21
164.588517
 31
0.0
  0
LINE
  5
F62
100
AcDbEntity
  8
DIM
 62
     0
100
AcDbLine
 10
167.412583
 20
154.088517
 30
0.0
 11
167.412583
 21
162.088517
 31
0.0
  0
SOLID
  5
F63
100
AcDbEntity
  8
DIM
 62
     0
100
AcDbTrace
 10
166.995917
 20
154.088517
 30
0.0
 11
167.82925
 21
154.088517
 31
0.0
 12
167.412583
 22
151.588517
 32
0.0
 13
167.412583
 23
151.588517
 33
0.0
  0
SOLID
  5
F64
100
AcDbEntity
  8
DIM
 62
     0
100
AcDbTrace
 10
166.995917
 20
162.088517
 30
0.0
 11
167.82925
 21
162.088517
 31
0.0
 12
167.412583
 22
164.588517
 32
0.0
 13
167.412583
 23
164.588517
 33
0.0
  0
MTEXT
  5
F65
100
AcDbEntity
  8
DIM
100
AcDbMText
 10
164.962583
 20
158.088517
 30
0.0
 40
2.5
 41
0.0
 71
     5
 72
     5
  1
\A1;13
  7
BIGFONT
 11
0.0
 21
1.0
 31
0.0
1001
ACAD
1000
MTEXTBEGIN
1070
    73
1070
     1
1070
    44
1040
1.0
1070
    74
1070
     0
1000
MTEXTEND
  0
POINT
  5
F66
100
AcDbEntity
  8
DEFPOINTS
 62
     0
100
AcDbPoint
 10
163.885911
 20
151.588517
 30
0.0
  0
POINT
  5
F67
100
AcDbEntity
  8
DEFPOINTS
 62
     0
100
AcDbPoint
 10
139.635911
 20
164.588517
 30
0.0
  0
POINT
  5
F68
100
AcDbEntity
  8
DEFPOINTS
 62
     0
100
AcDbPoint
 10
167.412583
 20
164.588517
 30
0.0
  0
ENDBLK
  5
BCA
100
AcDbEntity
  8
0
100
AcDbBlockEnd
  0
BLOCK
  5
BCD
100
AcDbEntity
  8
0
100
AcDbBlockBegin
  2
*D7
 70
     1
 10
0.0
 20
0.0
 30
0.0
  3
*D7
  1

  0
LINE
  5
F57
100
AcDbEntity
  8
DIM
 62
     0
100
AcDbLine
 10
130.885911
 20
132.633215
 30
0.0
 11
130.885911
 21
111.612575
 31
0.0
  0
LINE
  5
F58
100
AcDbEntity
  8
DIM
 62
     0
100
AcDbLine
 10
138.885911
 20
125.963517
 30
0.0
 11
138.885911
 21
111.612575
 31
0.0
  0
LINE
  5
F59
100
AcDbEntity
  8
DIM
 62
     0
100
AcDbLine
 10
133.385911
 20
112.862575
 30
0.0
 11
136.385911
 21
112.862575
 31
0.0
  0
SOLID
  5
F5A
100
AcDbEntity
  8
DIM
 62
     0
100
AcDbTrace
 10
133.385911
 20
113.279242
 30
0.0
 11
133.385911
 21
112.445908
 31
0.0
 12
130.885911
 22
112.862575
 32
0.0
 13
130.885911
 23
112.862575
 33
0.0
  0
SOLID
  5
F5B
100
AcDbEntity
  8
DIM
 62
     0
100
AcDbTrace
 10
136.385911
 20
113.279242
 30
0.0
 11
136.385911
 21
112.445908
 31
0.0
 12
138.885911
 22
112.862575
 32
0.0
 13
138.885911
 23
112.862575
 33
0.0
  0
MTEXT
  5
F5C
100
AcDbEntity
  8
DIM
100
AcDbMText
 10
134.885911
 20
115.312575
 30
0.0
 40
2.5
 41
0.0
 71
     5
 72
     5
  1
\A1;8
  7
BIGFONT
1001
ACAD
1000
MTEXTBEGIN
1070
    73
1070
     1
1070
    44
1040
1.0
1070
    74
1070
     0
1000
MTEXTEND
  0
POINT
  5
F5D
100
AcDbEntity
  8
DEFPOINTS
 62
     0
100
AcDbPoint
 10
130.885911
 20
133.258215
 30
0.0
  0
POINT
  5
F5E
100
AcDbEntity
  8
DEFPOINTS
 62
     0
100
AcDbPoint
 10
138.885911
 20
126.588517
 30
0.0
  0
POINT
  5
F5F
100
AcDbEntity
  8
DEFPOINTS
 62
     0
100
AcDbPoint
 10
138.885911
 20
112.862575
 30
0.0
  0
ENDBLK
  5
BD7
100
AcDbEntity
  8
0
100
AcDbBlockEnd
  0
BLOCK
  5
BDA
100
AcDbEntity
  8
0
100
AcDbBlockBegin
  2
*D8
 70
     1
 10
0.0
 20
0.0
 30
0.0
  3
*D8
  1

  0
LINE
  5
F4C
100
AcDbEntity
  8
DIM
 62
     0
100
AcDbLine
 10
138.135911
 20
130.977585
 30
0.0
 11
138.135911
 21
118.105934
 31
0.0
  0
LINE
  5
F4D
100
AcDbEntity
  8
DIM
 62
     0
100
AcDbLine
 10
139.635911
 20
130.977585
 30
0.0
 11
139.635911
 21
118.105934
 31
0.0
  0
LINE
  5
F4E
100
AcDbEntity
  8
DIM
 62
     0
100
AcDbLine
 10
135.635911
 20
119.355934
 30
0.0
 11
133.135911
 21
119.355934
 31
0.0
  0
LINE
  5
F4F
100
AcDbEntity
  8
DIM
 62
     0
100
AcDbLine
 10
142.135911
 20
119.355934
 30
0.0
 11
151.202578
 21
119.355934
 31
0.0
  0
LINE
  5
F50
100
AcDbEntity
  8
DIM
 62
     0
100
AcDbLine
 10
138.135911
 20
119.355934
 30
0.0
 11
139.635911
 21
119.355934
 31
0.0
  0
SOLID
  5
F51
100
AcDbEntity
  8
DIM
 62
     0
100
AcDbTrace
 10
135.635911
 20
119.7726
 30
0.0
 11
135.635911
 21
118.939267
 31
0.0
 12
138.135911
 22
119.355934
 32
0.0
 13
138.135911
 23
119.355934
 33
0.0
  0
SOLID
  5
F52
100
AcDbEntity
  8
DIM
 62
     0
100
AcDbTrace
 10
142.135911
 20
119.7726
 30
0.0
 11
142.135911
 21
118.939267
 31
0.0
 12
139.635911
 22
119.355934
 32
0.0
 13
139.635911
 23
119.355934
 33
0.0
  0
MTEXT
  5
F53
100
AcDbEntity
  8
DIM
100
AcDbMText
 10
147.919244
 20
121.805934
 30
0.0
 40
2.5
 41
0.0
 71
     5
 72
     5
  1
\A1;1.5
  7
BIGFONT
1001
ACAD
1000
MTEXTBEGIN
1070
    73
1070
     1
1070
    44
1040
1.0
1070
    74
1070
     0
1000
MTEXTEND
  0
POINT
  5
F54
100
AcDbEntity
  8
DEFPOINTS
 62
     0
100
AcDbPoint
 10
138.135911
 20
131.602585
 30
0.0
  0
POINT
  5
F55
100
AcDbEntity
  8
DEFPOINTS
 62
     0
100
AcDbPoint
 10
139.635911
 20
131.602585
 30
0.0
  0
POINT
  5
F56
100
AcDbEntity
  8
DEFPOINTS
 62
     0
100
AcDbPoint
 10
139.635911
 20
119.355934
 30
0.0
  0
ENDBLK
  5
BE6
100
AcDbEntity
  8
0
100
AcDbBlockEnd
  0
BLOCK
  5
BF7
100
AcDbEntity
  8
0
100
AcDbBlockBegin
  2
*D9
 70
     1
 10
0.0
 20
0.0
 30
0.0
  3
*D9
  1

  0
LINE
  5
F46
100
AcDbEntity
  8
DIM
 62
     0
100
AcDbLine
 10
82.602255
 20
142.523415
 30
0.0
 11
73.765975
 21
140.4925
 31
0.0
  0
MTEXT
  5
F47
100
AcDbEntity
  8
DIM
100
AcDbMText
 10
78.853557
 20
144.1757
 30
0.0
 40
2.5
 41
0.0
 71
     5
 72
     5
  1
\A1;R6
  7
BIGFONT
 11
0.97459
 21
0.223998
 31
0.0
1001
ACAD
1000
MTEXTBEGIN
1070
    73
1070
     1
1070
    44
1040
1.0
1070
    74
1070
     0
1000
MTEXTEND
  0
LINE
  5
F48
100
AcDbEntity
  8
DIM
 62
     0
100
AcDbLine
 10
65.481964
 20
138.588517
 30
0.0
 11
71.329501
 21
139.932505
 31
0.0
  0
SOLID
  5
F49
100
AcDbEntity
  8
DIM
 62
     0
100
AcDbTrace
 10
73.672643
 20
140.898579
 30
0.0
 11
73.859308
 21
140.086421
 31
0.0
 12
71.329501
 22
139.932505
 32
0.0
 13
71.329501
 23
139.932505
 33
0.0
  0
POINT
  5
F4A
100
AcDbEntity
  8
DEFPOINTS
 62
     0
100
AcDbPoint
 10
71.329501
 20
139.932505
 30
0.0
  0
POINT
  5
F4B
100
AcDbEntity
  8
DEFPOINTS
 62
     0
100
AcDbPoint
 10
65.481964
 20
138.588517
 30
0.0
  0
ENDBLK
  5
BFE
100
AcDbEntity
  8
0
100
AcDbBlockEnd
  0
BLOCK
  5
C7B
100
AcDbEntity
  8
0
100
AcDbBlockBegin
  2
*D10
 70
     1
 10
0.0
 20
0.0
 30
0.0
  3
*D10
  1

  0
LINE
  5
F3D
100
AcDbEntity
  8
DIM
 62
     0
100
AcDbLine
 10
57.856964
 20
159.588517
 30
0.0
 11
39.343428
 21
159.588517
 31
0.0
  0
LINE
  5
F3E
100
AcDbEntity
  8
DIM
 62
     0
100
AcDbLine
 10
57.856964
 20
143.588517
 30
0.0
 11
39.343428
 21
143.588517
 31
0.0
  0
LINE
  5
F3F
100
AcDbEntity
  8
DIM
 62
     0
100
AcDbLine
 10
40.593428
 20
157.088517
 30
0.0
 11
40.593428
 21
146.088517
 31
0.0
  0
SOLID
  5
F40
100
AcDbEntity
  8
DIM
 62
     0
100
AcDbTrace
 10
40.176761
 20
157.088517
 30
0.0
 11
41.010094
 21
157.088517
 31
0.0
 12
40.593428
 22
159.588517
 32
0.0
 13
40.593428
 23
159.588517
 33
0.0
  0
SOLID
  5
F41
100
AcDbEntity
  8
DIM
 62
     0
100
AcDbTrace
 10
40.176761
 20
146.088517
 30
0.0
 11
41.010094
 21
146.088517
 31
0.0
 12
40.593428
 22
143.588517
 32
0.0
 13
40.593428
 23
143.588517
 33
0.0
  0
MTEXT
  5
F42
100
AcDbEntity
  8
DIM
100
AcDbMText
 10
37.643428
 20
151.588517
 30
0.0
 40
2.5
 41
0.0
 71
     5
 72
     5
  1
\A1;%%c16\H1.5;\S+0.05^ +0.01;
  7
BIGFONT
 11
0.0
 21
1.0
 31
0.0
1001
ACAD
1000
MTEXTBEGIN
1070
    73
1070
     1
1070
    44
1040
1.0
1070
    74
1070
     0
1000
MTEXTEND
  0
POINT
  5
F43
100
AcDbEntity
  8
DEFPOINTS
 62
     0
100
AcDbPoint
 10
58.481964
 20
159.588517
 30
0.0
  0
POINT
  5
F44
100
AcDbEntity
  8
DEFPOINTS
 62
     0
100
AcDbPoint
 10
58.481964
 20
143.588517
 30
0.0
  0
POINT
  5
F45
100
AcDbEntity
  8
DEFPOINTS
 62
     0
100
AcDbPoint
 10
40.593428
 20
143.588517
 30
0.0
  0
ENDBLK
  5
C85
100
AcDbEntity
  8
0
100
AcDbBlockEnd
  0
BLOCK
  5
EB1
100
AcDbEntity
  8
0
100
AcDbBlockBegin
  2
_OPEN30
 70
     0
 10
0.0
 20
0.0
 30
0.0
  3
_OPEN30
  1

  0
LINE
  5
EAE
100
AcDbEntity
  8
0
 62
     0
100
AcDbLine
 10
-1.0
 20
0.267949
 30
0.0
 11
0.0
 21
0.0
 31
0.0
  0
LINE
  5
EAF
100
AcDbEntity
  8
0
 62
     0
100
AcDbLine
 10
0.0
 20
0.0
 30
0.0
 11
-1.0
 21
-0.267949
 31
0.0
  0
LINE
  5
EB0
100
AcDbEntity
  8
0
 62
     0
100
AcDbLine
 10
0.0
 20
0.0
 30
0.0
 11
-1.0
 21
0.0
 31
0.0
  0
ENDBLK
  5
EB2
100
AcDbEntity
  8
0
100
AcDbBlockEnd
  0
ENDSEC
  0
SECTION
  2
ENTITIES
  0
TEXT
  5
3E9
100
AcDbEntity
  8
図枠部品表
 62
     3
100
AcDbText
 10
403.65269
 20
422.521663
 30
0.0
 40
2.4325
  1

 41
0.8
  7
KANJI
 72
     1
 11
403.65269
 21
423.737913
 31
0.0
100
AcDbText
 73
     2
  0
TEXT
  5
A9F
100
AcDbEntity
  8
図枠
 62
     7
100
AcDbText
 10
162.933452
 20
10.11536
 30
0.0
 40
2.6
  1

  7
KANJI
 72
     1
 11
162.933452
 21
11.41536
 31
0.0
100
AcDbText
 73
     2
  0
LINE
  5
AFD
100
AcDbEntity
  8
CENTER
100
AcDbLine
 10
113.885911
 20
151.588517
 30
0.0
 11
163.885911
 21
151.588517
 31
0.0
  0
LINE
  5
AFE
100
AcDbEntity
  8
CENTER
100
AcDbLine
 10
138.885911
 20
122.393361
 30
0.0
 11
138.885911
 21
176.588517
 31
0.0
  0
ARC
  5
B00
100
AcDbEntity
  8
0
100
AcDbCircle
 10
138.885911
 20
151.588517
 30
0.0
 40
20.0
100
AcDbArc
 50
272.149096
 51
267.850904
  0
ARC
  5
B01
100
AcDbEntity
  8
0
100
AcDbCircle
 10
138.885911
 20
151.588517
 30
0.0
 40
19.5
100
AcDbArc
 50
272.204228
 51
267.795772
  0
LINE
  5
B06
100
AcDbEntity
  8
0
100
AcDbLine
 10
139.635911
 20
164.588517
 30
0.0
 11
139.635911
 21
159.553284
 31
0.0
  0
LINE
  5
B08
100
AcDbEntity
  8
0
100
AcDbLine
 10
138.135911
 20
131.602585
 30
0.0
 11
138.135911
 21
143.623751
 31
0.0
  0
LINE
  5
B0A
100
AcDbEntity
  8
0
100
AcDbLine
 10
139.635911
 20
164.588517
 30
0.0
 11
138.135911
 21
164.588517
 31
0.0
  0
LINE
  5
B0F
100
AcDbEntity
  8
CENTER
100
AcDbLine
 10
119.650216
 20
138.588517
 30
0.0
 11
158.121606
 21
138.588517
 31
0.0
  0
LINE
  5
B14
100
AcDbEntity
  8
0
  6
HIDDEN
 62
     3
100
AcDbLine
 10
150.272461
 20
141.588517
 30
0.0
 11
156.206419
 21
141.588517
 31
0.0
  0
LINE
  5
B17
100
AcDbEntity
  8
0
  6
HIDDEN
 62
     3
100
AcDbLine
 10
150.272461
 20
135.588517
 30
0.0
 11
150.885911
 21
135.588517
 31
0.0
  0
LINE
  5
B19
100
AcDbEntity
  8
0
  6
HIDDEN
100
AcDbLine
 10
130.885911
 20
133.258215
 30
0.0
 11
130.885911
 21
144.588517
 31
0.0
  0
LINE
  5
B20
100
AcDbEntity
  8
0
  6
HIDDEN
100
AcDbLine
 10
130.885911
 20
142.088517
 30
0.0
 11
138.135911
 21
142.088517
 31
0.0
  0
LINE
  5
B21
100
AcDbEntity
  8
0
  6
HIDDEN
100
AcDbLine
 10
130.885911
 20
135.088517
 30
0.0
 11
138.135911
 21
135.088517
 31
0.0
  0
LINE
  5
B24
100
AcDbEntity
  8
CENTER
100
AcDbLine
 10
65.481964
 20
147.247536
 30
0.0
 11
65.481964
 21
129.929499
 31
0.0
  0
LINE
  5
B29
100
AcDbEntity
  8
CENTER
100
AcDbLine
 10
75.464528
 20
151.588517
 30
0.0
 11
55.4994
 21
151.588517
 31
0.0
  0
LINE
  5
B37
100
AcDbEntity
  8
0
100
AcDbLine
 10
72.481964
 20
171.588517
 30
0.0
 11
58.481964
 21
171.588517
 31
0.0
  0
LINE
  5
B38
100
AcDbEntity
  8
0
100
AcDbLine
 10
72.481964
 20
131.588517
 30
0.0
 11
58.481964
 21
131.588517
 31
0.0
  0
LINE
  5
B3A
100
AcDbEntity
  8
0
100
AcDbLine
 10
72.981964
 20
171.088517
 30
0.0
 11
72.981964
 21
132.088517
 31
0.0
  0
LINE
  5
B3C
100
AcDbEntity
  8
0
100
AcDbLine
 10
57.981964
 20
132.088517
 30
0.0
 11
57.981964
 21
171.088517
 31
0.0
  0
LINE
  5
B3D
100
AcDbEntity
  8
0
100
AcDbLine
 10
72.481964
 20
171.588517
 30
0.0
 11
72.981964
 21
171.088517
 31
0.0
  0
LINE
  5
B3E
100
AcDbEntity
  8
0
100
AcDbLine
 10
72.981964
 20
132.088517
 30
0.0
 11
72.481964
 21
131.588517
 31
0.0
  0
LINE
  5
B3F
100
AcDbEntity
  8
0
100
AcDbLine
 10
58.481964
 20
131.588517
 30
0.0
 11
57.981964
 21
132.088517
 31
0.0
  0
LINE
  5
B40
100
AcDbEntity
  8
0
100
AcDbLine
 10
57.981964
 20
171.088517
 30
0.0
 11
58.481964
 21
171.588517
 31
0.0
  0
LINE
  5
B41
100
AcDbEntity
  8
0
100
AcDbLine
 10
72.481964
 20
171.588517
 30
0.0
 11
72.481964
 21
131.588517
 31
0.0
  0
LINE
  5
B42
100
AcDbEntity
  8
0
100
AcDbLine
 10
58.481964
 20
131.588517
 30
0.0
 11
58.481964
 21
171.588517
 31
0.0
  0
LINE
  5
B43
100
AcDbEntity
  8
0
  6
HIDDEN
100
AcDbLine
 10
72.981964
 20
164.588517
 30
0.0
 11
57.981964
 21
164.588517
 31
0.0
  0
LINE
  5
B51
100
AcDbEntity
  8
CENTER
100
AcDbLine
 10
74.140982
 20
138.588517
 30
0.0
 11
56.822945
 21
138.588517
 31
0.0
  0
ARC
  5
B5A
100
AcDbEntity
  8
0
100
AcDbCircle
 10
65.481964
 20
138.588517
 30
0.0
 40
6.0
100
AcDbArc
 50
0.0
 51
180.0
  0
LINE
  5
B5B
100
AcDbEntity
  8
0
100
AcDbLine
 10
71.481964
 20
138.588517
 30
0.0
 11
71.481964
 21
133.258215
 31
0.0
  0
LINE
  5
B5C
100
AcDbEntity
  8
0
100
AcDbLine
 10
59.481964
 20
138.588517
 30
0.0
 11
59.481964
 21
133.258215
 31
0.0
  0
LINE
  5
B5D
100
AcDbEntity
  8
0
  6
HIDDEN
100
AcDbLine
 10
120.150917
 20
144.588517
 30
0.0
 11
130.885911
 21
144.588517
 31
0.0
  0
LINE
  5
B5E
100
AcDbEntity
  8
0
100
AcDbLine
 10
71.481964
 20
133.258215
 30
0.0
 11
59.481964
 21
133.258215
 31
0.0
  0
LINE
  5
B60
100
AcDbEntity
  8
0
100
AcDbLine
 10
72.481964
 20
159.588517
 30
0.0
 11
72.981964
 21
160.088517
 31
0.0
  0
LINE
  5
B61
100
AcDbEntity
  8
0
100
AcDbLine
 10
58.481964
 20
159.588517
 30
0.0
 11
57.981964
 21
160.088517
 31
0.0
  0
LINE
  5
B62
100
AcDbEntity
  8
0
100
AcDbLine
 10
58.481964
 20
143.588517
 30
0.0
 11
57.981964
 21
143.088517
 31
0.0
  0
LINE
  5
B63
100
AcDbEntity
  8
0
100
AcDbLine
 10
72.481964
 20
143.588517
 30
0.0
 11
72.981964
 21
143.088517
 31
0.0
  0
ARC
  5
C6A
100
AcDbEntity
  8
0
100
AcDbCircle
 10
138.885911
 20
151.588517
 30
0.0
 40
8.0
100
AcDbArc
 50
95.379379
 51
264.620621
  0
ARC
  5
C6B
100
AcDbEntity
  8
0
100
AcDbCircle
 10
138.885911
 20
151.588517
 30
0.0
 40
8.5
100
AcDbArc
 50
95.062093
 51
264.937907
  0
LINE
  5
C6C
100
AcDbEntity
  8
0
  6
HIDDEN
100
AcDbLine
 10
72.481964
 20
159.588517
 30
0.0
 11
58.481964
 21
159.588517
 31
0.0
  0
LINE
  5
C6D
100
AcDbEntity
  8
0
  6
HIDDEN
100
AcDbLine
 10
72.481964
 20
143.588517
 30
0.0
 11
58.481964
 21
143.588517
 31
0.0
  0
ARC
  5
C86
100
AcDbEntity
  8
0
100
AcDbCircle
 10
138.885911
 20
151.588517
 30
0.0
 40
8.5
100
AcDbArc
 50
275.062093
 51
84.937907
  0
ARC
  5
C87
100
AcDbEntity
  8
0
100
AcDbCircle
 10
138.885911
 20
151.588517
 30
0.0
 40
8.0
100
AcDbArc
 50
275.379379
 51
84.620621
  0
LINE
  5
C8E
100
AcDbEntity
  8
0
100
AcDbLine
 10
139.635911
 20
143.623751
 30
0.0
 11
139.635911
 21
131.602585
 31
0.0
  0
LINE
  5
C8F
100
AcDbEntity
  8
0
100
AcDbLine
 10
138.135911
 20
159.553284
 30
0.0
 11
138.135911
 21
164.588517
 31
0.0
  0
LINE
  5
E6A
100
AcDbEntity
  8
0
100
AcDbLine
 10
-4.189158
 20
132.088517
 30
0.0
 11
-4.189158
 21
143.088517
 31
0.0
  0
LINE
  5
E6B
100
AcDbEntity
  8
0
100
AcDbLine
 10
10.810842
 20
171.088517
 30
0.0
 11
10.810842
 21
160.088517
 31
0.0
  0
LINE
  5
E6D
100
AcDbEntity
  8
0
100
AcDbLine
 10
10.310842
 20
143.588517
 30
0.0
 11
-3.689158
 21
143.588517
 31
0.0
  0
CIRCLE
  5
E70
100
AcDbEntity
  8
0
100
AcDbCircle
 10
3.310842
 20
138.588517
 30
0.0
 40
3.5
  0
LINE
  5
E71
100
AcDbEntity
  8
CENTER
100
AcDbLine
 10
11.969861
 20
138.588517
 30
0.0
 11
-5.348177
 21
138.588517
 31
0.0
  0
LINE
  5
E72
100
AcDbEntity
  8
0
100
AcDbLine
 10
10.310842
 20
131.588517
 30
0.0
 11
-3.689158
 21
131.588517
 31
0.0
  0
LINE
  5
E74
100
AcDbEntity
  8
0
100
AcDbLine
 10
-3.689158
 20
131.588517
 30
0.0
 11
-4.189158
 21
132.088517
 31
0.0
  0
LINE
  5
E75
100
AcDbEntity
  8
0
100
AcDbLine
 10
-3.689158
 20
143.588517
 30
0.0
 11
-4.189158
 21
143.088517
 31
0.0
  0
CIRCLE
  5
E77
100
AcDbEntity
  8
0
100
AcDbCircle
 10
3.310842
 20
138.588517
 30
0.0
 40
3.0
  0
CIRCLE
  5
E78
100
AcDbEntity
  8
0
 62
     3
100
AcDbCircle
 10
3.310842
 20
138.588517
 30
0.0
 40
2.4585
  0
LINE
  5
E79
100
AcDbEntity
  8
CENTER
100
AcDbLine
 10
3.310842
 20
147.247536
 30
0.0
 11
3.310842
 21
129.929499
 31
0.0
  0
LINE
  5
E7A
100
AcDbEntity
  8
0
100
AcDbLine
 10
10.810842
 20
132.088517
 30
0.0
 11
10.310842
 21
131.588517
 31
0.0
  0
LINE
  5
E7B
100
AcDbEntity
  8
0
100
AcDbLine
 10
10.310842
 20
143.588517
 30
0.0
 11
10.810842
 21
143.088517
 31
0.0
  0
LINE
  5
E7C
100
AcDbEntity
  8
0
100
AcDbLine
 10
10.310842
 20
159.588517
 30
0.0
 11
-3.689158
 21
159.588517
 31
0.0
  0
LINE
  5
E7D
100
AcDbEntity
  8
0
100
AcDbLine
 10
10.810842
 20
164.588517
 30
0.0
 11
-4.189158
 21
164.588517
 31
0.0
  0
LINE
  5
E7E
100
AcDbEntity
  8
0
100
AcDbLine
 10
10.310842
 20
171.588517
 30
0.0
 11
-3.689158
 21
171.588517
 31
0.0
  0
LINE
  5
E7F
100
AcDbEntity
  8
CENTER
100
AcDbLine
 10
13.293406
 20
151.588517
 30
0.0
 11
-6.671722
 21
151.588517
 31
0.0
  0
LINE
  5
E80
100
AcDbEntity
  8
0
100
AcDbLine
 10
-3.689158
 20
159.588517
 30
0.0
 11
-4.189158
 21
160.088517
 31
0.0
  0
LINE
  5
E81
100
AcDbEntity
  8
0
100
AcDbLine
 10
-4.189158
 20
171.088517
 30
0.0
 11
-3.689158
 21
171.588517
 31
0.0
  0
LINE
  5
E82
100
AcDbEntity
  8
0
100
AcDbLine
 10
10.310842
 20
159.588517
 30
0.0
 11
10.810842
 21
160.088517
 31
0.0
  0
LINE
  5
E83
100
AcDbEntity
  8
0
100
AcDbLine
 10
10.310842
 20
171.588517
 30
0.0
 11
10.810842
 21
171.088517
 31
0.0
  0
POINT
  5
EE7
100
AcDbEntity
  8
0
 60
     1
100
AcDbPoint
 10
109.547973
 20
187.383907
 30
0.0
 50
90.0
1001
GENIUS_GENOBJ-NBEHI-BHF_13
1002
{
1000
OWNER
1000
GENBEHI
1002
}
1001
GENIUS_GENOENT_13
1002
{
1000
MYREF
1005
EE7
1002
}
1002
{
1000
GRP
1005
0
1002
}
1001
GENIUS_GENOLIS_13
1002
{
1000
ENT
1005
0
1002
}
1001
GENIUS_GENBH_13
1002
{
1000
OIUMAP
1000
OIU
1002
}
1002
{
1000
FLAGS
1070
    32
1002
}
1002
{
1000
BGO
1005
EE8
1002
}
1001
GENIUS_GENODEF_13
1002
{
1000
HIER
1070
     1
1002
}
1002
{
1000
MANEDIT
1070
     1
1002
}
1002
{
1000
NOSEL
1070
     1
1002
}
1002
{
1000
BEHIND
1070
     0
1002
}
1002
{
1000
REACTOR
1002
}
  0
POINT
  5
EE8
100
AcDbEntity
  8
0
 60
     1
100
AcDbPoint
 10
109.547973
 20
187.383907
 30
0.0
 50
90.0
1001
GENIUS_GENOBJ-NBEHI-BHB_13
1002
{
1000
OWNER
1000
GENBEHI
1002
}
1001
GENIUS_GENOENT_13
1002
{
1000
MYREF
1005
EE8
1002
}
1002
{
1000
GRP
1005
0
1002
}
1001
GENIUS_GENOLIS_13
1002
{
1000
ENT
1002
}
1001
GENIUS_GENODEF_13
1002
{
1000
HIER
1070
     1
1002
}
1002
{
1000
MANEDIT
1070
     0
1002
}
1002
{
1000
NOSEL
1070
     1
1002
}
1002
{
1000
BEHIND
1070
     0
1002
}
1002
{
1000
REACTOR
1002
}
1002
{
1000
OTHER
1070
     1
1002
}
1001
GENIUS_GENBH_13
1002
{
1000
FGO
1005
EE7
1002
}
  0
POINT
  5
EE9
100
AcDbEntity
  8
0
 60
     1
100
AcDbPoint
 10
109.547973
 20
187.383907
 30
0.0
 50
90.0
1001
GENIUS_GENOBJ-NBEHI-BHF_13
1002
{
1000
OWNER
1000
GENBEHI
1002
}
1001
GENIUS_GENOENT_13
1002
{
1000
MYREF
1005
EE9
1002
}
1002
{
1000
GRP
1005
0
1002
}
1001
GENIUS_GENOLIS_13
1002
{
1000
ENT
1005
0
1002
}
1001
GENIUS_GENODEF_13
1002
{
1000
HIER
1070
     1
1002
}
1002
{
1000
MANEDIT
1070
     0
1002
}
1002
{
1000
NOSEL
1070
     1
1002
}
1002
{
1000
BEHIND
1070
     0
1002
}
1002
{
1000
REACTOR
1002
}
1001
GENIUS_GENBH_13
1002
{
1000
OIUMAP
1000
OIU
1002
}
1002
{
1000
FLAGS
1070
    32
1002
}
1002
{
1000
BGO
1005
EEA
1002
}
  0
POINT
  5
EEA
100
AcDbEntity
  8
0
 60
     1
100
AcDbPoint
 10
109.547973
 20
187.383907
 30
0.0
 50
90.0
1001
GENIUS_GENOBJ-NBEHI-BHB_13
1002
{
1000
OWNER
1000
GENBEHI
1002
}
1001
GENIUS_GENOENT_13
1002
{
1000
MYREF
1005
EEA
1002
}
1002
{
1000
GRP
1005
0
1002
}
1001
GENIUS_GENOLIS_13
1002
{
1000
ENT
1002
}
1001
GENIUS_GENODEF_13
1002
{
1000
HIER
1070
     1
1002
}
1002
{
1000
MANEDIT
1070
     0
1002
}
1002
{
1000
NOSEL
1070
     1
1002
}
1002
{
1000
BEHIND
1070
     0
1002
}
1002
{
1000
REACTOR
1002
}
1002
{
1000
OTHER
1070
     1
1002
}
1001
GENIUS_GENBH_13
1002
{
1000
FGO
1005
EE9
1002
}
  0
POINT
  5
EEB
100
AcDbEntity
  8
0
 60
     1
100
AcDbPoint
 10
109.547973
 20
187.383907
 30
0.0
 50
90.0
1001
GENIUS_GENOBJ-NBEHI-BHF_13
1002
{
1000
OWNER
1000
GENBEHI
1002
}
1001
GENIUS_GENOENT_13
1002
{
1000
MYREF
1005
EEB
1002
}
1002
{
1000
GRP
1005
0
1002
}
1001
GENIUS_GENOLIS_13
1002
{
1000
ENT
1005
0
1002
}
1001
GENIUS_GENBH_13
1002
{
1000
OIUMAP
1000
OIU
1002
}
1002
{
1000
FLAGS
1070
    32
1002
}
1002
{
1000
BGO
1005
EEC
1002
}
1001
GENIUS_GENODEF_13
1002
{
1000
HIER
1070
     1
1002
}
1002
{
1000
MANEDIT
1070
     1
1002
}
1002
{
1000
NOSEL
1070
     1
1002
}
1002
{
1000
BEHIND
1070
     0
1002
}
1002
{
1000
REACTOR
1002
}
  0
POINT
  5
EEC
100
AcDbEntity
  8
0
 60
     1
100
AcDbPoint
 10
109.547973
 20
187.383907
 30
0.0
 50
90.0
1001
GENIUS_GENOBJ-NBEHI-BHB_13
1002
{
1000
OWNER
1000
GENBEHI
1002
}
1001
GENIUS_GENOENT_13
1002
{
1000
MYREF
1005
EEC
1002
}
1002
{
1000
GRP
1005
0
1002
}
1001
GENIUS_GENOLIS_13
1002
{
1000
ENT
1002
}
1001
GENIUS_GENODEF_13
1002
{
1000
HIER
1070
     1
1002
}
1002
{
1000
MANEDIT
1070
     0
1002
}
1002
{
1000
NOSEL
1070
     1
1002
}
1002
{
1000
BEHIND
1070
     0
1002
}
1002
{
1000
REACTOR
1002
}
1002
{
1000
OTHER
1070
     1
1002
}
1001
GENIUS_GENBH_13
1002
{
1000
FGO
1005
EEB
1002
}
  0
POINT
  5
EED
100
AcDbEntity
  8
0
 60
     1
100
AcDbPoint
 10
109.547973
 20
187.383907
 30
0.0
 50
90.0
1001
GENIUS_GENOBJ-F-SCPASSM_13
1002
{
1000
OWNER
1000
GEF
1002
}
1001
GENIUS_GENOENT_13
1002
{
1000
MYREF
1005
EED
1002
}
1002
{
1000
GRP
1005
0
1002
}
1001
GENIUS_GENOLIS_13
1002
{
1000
ENT
1005
0
1005
0
1002
}
1001
GENIUS_GENODEF_13
1002
{
1000
HIER
1070
   200
1002
}
1002
{
1000
MANEDIT
1070
     1
1002
}
1002
{
1000
NOSEL
1070
     0
1002
}
1002
{
1000
BEHIND
1070
     0
1002
}
1002
{
1000
REACTOR
1002
}
  0
POINT
  5
EEE
100
AcDbEntity
  8
0
 60
     1
100
AcDbPoint
 10
109.547973
 20
187.383907
 30
0.0
 50
90.0
1001
GENIUS_GENOBJ-NBEHI-BHF_13
1002
{
1000
OWNER
1000
GENBEHI
1002
}
1001
GENIUS_GENOENT_13
1002
{
1000
MYREF
1005
EEE
1002
}
1002
{
1000
GRP
1005
0
1002
}
1001
GENIUS_GENOLIS_13
1002
{
1000
ENT
1005
0
1002
}
1001
GENIUS_GENODEF_13
1002
{
1000
HIER
1070
     1
1002
}
1002
{
1000
MANEDIT
1070
     0
1002
}
1002
{
1000
NOSEL
1070
     1
1002
}
1002
{
1000
BEHIND
1070
     0
1002
}
1002
{
1000
REACTOR
1002
}
1001
GENIUS_GENBH_13
1002
{
1000
OIUMAP
1000
OIU
1002
}
1002
{
1000
FLAGS
1070
    32
1002
}
1002
{
1000
BGO
1005
EEF
1002
}
  0
POINT
  5
EEF
100
AcDbEntity
  8
0
 60
     1
100
AcDbPoint
 10
109.547973
 20
187.383907
 30
0.0
 50
90.0
1001
GENIUS_GENOBJ-NBEHI-BHB_13
1002
{
1000
OWNER
1000
GENBEHI
1002
}
1001
GENIUS_GENOENT_13
1002
{
1000
MYREF
1005
EEF
1002
}
1002
{
1000
GRP
1005
0
1002
}
1001
GENIUS_GENOLIS_13
1002
{
1000
ENT
1002
}
1001
GENIUS_GENODEF_13
1002
{
1000
HIER
1070
     1
1002
}
1002
{
1000
MANEDIT
1070
     0
1002
}
1002
{
1000
NOSEL
1070
     1
1002
}
1002
{
1000
BEHIND
1070
     0
1002
}
1002
{
1000
REACTOR
1002
}
1002
{
1000
OTHER
1070
     1
1002
}
1001
GENIUS_GENBH_13
1002
{
1000
FGO
1005
EEE
1002
}
  0
POINT
  5
EF0
100
AcDbEntity
  8
0
 60
     1
100
AcDbPoint
 10
109.547973
 20
187.383907
 30
0.0
 50
90.0
1001
GENIUS_GENOBJ-NBEHI-BHF_13
1002
{
1000
OWNER
1000
GENBEHI
1002
}
1001
GENIUS_GENOENT_13
1002
{
1000
MYREF
1005
EF0
1002
}
1002
{
1000
GRP
1005
0
1002
}
1001
GENIUS_GENOLIS_13
1002
{
1000
ENT
1005
0
1002
}
1001
GENIUS_GENBH_13
1002
{
1000
OIUMAP
1000
OIU
1002
}
1002
{
1000
FLAGS
1070
    32
1002
}
1002
{
1000
BGO
1005
EF1
1002
}
1001
GENIUS_GENODEF_13
1002
{
1000
HIER
1070
     1
1002
}
1002
{
1000
MANEDIT
1070
     1
1002
}
1002
{
1000
NOSEL
1070
     1
1002
}
1002
{
1000
BEHIND
1070
     0
1002
}
1002
{
1000
REACTOR
1002
}
  0
POINT
  5
EF1
100
AcDbEntity
  8
0
 60
     1
100
AcDbPoint
 10
109.547973
 20
187.383907
 30
0.0
 50
90.0
1001
GENIUS_GENOBJ-NBEHI-BHB_13
1002
{
1000
OWNER
1000
GENBEHI
1002
}
1001
GENIUS_GENOENT_13
1002
{
1000
MYREF
1005
EF1
1002
}
1002
{
1000
GRP
1005
0
1002
}
1001
GENIUS_GENOLIS_13
1002
{
1000
ENT
1005
0
1002
}
1001
GENIUS_GENODEF_13
1002
{
1000
HIER
1070
     1
1002
}
1002
{
1000
MANEDIT
1070
     0
1002
}
1002
{
1000
NOSEL
1070
     1
1002
}
1002
{
1000
BEHIND
1070
     0
1002
}
1002
{
1000
REACTOR
1002
}
1002
{
1000
OTHER
1070
     1
1002
}
1001
GENIUS_GENBH_13
1002
{
1000
FGO
1005
EF0
1002
}
  0
POINT
  5
EF2
100
AcDbEntity
  8
0
 60
     1
100
AcDbPoint
 10
109.547973
 20
187.383907
 30
0.0
 50
90.0
1001
GENIUS_GENOBJ-F-SCPASSM_13
1002
{
1000
OWNER
1000
GEF
1002
}
1001
GENIUS_GENOENT_13
1002
{
1000
MYREF
1005
EF2
1002
}
1002
{
1000
GRP
1005
0
1002
}
1001
GENIUS_GENOLIS_13
1002
{
1000
ENT
1005
0
1005
0
1002
}
1001
GENIUS_GENODEF_13
1002
{
1000
HIER
1070
   200
1002
}
1002
{
1000
MANEDIT
1070
     1
1002
}
1002
{
1000
NOSEL
1070
     0
1002
}
1002
{
1000
BEHIND
1070
     0
1002
}
1002
{
1000
REACTOR
1002
}
  0
POINT
  5
EF3
100
AcDbEntity
  8
0
 60
     1
100
AcDbPoint
 10
109.547973
 20
187.383907
 30
0.0
 50
90.0
1001
GENIUS_GENOBJ-NBEHI-BHF_13
1002
{
1000
OWNER
1000
GENBEHI
1002
}
1001
GENIUS_GENOENT_13
1002
{
1000
MYREF
1005
EF3
1002
}
1002
{
1000
GRP
1005
0
1002
}
1001
GENIUS_GENOLIS_13
1002
{
1000
ENT
1005
0
1002
}
1001
GENIUS_GENODEF_13
1002
{
1000
HIER
1070
     1
1002
}
1002
{
1000
MANEDIT
1070
     0
1002
}
1002
{
1000
NOSEL
1070
     1
1002
}
1002
{
1000
BEHIND
1070
     0
1002
}
1002
{
1000
REACTOR
1002
}
1001
GENIUS_GENBH_13
1002
{
1000
OIUMAP
1000
OIU
1002
}
1002
{
1000
FLAGS
1070
    32
1002
}
1002
{
1000
BGO
1005
EF4
1002
}
  0
POINT
  5
EF4
100
AcDbEntity
  8
0
 60
     1
100
AcDbPoint
 10
109.547973
 20
187.383907
 30
0.0
 50
90.0
1001
GENIUS_GENOBJ-NBEHI-BHB_13
1002
{
1000
OWNER
1000
GENBEHI
1002
}
1001
GENIUS_GENOENT_13
1002
{
1000
MYREF
1005
EF4
1002
}
1002
{
1000
GRP
1005
0
1002
}
1001
GENIUS_GENOLIS_13
1002
{
1000
ENT
1002
}
1001
GENIUS_GENODEF_13
1002
{
1000
HIER
1070
     1
1002
}
1002
{
1000
MANEDIT
1070
     0
1002
}
1002
{
1000
NOSEL
1070
     1
1002
}
1002
{
1000
BEHIND
1070
     0
1002
}
1002
{
1000
REACTOR
1002
}
1002
{
1000
OTHER
1070
     1
1002
}
1001
GENIUS_GENBH_13
1002
{
1000
FGO
1005
EF3
1002
}
  0
POINT
  5
EF5
100
AcDbEntity
  8
0
 60
     1
100
AcDbPoint
 10
109.547973
 20
187.383907
 30
0.0
 50
90.0
1001
GENIUS_GENOBJ-NBEHI-BHF_13
1002
{
1000
OWNER
1000
GENBEHI
1002
}
1001
GENIUS_GENOENT_13
1002
{
1000
MYREF
1005
EF5
1002
}
1002
{
1000
GRP
1005
0
1002
}
1001
GENIUS_GENOLIS_13
1002
{
1000
ENT
1005
0
1002
}
1001
GENIUS_GENBH_13
1002
{
1000
OIUMAP
1000
OIU
1002
}
1002
{
1000
FLAGS
1070
    32
1002
}
1002
{
1000
BGO
1005
EF6
1002
}
1001
GENIUS_GENODEF_13
1002
{
1000
HIER
1070
     1
1002
}
1002
{
1000
MANEDIT
1070
     1
1002
}
1002
{
1000
NOSEL
1070
     1
1002
}
1002
{
1000
BEHIND
1070
     0
1002
}
1002
{
1000
REACTOR
1002
}
  0
POINT
  5
EF6
100
AcDbEntity
  8
0
 60
     1
100
AcDbPoint
 10
109.547973
 20
187.383907
 30
0.0
 50
90.0
1001
GENIUS_GENOBJ-NBEHI-BHB_13
1002
{
1000
OWNER
1000
GENBEHI
1002
}
1001
GENIUS_GENOENT_13
1002
{
1000
MYREF
1005
EF6
1002
}
1002
{
1000
GRP
1005
0
1002
}
1001
GENIUS_GENOLIS_13
1002
{
1000
ENT
1005
0
1002
}
1001
GENIUS_GENODEF_13
1002
{
1000
HIER
1070
     1
1002
}
1002
{
1000
MANEDIT
1070
     0
1002
}
1002
{
1000
NOSEL
1070
     1
1002
}
1002
{
1000
BEHIND
1070
     0
1002
}
1002
{
1000
REACTOR
1002
}
1002
{
1000
OTHER
1070
     1
1002
}
1001
GENIUS_GENBH_13
1002
{
1000
FGO
1005
EF5
1002
}
  0
POINT
  5
EF7
100
AcDbEntity
  8
0
 60
     1
100
AcDbPoint
 10
109.547973
 20
187.383907
 30
0.0
 50
90.0
1001
GENIUS_GENOBJ-F-SCPASSM_13
1002
{
1000
OWNER
1000
GEF
1002
}
1001
GENIUS_GENOENT_13
1002
{
1000
MYREF
1005
EF7
1002
}
1002
{
1000
GRP
1005
0
1002
}
1001
GENIUS_GENOLIS_13
1002
{
1000
ENT
1005
0
1005
0
1002
}
1001
GENIUS_GENODEF_13
1002
{
1000
HIER
1070
   200
1002
}
1002
{
1000
MANEDIT
1070
     1
1002
}
1002
{
1000
NOSEL
1070
     0
1002
}
1002
{
1000
BEHIND
1070
     0
1002
}
1002
{
1000
REACTOR
1002
}
  0
POINT
  5
EF8
100
AcDbEntity
  8
0
 60
     1
100
AcDbPoint
 10
109.547973
 20
187.383907
 30
0.0
 50
90.0
1001
GENIUS_GENOBJ-NBEHI-BHF_13
1002
{
1000
OWNER
1000
GENBEHI
1002
}
1001
GENIUS_GENOENT_13
1002
{
1000
MYREF
1005
EF8
1002
}
1002
{
1000
GRP
1005
0
1002
}
1001
GENIUS_GENOLIS_13
1002
{
1000
ENT
1005
0
1002
}
1001
GENIUS_GENODEF_13
1002
{
1000
HIER
1070
     1
1002
}
1002
{
1000
MANEDIT
1070
     0
1002
}
1002
{
1000
NOSEL
1070
     1
1002
}
1002
{
1000
BEHIND
1070
     0
1002
}
1002
{
1000
REACTOR
1002
}
1001
GENIUS_GENBH_13
1002
{
1000
OIUMAP
1000
OIU
1002
}
1002
{
1000
FLAGS
1070
    32
1002
}
1002
{
1000
BGO
1005
EF9
1002
}
  0
POINT
  5
EF9
100
AcDbEntity
  8
0
 60
     1
100
AcDbPoint
 10
109.547973
 20
187.383907
 30
0.0
 50
90.0
1001
GENIUS_GENOBJ-NBEHI-BHB_13
1002
{
1000
OWNER
1000
GENBEHI
1002
}
1001
GENIUS_GENOENT_13
1002
{
1000
MYREF
1005
EF9
1002
}
1002
{
1000
GRP
1005
0
1002
}
1001
GENIUS_GENOLIS_13
1002
{
1000
ENT
1002
}
1001
GENIUS_GENODEF_13
1002
{
1000
HIER
1070
     1
1002
}
1002
{
1000
MANEDIT
1070
     0
1002
}
1002
{
1000
NOSEL
1070
     1
1002
}
1002
{
1000
BEHIND
1070
     0
1002
}
1002
{
1000
REACTOR
1002
}
1002
{
1000
OTHER
1070
     1
1002
}
1001
GENIUS_GENBH_13
1002
{
1000
FGO
1005
EF8
1002
}
  0
POINT
  5
EFA
100
AcDbEntity
  8
0
 60
     1
100
AcDbPoint
 10
109.547973
 20
187.383907
 30
0.0
 50
90.0
1001
GENIUS_GENOBJ-NBEHI-BHF_13
1002
{
1000
OWNER
1000
GENBEHI
1002
}
1001
GENIUS_GENOENT_13
1002
{
1000
MYREF
1005
EFA
1002
}
1002
{
1000
GRP
1005
0
1002
}
1001
GENIUS_GENOLIS_13
1002
{
1000
ENT
1005
0
1002
}
1001
GENIUS_GENBH_13
1002
{
1000
OIUMAP
1000
OIU
1002
}
1002
{
1000
FLAGS
1070
    32
1002
}
1002
{
1000
BGO
1005
EFB
1002
}
1001
GENIUS_GENODEF_13
1002
{
1000
HIER
1070
     1
1002
}
1002
{
1000
MANEDIT
1070
     1
1002
}
1002
{
1000
NOSEL
1070
     1
1002
}
1002
{
1000
BEHIND
1070
     0
1002
}
1002
{
1000
REACTOR
1002
}
  0
POINT
  5
EFB
100
AcDbEntity
  8
0
 60
     1
100
AcDbPoint
 10
109.547973
 20
187.383907
 30
0.0
 50
90.0
1001
GENIUS_GENOBJ-NBEHI-BHB_13
1002
{
1000
OWNER
1000
GENBEHI
1002
}
1001
GENIUS_GENOENT_13
1002
{
1000
MYREF
1005
EFB
1002
}
1002
{
1000
GRP
1005
0
1002
}
1001
GENIUS_GENOLIS_13
1002
{
1000
ENT
1005
0
1002
}
1001
GENIUS_GENODEF_13
1002
{
1000
HIER
1070
     1
1002
}
1002
{
1000
MANEDIT
1070
     0
1002
}
1002
{
1000
NOSEL
1070
     1
1002
}
1002
{
1000
BEHIND
1070
     0
1002
}
1002
{
1000
REACTOR
1002
}
1002
{
1000
OTHER
1070
     1
1002
}
1001
GENIUS_GENBH_13
1002
{
1000
FGO
1005
EFA
1002
}
  0
POINT
  5
EFC
100
AcDbEntity
  8
0
 60
     1
100
AcDbPoint
 10
109.547973
 20
187.383907
 30
0.0
 50
90.0
1001
GENIUS_GENOBJ-F-SCPASSM_13
1002
{
1000
OWNER
1000
GEF
1002
}
1001
GENIUS_GENOENT_13
1002
{
1000
MYREF
1005
EFC
1002
}
1002
{
1000
GRP
1005
0
1002
}
1001
GENIUS_GENOLIS_13
1002
{
1000
ENT
1005
0
1005
0
1002
}
1001
GENIUS_GENODEF_13
1002
{
1000
HIER
1070
   200
1002
}
1002
{
1000
MANEDIT
1070
     1
1002
}
1002
{
1000
NOSEL
1070
     0
1002
}
1002
{
1000
BEHIND
1070
     0
1002
}
1002
{
1000
REACTOR
1002
}
  0
POINT
  5
EFD
100
AcDbEntity
  8
0
 60
     1
100
AcDbPoint
 10
109.547973
 20
187.383907
 30
0.0
 50
90.0
1001
GENIUS_GENOBJ-NBEHI-BHB_13
1002
{
1000
OWNER
1000
GENBEHI
1002
}
1001
GENIUS_GENOENT_13
1002
{
1000
MYREF
1005
EFD
1002
}
1002
{
1000
GRP
1005
0
1002
}
1001
GENIUS_GENOLIS_13
1002
{
1000
ENT
1002
}
1001
GENIUS_GENODEF_13
1002
{
1000
HIER
1070
     1
1002
}
1002
{
1000
MANEDIT
1070
     0
1002
}
1002
{
1000
NOSEL
1070
     1
1002
}
1002
{
1000
BEHIND
1070
     0
1002
}
1002
{
1000
REACTOR
1002
}
1002
{
1000
OTHER
1070
     1
1002
}
1001
GENIUS_GENBH_13
1002
{
1000
FGO
1005
0
1002
}
  0
POINT
  5
EFE
100
AcDbEntity
  8
0
 60
     1
100
AcDbPoint
 10
109.547973
 20
187.383907
 30
0.0
 50
90.0
1001
GENIUS_GENOBJ-NBEHI-BHF_13
1002
{
1000
OWNER
1000
GENBEHI
1002
}
1001
GENIUS_GENOENT_13
1002
{
1000
MYREF
1005
EFE
1002
}
1002
{
1000
GRP
1005
0
1002
}
1001
GENIUS_GENOLIS_13
1002
{
1000
ENT
1005
0
1002
}
1001
GENIUS_GENBH_13
1002
{
1000
OIUMAP
1000
OIU
1002
}
1002
{
1000
FLAGS
1070
    32
1002
}
1002
{
1000
BGO
1005
0
1002
}
1001
GENIUS_GENODEF_13
1002
{
1000
HIER
1070
     1
1002
}
1002
{
1000
MANEDIT
1070
     1
1002
}
1002
{
1000
NOSEL
1070
     1
1002
}
1002
{
1000
BEHIND
1070
     0
1002
}
1002
{
1000
REACTOR
1002
}
  0
POINT
  5
EFF
100
AcDbEntity
  8
0
 60
     1
100
AcDbPoint
 10
109.547973
 20
187.383907
 30
0.0
 50
90.0
1001
GENIUS_GENOBJ-NBEHI-BHF_13
1002
{
1000
OWNER
1000
GENBEHI
1002
}
1001
GENIUS_GENOENT_13
1002
{
1000
MYREF
1005
EFF
1002
}
1002
{
1000
GRP
1005
0
1002
}
1001
GENIUS_GENOLIS_13
1002
{
1000
ENT
1005
0
1002
}
1001
GENIUS_GENODEF_13
1002
{
1000
HIER
1070
     1
1002
}
1002
{
1000
MANEDIT
1070
     0
1002
}
1002
{
1000
NOSEL
1070
     1
1002
}
1002
{
1000
BEHIND
1070
     0
1002
}
1002
{
1000
REACTOR
1002
}
1001
GENIUS_GENBH_13
1002
{
1000
OIUMAP
1000
OIU
1002
}
1002
{
1000
FLAGS
1070
    32
1002
}
1002
{
1000
BGO
1005
F00
1002
}
  0
POINT
  5
F00
100
AcDbEntity
  8
0
 60
     1
100
AcDbPoint
 10
109.547973
 20
187.383907
 30
0.0
 50
90.0
1001
GENIUS_GENOBJ-NBEHI-BHB_13
1002
{
1000
OWNER
1000
GENBEHI
1002
}
1001
GENIUS_GENOENT_13
1002
{
1000
MYREF
1005
F00
1002
}
1002
{
1000
GRP
1005
0
1002
}
1001
GENIUS_GENOLIS_13
1002
{
1000
ENT
1002
}
1001
GENIUS_GENODEF_13
1002
{
1000
HIER
1070
     1
1002
}
1002
{
1000
MANEDIT
1070
     0
1002
}
1002
{
1000
NOSEL
1070
     1
1002
}
1002
{
1000
BEHIND
1070
     0
1002
}
1002
{
1000
REACTOR
1002
}
1002
{
1000
OTHER
1070
     1
1002
}
1001
GENIUS_GENBH_13
1002
{
1000
FGO
1005
EFF
1002
}
  0
POINT
  5
F01
100
AcDbEntity
  8
0
 60
     1
100
AcDbPoint
 10
109.547973
 20
187.383907
 30
0.0
 50
90.0
1001
GENIUS_GENOBJ-NBEHI-BHF_13
1002
{
1000
OWNER
1000
GENBEHI
1002
}
1001
GENIUS_GENOENT_13
1002
{
1000
MYREF
1005
F01
1002
}
1002
{
1000
GRP
1005
0
1002
}
1001
GENIUS_GENOLIS_13
1002
{
1000
ENT
1005
0
1002
}
1001
GENIUS_GENBH_13
1002
{
1000
OIUMAP
1000
OIU
1002
}
1002
{
1000
FLAGS
1070
    32
1002
}
1002
{
1000
BGO
1005
F02
1002
}
1001
GENIUS_GENODEF_13
1002
{
1000
HIER
1070
     1
1002
}
1002
{
1000
MANEDIT
1070
     1
1002
}
1002
{
1000
NOSEL
1070
     1
1002
}
1002
{
1000
BEHIND
1070
     0
1002
}
1002
{
1000
REACTOR
1002
}
  0
POINT
  5
F02
100
AcDbEntity
  8
0
 60
     1
100
AcDbPoint
 10
109.547973
 20
187.383907
 30
0.0
 50
90.0
1001
GENIUS_GENOBJ-NBEHI-BHB_13
1002
{
1000
OWNER
1000
GENBEHI
1002
}
1001
GENIUS_GENOENT_13
1002
{
1000
MYREF
1005
F02
1002
}
1002
{
1000
GRP
1005
0
1002
}
1001
GENIUS_GENOLIS_13
1002
{
1000
ENT
1005
0
1002
}
1001
GENIUS_GENODEF_13
1002
{
1000
HIER
1070
     1
1002
}
1002
{
1000
MANEDIT
1070
     0
1002
}
1002
{
1000
NOSEL
1070
     1
1002
}
1002
{
1000
BEHIND
1070
     0
1002
}
1002
{
1000
REACTOR
1002
}
1002
{
1000
OTHER
1070
     1
1002
}
1001
GENIUS_GENBH_13
1002
{
1000
FGO
1005
F01
1002
}
  0
POINT
  5
F03
100
AcDbEntity
  8
0
 60
     1
100
AcDbPoint
 10
109.547973
 20
187.383907
 30
0.0
 50
90.0
1001
GENIUS_GENOBJ-F-SCPASSM_13
1002
{
1000
OWNER
1000
GEF
1002
}
1001
GENIUS_GENOENT_13
1002
{
1000
MYREF
1005
F03
1002
}
1002
{
1000
GRP
1005
0
1002
}
1001
GENIUS_GENOLIS_13
1002
{
1000
ENT
1005
0
1005
0
1002
}
1001
GENIUS_GENODEF_13
1002
{
1000
HIER
1070
   200
1002
}
1002
{
1000
MANEDIT
1070
     1
1002
}
1002
{
1000
NOSEL
1070
     0
1002
}
1002
{
1000
BEHIND
1070
     0
1002
}
1002
{
1000
REACTOR
1002
}
  0
LINE
  5
F04
100
AcDbEntity
  8
0
  6
HIDDEN
100
AcDbLine
 10
125.485911
 20
143.588517
 30
0.0
 11
130.885911
 21
143.588517
 31
0.0
1001
GENIUS_GENOREF_13
1005
F01
1005
F03
  0
LINE
  5
F05
100
AcDbEntity
  8
0
  6
HIDDEN
100
AcDbLine
 10
130.168113
 20
133.588517
 30
0.0
 11
130.885911
 21
133.588517
 31
0.0
1001
GENIUS_GENOREF_13
1005
F01
1005
F03
  0
LINE
  5
F06
100
AcDbEntity
  8
0
  6
HIDDEN
100
AcDbLine
 10
124.885911
 20
137.305661
 30
0.0
 11
124.885911
 21
142.988517
 31
0.0
1001
GENIUS_GENOREF_13
1005
F01
1005
F03
  0
ARC
  5
F07
100
AcDbEntity
  8
0
100
AcDbCircle
 10
125.485911
 20
134.188517
 30
0.0
 40
0.6
100
AcDbArc
 50
180.0
 51
270.0
1001
GENIUS_GENOREF_13
1005
F01
1005
F03
  0
ARC
  5
F08
100
AcDbEntity
  8
0
100
AcDbCircle
 10
125.485911
 20
142.988517
 30
0.0
 40
0.6
100
AcDbArc
 50
90.0
 51
180.0
1001
GENIUS_GENOREF_13
1005
F01
1005
F03
  0
LINE
  5
F09
100
AcDbEntity
  8
0
  6
HIDDEN
100
AcDbLine
 10
150.885911
 20
136.201967
 30
0.0
 11
139.635911
 21
136.201967
 31
0.0
1001
GENIUS_GENOREF_13
1005
F01
1005
F03
  0
LINE
  5
F0A
100
AcDbEntity
  8
0
  6
HIDDEN
100
AcDbLine
 10
155.83745
 20
140.975067
 30
0.0
 11
139.635911
 21
140.975067
 31
0.0
1001
GENIUS_GENOREF_13
1005
F01
1005
F03
  0
LINE
  5
F0B
100
AcDbEntity
  8
0
100
AcDbLine
 10
150.272461
 20
135.588517
 30
0.0
 11
150.885911
 21
136.201967
 31
0.0
1001
GENIUS_GENOREF_13
1005
F01
1005
F03
  0
LINE
  5
F0C
100
AcDbEntity
  8
0
100
AcDbLine
 10
150.272461
 20
141.588517
 30
0.0
 11
150.885911
 21
140.975067
 31
0.0
1001
GENIUS_GENOREF_13
1005
F01
1005
F03
  0
LINE
  5
F0D
100
AcDbEntity
  8
0
  6
HIDDEN
100
AcDbLine
 10
130.885911
 20
135.588517
 30
0.0
 11
138.135911
 21
135.588517
 31
0.0
1001
GENIUS_GENOREF_13
1005
F01
1005
F03
  0
LINE
  5
F0E
100
AcDbEntity
  8
0
  6
HIDDEN
100
AcDbLine
 10
130.885911
 20
141.588517
 30
0.0
 11
138.135911
 21
141.588517
 31
0.0
1001
GENIUS_GENOREF_13
1005
F01
1005
F03
  0
LINE
  5
F10
100
AcDbEntity
  8
0
  6
HIDDEN
100
AcDbLine
 10
133.385911
 20
141.588517
 30
0.0
 11
133.385911
 21
135.588517
 31
0.0
1001
GENIUS_GENOREF_13
1005
F01
1005
F03
  0
LINE
  5
F11
100
AcDbEntity
  8
0
100
AcDbLine
 10
133.385911
 20
136.201967
 30
0.0
 11
132.772461
 21
135.588517
 31
0.0
1001
GENIUS_GENOREF_13
1005
F01
1005
F03
  0
LINE
  5
F12
100
AcDbEntity
  8
0
100
AcDbLine
 10
133.385911
 20
140.975067
 30
0.0
 11
132.772461
 21
141.588517
 31
0.0
1001
GENIUS_GENOREF_13
1005
F01
1005
F03
  0
LINE
  5
F13
100
AcDbEntity
  8
0
  6
HIDDEN
100
AcDbLine
 10
150.272461
 20
141.588517
 30
0.0
 11
150.272461
 21
135.588517
 31
0.0
1001
GENIUS_GENOREF_13
1005
F01
1005
F03
  0
LINE
  5
F14
100
AcDbEntity
  8
0
  6
HIDDEN
100
AcDbLine
 10
150.885911
 20
140.975067
 30
0.0
 11
150.885911
 21
136.201967
 31
0.0
1001
GENIUS_GENOREF_13
1005
F01
1005
F03
  0
POINT
  5
F15
100
AcDbEntity
  8
0
 60
     1
100
AcDbPoint
 10
109.547973
 20
187.383907
 30
0.0
 50
90.0
1001
GENIUS_GENOBJ-NBEHI-BHF_13
1002
{
1000
OWNER
1000
GENBEHI
1002
}
1001
GENIUS_GENOENT_13
1002
{
1000
MYREF
1005
F15
1002
}
1002
{
1000
GRP
1005
0
1002
}
1001
GENIUS_GENOLIS_13
1002
{
1000
ENT
1005
0
1002
}
1001
GENIUS_GENODEF_13
1002
{
1000
HIER
1070
     1
1002
}
1002
{
1000
MANEDIT
1070
     0
1002
}
1002
{
1000
NOSEL
1070
     1
1002
}
1002
{
1000
BEHIND
1070
     0
1002
}
1002
{
1000
REACTOR
1002
}
1001
GENIUS_GENBH_13
1002
{
1000
OIUMAP
1000
OIU
1002
}
1002
{
1000
FLAGS
1070
    32
1002
}
1002
{
1000
BGO
1005
F16
1002
}
  0
POINT
  5
F16
100
AcDbEntity
  8
0
 60
     1
100
AcDbPoint
 10
109.547973
 20
187.383907
 30
0.0
 50
90.0
1001
GENIUS_GENOBJ-NBEHI-BHB_13
1002
{
1000
OWNER
1000
GENBEHI
1002
}
1001
GENIUS_GENOENT_13
1002
{
1000
MYREF
1005
F16
1002
}
1002
{
1000
GRP
1005
0
1002
}
1001
GENIUS_GENOLIS_13
1002
{
1000
ENT
1002
}
1001
GENIUS_GENODEF_13
1002
{
1000
HIER
1070
     1
1002
}
1002
{
1000
MANEDIT
1070
     0
1002
}
1002
{
1000
NOSEL
1070
     1
1002
}
1002
{
1000
BEHIND
1070
     0
1002
}
1002
{
1000
REACTOR
1002
}
1002
{
1000
OTHER
1070
     1
1002
}
1001
GENIUS_GENBH_13
1002
{
1000
FGO
1005
F15
1002
}
  0
POINT
  5
F17
100
AcDbEntity
  8
0
 60
     1
100
AcDbPoint
 10
109.547973
 20
187.383907
 30
0.0
 50
90.0
1001
GENIUS_GENOBJ-NBEHI-BHF_13
1002
{
1000
OWNER
1000
GENBEHI
1002
}
1001
GENIUS_GENOENT_13
1002
{
1000
MYREF
1005
F17
1002
}
1002
{
1000
GRP
1005
0
1002
}
1001
GENIUS_GENOLIS_13
1002
{
1000
ENT
1005
0
1002
}
1001
GENIUS_GENBH_13
1002
{
1000
OIUMAP
1000
OIU
1002
}
1002
{
1000
FLAGS
1070
    32
1002
}
1002
{
1000
BGO
1005
F18
1002
}
1001
GENIUS_GENODEF_13
1002
{
1000
HIER
1070
     1
1002
}
1002
{
1000
MANEDIT
1070
     1
1002
}
1002
{
1000
NOSEL
1070
     1
1002
}
1002
{
1000
BEHIND
1070
     0
1002
}
1002
{
1000
REACTOR
1002
}
  0
POINT
  5
F18
100
AcDbEntity
  8
0
 60
     1
100
AcDbPoint
 10
109.547973
 20
187.383907
 30
0.0
 50
90.0
1001
GENIUS_GENOBJ-NBEHI-BHB_13
1002
{
1000
OWNER
1000
GENBEHI
1002
}
1001
GENIUS_GENOENT_13
1002
{
1000
MYREF
1005
F18
1002
}
1002
{
1000
GRP
1005
0
1002
}
1001
GENIUS_GENOLIS_13
1002
{
1000
ENT
1005
0
1002
}
1001
GENIUS_GENODEF_13
1002
{
1000
HIER
1070
     1
1002
}
1002
{
1000
MANEDIT
1070
     0
1002
}
1002
{
1000
NOSEL
1070
     1
1002
}
1002
{
1000
BEHIND
1070
     0
1002
}
1002
{
1000
REACTOR
1002
}
1002
{
1000
OTHER
1070
     1
1002
}
1001
GENIUS_GENBH_13
1002
{
1000
FGO
1005
F17
1002
}
  0
POINT
  5
F19
100
AcDbEntity
  8
0
 60
     1
100
AcDbPoint
 10
109.547973
 20
187.383907
 30
0.0
 50
90.0
1001
GENIUS_GENOBJ-F-SCPASSM_13
1002
{
1000
OWNER
1000
GEF
1002
}
1001
GENIUS_GENOENT_13
1002
{
1000
MYREF
1005
F19
1002
}
1002
{
1000
GRP
1005
0
1002
}
1001
GENIUS_GENOLIS_13
1002
{
1000
ENT
1005
0
1005
0
1002
}
1001
GENIUS_GENODEF_13
1002
{
1000
HIER
1070
   200
1002
}
1002
{
1000
MANEDIT
1070
     1
1002
}
1002
{
1000
NOSEL
1070
     0
1002
}
1002
{
1000
BEHIND
1070
     0
1002
}
1002
{
1000
REACTOR
1002
}
  0
CIRCLE
  5
F1A
100
AcDbEntity
  8
0
100
AcDbCircle
 10
65.481964
 20
138.588517
 30
0.0
 40
5.0
1001
GENIUS_GENOREF_13
1005
F17
1005
F19
  0
LINE
  5
F1B
100
AcDbEntity
  8
0
100
AcDbLine
 10
67.981964
 20
140.031893
 30
0.0
 11
65.481964
 21
141.475269
 31
0.0
1001
GENIUS_GENOREF_13
1005
F17
1005
F19
  0
LINE
  5
F1C
100
AcDbEntity
  8
0
100
AcDbLine
 10
65.481964
 20
135.701766
 30
0.0
 11
67.981964
 21
137.145142
 31
0.0
1001
GENIUS_GENOREF_13
1005
F17
1005
F19
  0
LINE
  5
F1D
100
AcDbEntity
  8
0
100
AcDbLine
 10
67.981964
 20
137.145142
 30
0.0
 11
67.981964
 21
140.031893
 31
0.0
1001
GENIUS_GENOREF_13
1005
F17
1005
F19
  0
LINE
  5
F1E
100
AcDbEntity
  8
0
100
AcDbLine
 10
62.981964
 20
140.031893
 30
0.0
 11
62.981964
 21
137.145142
 31
0.0
1001
GENIUS_GENOREF_13
1005
F17
1005
F19
  0
LINE
  5
F1F
100
AcDbEntity
  8
0
100
AcDbLine
 10
62.981964
 20
137.145142
 30
0.0
 11
65.481964
 21
135.701766
 31
0.0
1001
GENIUS_GENOREF_13
1005
F17
1005
F19
  0
LINE
  5
F20
100
AcDbEntity
  8
0
100
AcDbLine
 10
65.481964
 20
141.475269
 30
0.0
 11
62.981964
 21
140.031893
 31
0.0
1001
GENIUS_GENOREF_13
1005
F17
1005
F19
  0
LINE
  5
F24
100
AcDbEntity
  8
0
100
AcDbLine
 10
124.885911
 20
134.188517
 30
0.0
 11
124.885911
 21
137.305661
 31
0.0
  0
LINE
  5
F25
100
AcDbEntity
  8
0
100
AcDbLine
 10
125.485911
 20
133.588517
 30
0.0
 11
130.168113
 21
133.588517
 31
0.0
  0
LINE
  5
F26
100
AcDbEntity
  8
0
  6
HIDDEN
100
AcDbLine
 10
139.635911
 20
141.588517
 30
0.0
 11
150.272461
 21
141.588517
 31
0.0
1001
GENIUS_GENOREF_13
1005
F01
1005
F03
  0
LINE
  5
F27
100
AcDbEntity
  8
0
  6
HIDDEN
100
AcDbLine
 10
138.135911
 20
140.975067
 30
0.0
 11
133.385911
 21
140.975067
 31
0.0
1001
GENIUS_GENOREF_13
1005
F01
1005
F03
  0
LINE
  5
F28
100
AcDbEntity
  8
0
  6
HIDDEN
100
AcDbLine
 10
138.135911
 20
136.201967
 30
0.0
 11
133.385911
 21
136.201967
 31
0.0
1001
GENIUS_GENOREF_13
1005
F01
1005
F03
  0
LINE
  5
F29
100
AcDbEntity
  8
0
  6
HIDDEN
100
AcDbLine
 10
139.635911
 20
135.588517
 30
0.0
 11
150.272461
 21
135.588517
 31
0.0
1001
GENIUS_GENOREF_13
1005
F01
1005
F03
  0
LINE
  5
F2A
100
AcDbEntity
  8
0
100
AcDbLine
 10
138.135911
 20
141.588517
 30
0.0
 11
139.635911
 21
141.588517
 31
0.0
  0
LINE
  5
F2B
100
AcDbEntity
  8
0
100
AcDbLine
 10
137.991679
 20
140.975067
 30
0.0
 11
139.635911
 21
140.975067
 31
0.0
  0
LINE
  5
F2C
100
AcDbEntity
  8
0
100
AcDbLine
 10
138.135911
 20
136.201967
 30
0.0
 11
139.635911
 21
136.201967
 31
0.0
  0
LINE
  5
F2D
100
AcDbEntity
  8
0
100
AcDbLine
 10
138.135911
 20
135.588517
 30
0.0
 11
139.635911
 21
135.588517
 31
0.0
  0
LINE
  5
F2E
100
AcDbEntity
  8
0
100
AcDbLine
 10
-4.189158
 20
160.088517
 30
0.0
 11
-4.189158
 21
171.088517
 31
0.0
  0
LINE
  5
F33
100
AcDbEntity
  8
0
100
AcDbLine
 10
10.810842
 20
143.088517
 30
0.0
 11
10.810842
 21
132.088517
 31
0.0
  0
CIRCLE
  5
F35
100
AcDbEntity
  8
0
  6
HIDDEN
100
AcDbCircle
 10
3.310842
 20
138.588517
 30
0.0
 40
5.0
1001
GENIUS_GENOREF_13
1005
F17
1005
F19
  0
ENDSEC
  0
SECTION
  2
OBJECTS
  0
DICTIONARY
  5
C
100
AcDbDictionary
  3
ACAD_GROUP
350
D
  3
ACAD_LAYOUT
350
CD0
  3
ACAD_MLINESTYLE
350
1B
  3
ACAD_PLOTSETTINGS
350
CD1
  3
ADE_QUERY_LIBRARY
350
FA9
  3
CONTENTDICTIONARY
350
23
1001
ADE
1000
ADE02C004
1000
[Query]
1000
CaseSensitiveMatch=0
1000
SaveCurrQueryInSession=1
1000
MkSelSetWithQryObj=0
1000
ShowBlockAsInsPt=0
1000
CreateAssociativeHatchObjects=0
1000
ReferenceBoundaryForAreaLocation=1
1000
ShowImageAsBoundary=1
1000
DefaultJoinOperator=2
1000
ColorForAdd=red
1000
ColorForRemove=red
1000
BlockLocnForQuery=1
1000
TextLocnForQuery=1
1000
[Save Back]
1000
RedefineBlockDefinitions=1
1000
RedefineLayerDefinitions=1
1000
RedefineTextStyleDefinitions=1
1000
RemoveUnusedGroups=1
1000
EraseSavedBackObjects=1
1000
RemoveLockAfterSave=1
1000
CreateHistoryFileOfChanges=0
1000
CreateBackupFileOfSourceDwg=1
1000
DontAddObjectsToSaveSet=0
1000
MarkObjectsForEditingWithoutPrompting=0
1000
[Coordinate Transformation]
1000
RestoreLastActiveDwgsOnStartup=1
1000
ActivateDwgsOnAttach=1
1000
AdjustSizesAndScalesForChangesInUnits=1
1000
AdjustRotationsForMapDistortions=1
1000
AdjustSizesAndScalesForMapDistortions=1
1000
AdjustElevations=1
1000
AdjustZeroRotationObjects=1
1000
ReconnectDbOnWSOpen=1
1000
NoOfSQLConditionsInHistory=10
1001
ACAD
1000
TREAT_AS_HARD
1070
     0
  0
DICTIONARY
  5
FAD
100
AcDbDictionary
  3
ACAD_LAYOUTSELFREF
350
FAE
  0
DICTIONARY
  5
FAB
100
AcDbDictionary
  3
ACAD_LAYOUTSELFREF
350
FAC
  0
DICTIONARY
  5
D
102
{ACAD_REACTORS
330
C
102
}
100
AcDbDictionary
1001
ACAD
1000
TREAT_AS_HARD
1070
     0
  0
DICTIONARY
  5
CD0
102
{ACAD_REACTORS
330
C
102
}
100
AcDbDictionary
1001
ACAD
1000
TREAT_AS_HARD
1070
     0
  0
DICTIONARY
  5
1B
102
{ACAD_REACTORS
330
C
102
}
100
AcDbDictionary
  3
STANDARD
350
1C
1001
ACAD
1000
TREAT_AS_HARD
1070
     0
  0
DICTIONARY
  5
CD1
102
{ACAD_REACTORS
330
C
102
}
100
AcDbDictionary
1001
ACAD
1000
TREAT_AS_HARD
1070
     0
  0
DICTIONARY
  5
FA9
102
{ACAD_REACTORS
330
C
102
}
100
AcDbDictionary
  3
_CURRQRY
350
FAA
1001
ACAD
1000
TREAT_AS_HARD
1070
     0
  0
DICTIONARY
  5
23
102
{ACAD_REACTORS
330
C
102
}
100
AcDbDictionary
1001
ACAD
1000
TREAT_AS_HARD
1070
     0
  0
XRECORD
  5
FAE
102
{ACAD_REACTORS
330
FAD
102
}
100
AcDbXrecord
340
18
  0
XRECORD
  5
FAC
102
{ACAD_REACTORS
330
FAB
102
}
100
AcDbXrecord
340
15
  0
MLINESTYLE
  5
1C
102
{ACAD_REACTORS
330
1B
102
}
100
AcDbMlineStyle
  2
STANDARD
 70
     0
  3

 62
   256
 51
90.0
 52
90.0
 71
     2
 49
0.5
 62
   256
  6
BYLAYER
 49
-0.5
 62
   256
  6
BYLAYER
  0
XRECORD
  5
FAA
102
{ACAD_REACTORS
330
FA9
102
}
100
AcDbXrecord
1000
ADE02C001
1070
     1
1070
     0
1002
{
1002
}
1002
{
1002
}
1002
{
1002
}
1000

  0
ENDSEC
  0
EOF
