  0
SECTION
  2
HEADER
  9
$ACADVER
  1
AC1014
  9
$ACADMAINTVER
 70
     0
  9
$DWGCODEPAGE
  3
ANSI_932
  9
$INSBASE
 10
0.0
 20
0.0
 30
0.0
  9
$EXTMIN
 10
-2.820576
 20
123.874799
 30
0.0
  9
$EXTMAX
 10
155.573656
 20
170.781154
 30
0.0
  9
$LIMMIN
 10
0.0
 20
0.0
  9
$LIMMAX
 10
420.0
 20
297.0
  9
$ORTHOMODE
 70
     0
  9
$REGENMODE
 70
     1
  9
$FILLMODE
 70
     1
  9
$QTEXTMODE
 70
     0
  9
$MIRRTEXT
 70
     1
  9
$DRAGMODE
 70
     2
  9
$LTSCALE
 40
0.2
  9
$OSMODE
 70
    37
  9
$ATTMODE
 70
     1
  9
$TEXTSIZE
 40
10.0
  9
$TRACEWID
 40
1.0
  9
$TEXTSTYLE
  7
BIGFONT
  9
$CLAYER
  8
0
  9
$CELTYPE
  6
BYLAYER
  9
$CECOLOR
 62
   256
  9
$CELTSCALE
 40
1.0
  9
$DELOBJ
 70
     1
  9
$DISPSILH
 70
     0
  9
$DIMSCALE
 40
1.0
  9
$DIMASZ
 40
2.5
  9
$DIMEXO
 40
0.625
  9
$DIMDLI
 40
3.75
  9
$DIMRND
 40
0.0
  9
$DIMDLE
 40
0.0
  9
$DIMEXE
 40
1.25
  9
$DIMTP
 40
0.0
  9
$DIMTM
 40
0.0
  9
$DIMTXT
 40
2.5
  9
$DIMCEN
 40
0.5
  9
$DIMTSZ
 40
0.0
  9
$DIMTOL
 70
     0
  9
$DIMLIM
 70
     0
  9
$DIMTIH
 70
     0
  9
$DIMTOH
 70
     0
  9
$DIMSE1
 70
     0
  9
$DIMSE2
 70
     0
  9
$DIMTAD
 70
     3
  9
$DIMZIN
 70
     8
  9
$DIMBLK
  1

  9
$DIMASO
 70
     1
  9
$DIMSHO
 70
     1
  9
$DIMPOST
  1

  9
$DIMAPOST
  1

  9
$DIMALT
 70
     0
  9
$DIMALTD
 70
     4
  9
$DIMALTF
 40
0.0394
  9
$DIMLFAC
 40
1.0
  9
$DIMTOFL
 70
     1
  9
$DIMTVP
 40
0.0
  9
$DIMTIX
 70
     0
  9
$DIMSOXD
 70
     0
  9
$DIMSAH
 70
     0
  9
$DIMBLK1
  1

  9
$DIMBLK2
  1

  9
$DIMSTYLE
  2
STANDARD_WS
  9
$DIMCLRD
 70
     0
  9
$DIMCLRE
 70
     0
  9
$DIMCLRT
 70
   256
  9
$DIMTFAC
 40
1.0
  9
$DIMGAP
 40
1.2
  9
$DIMJUST
 70
     0
  9
$DIMSD1
 70
     0
  9
$DIMSD2
 70
     0
  9
$DIMTOLJ
 70
     1
  9
$DIMTZIN
 70
     0
  9
$DIMALTZ
 70
     0
  9
$DIMALTTZ
 70
     0
  9
$DIMFIT
 70
     3
  9
$DIMUPT
 70
     0
  9
$DIMUNIT
 70
     2
  9
$DIMDEC
 70
     4
  9
$DIMTDEC
 70
     4
  9
$DIMALTU
 70
     8
  9
$DIMALTTD
 70
     4
  9
$DIMTXSTY
  7
BIGFONT
  9
$DIMAUNIT
 70
     0
  9
$LUNITS
 70
     2
  9
$LUPREC
 70
     4
  9
$SKETCHINC
 40
1.0
  9
$FILLETRAD
 40
0.0
  9
$AUNITS
 70
     0
  9
$AUPREC
 70
     0
  9
$MENU
  1
acad
  9
$ELEVATION
 40
0.0
  9
$PELEVATION
 40
0.0
  9
$THICKNESS
 40
0.0
  9
$LIMCHECK
 70
     0
  9
$BLIPMODE
 70
     0
  9
$CHAMFERA
 40
0.5
  9
$CHAMFERB
 40
0.5
  9
$CHAMFERC
 40
20.0
  9
$CHAMFERD
 40
0.0
  9
$SKPOLY
 70
     0
  9
$TDCREATE
 40
2451225.415346065
  9
$TDUPDATE
 40
2453594.450144490
  9
$TDINDWG
 40
0.2713100926
  9
$TDUSRTIMER
 40
0.2713100926
  9
$USRTIMER
 70
     1
  9
$ANGBASE
 50
0.0
  9
$ANGDIR
 70
     0
  9
$PDMODE
 70
     0
  9
$PDSIZE
 40
0.0
  9
$PLINEWID
 40
0.0
  9
$COORDS
 70
     1
  9
$SPLFRAME
 70
     0
  9
$SPLINETYPE
 70
     6
  9
$SPLINESEGS
 70
     8
  9
$ATTDIA
 70
     0
  9
$ATTREQ
 70
     1
  9
$HANDLING
 70
     1
  9
$HANDSEED
  5
1224
  9
$SURFTAB1
 70
     6
  9
$SURFTAB2
 70
     6
  9
$SURFTYPE
 70
     6
  9
$SURFU
 70
     6
  9
$SURFV
 70
     6
  9
$UCSNAME
  2

  9
$UCSORG
 10
0.0
 20
0.0
 30
0.0
  9
$UCSXDIR
 10
1.0
 20
0.0
 30
0.0
  9
$UCSYDIR
 10
0.0
 20
1.0
 30
0.0
  9
$PUCSNAME
  2

  9
$PUCSORG
 10
0.0
 20
0.0
 30
0.0
  9
$PUCSXDIR
 10
1.0
 20
0.0
 30
0.0
  9
$PUCSYDIR
 10
0.0
 20
1.0
 30
0.0
  9
$USERI1
 70
     0
  9
$USERI2
 70
     0
  9
$USERI3
 70
     0
  9
$USERI4
 70
     0
  9
$USERI5
 70
     0
  9
$USERR1
 40
0.0
  9
$USERR2
 40
0.0
  9
$USERR3
 40
0.0
  9
$USERR4
 40
0.0
  9
$USERR5
 40
0.0
  9
$WORLDVIEW
 70
     1
  9
$SHADEDGE
 70
     3
  9
$SHADEDIF
 70
    70
  9
$TILEMODE
 70
     1
  9
$MAXACTVP
 70
    48
  9
$PINSBASE
 10
0.0
 20
0.0
 30
0.0
  9
$PLIMCHECK
 70
     0
  9
$PEXTMIN
 10
1.000000E+20
 20
1.000000E+20
 30
1.000000E+20
  9
$PEXTMAX
 10
-1.000000E+20
 20
-1.000000E+20
 30
-1.000000E+20
  9
$PLIMMIN
 10
0.0
 20
0.0
  9
$PLIMMAX
 10
420.0
 20
297.0
  9
$UNITMODE
 70
     0
  9
$VISRETAIN
 70
     1
  9
$PLINEGEN
 70
     0
  9
$PSLTSCALE
 70
     0
  9
$TREEDEPTH
 70
  3020
  9
$PICKSTYLE
 70
     1
  9
$CMLSTYLE
  2
STANDARD
  9
$CMLJUST
 70
     0
  9
$CMLSCALE
 40
20.0
  9
$PROXYGRAPHICS
 70
     1
  9
$MEASUREMENT
 70
     0
  0
ENDSEC
  0
SECTION
  2
CLASSES
  0
CLASS
  1
DICTIONARYVAR
  2
AcDbDictionaryVar
  3
"AutoCAD"
 90
        0
280
     0
281
     0
  0
CLASS
  1
HATCH
  2
AcDbHatch
  3
"ACAD_SEDONA"
 90
        0
280
     0
281
     1
  0
CLASS
  1
LWPOLYLINE
  2
AcDbPolyline
  3
"AutoCAD"
 90
        0
280
     0
281
     1
  0
CLASS
  1
ACDBDICTIONARYWDFLT
  2
AcDbDictionaryWithDefault
  3
AutoCAD 2000
 90
        0
280
     0
281
     0
  0
CLASS
  1
ACDBPLACEHOLDER
  2
AcDbPlaceHolder
  3
AutoCAD 2000
 90
        0
280
     0
281
     0
  0
CLASS
  1
LAYOUT
  2
AcDbLayout
  3
AutoCAD 2000
 90
        0
280
     0
281
     0
  0
CLASS
  1
LONG_TRANSACTION
  2
AcDbLongTransaction
  3
AutoCAD 2000
 90
        0
280
     0
281
     0
  0
CLASS
  1
LWPOLYLINE
  2
AcDbPolyline
  3
"AutoCAD"
 90
        0
280
     0
281
     1
  0
CLASS
  1
HATCH
  2
AcDbHatch
  3
"ACAD_SEDONA"
 90
        0
280
     0
281
     1
  0
CLASS
  1
XRECORD
  2
AcDbXrecord
  3
"<Built In>"
 90
        0
280
     0
281
     0
  0
ENDSEC
  0
SECTION
  2
TABLES
  0
TABLE
  2
VPORT
  5
8
100
AcDbSymbolTable
 70
     2
  0
VPORT
  5
1223
100
AcDbSymbolTableRecord
100
AcDbViewportTableRecord
  2
*ACTIVE
 70
     0
 10
0.0
 20
0.0
 11
1.0
 21
1.0
 12
208.589712
 22
148.5
 13
0.0
 23
0.0
 14
10.0
 24
10.0
 15
10.0
 25
10.0
 16
0.0
 26
0.0
 36
1.0
 17
0.0
 27
0.0
 37
0.0
 40
299.205446
 41
1.434944
 42
50.0
 43
0.0
 44
0.0
 50
0.0
 51
0.0
 71
     0
 72
   100
 73
     1
 74
     0
 75
     0
 76
     0
 77
     0
 78
     0
  0
ENDTAB
  0
TABLE
  2
LTYPE
  5
5
100
AcDbSymbolTable
 70
     3
  0
LTYPE
  5
12
100
AcDbSymbolTableRecord
100
AcDbLinetypeTableRecord
  2
BYBLOCK
 70
     0
  3

 72
    65
 73
     0
 40
0.0
  0
LTYPE
  5
13
100
AcDbSymbolTableRecord
100
AcDbLinetypeTableRecord
  2
BYLAYER
 70
     0
  3

 72
    65
 73
     0
 40
0.0
  0
LTYPE
  5
14
100
AcDbSymbolTableRecord
100
AcDbLinetypeTableRecord
  2
CONTINUOUS
 70
     0
  3
Solid line
 72
    65
 73
     0
 40
0.0
  0
LTYPE
  5
11A
100
AcDbSymbolTableRecord
100
AcDbLinetypeTableRecord
  2
CENTER
 70
     0
  3
Center ____ _ ____ _ ____ _ ____ _ ____ _ ____
 72
    65
 73
     4
 40
50.8
 49
31.75
 74
     0
 49
-6.35
 74
     0
 49
6.35
 74
     0
 49
-6.35
 74
     0
  0
LTYPE
  5
11B
100
AcDbSymbolTableRecord
100
AcDbLinetypeTableRecord
  2
HIDDEN
 70
     0
  3
Hidden __ __ __ __ __ __ __ __ __ __ __ __ __ _
 72
    65
 73
     2
 40
9.525
 49
6.35
 74
     0
 49
-3.175
 74
     0
  0
ENDTAB
  0
TABLE
  2
LAYER
  5
2
100
AcDbSymbolTable
 70
     6
  0
LAYER
  5
E
100
AcDbSymbolTableRecord
100
AcDbLayerTableRecord
  2
0
 70
     0
 62
     7
  6
CONTINUOUS
  0
LAYER
  5
37
100
AcDbSymbolTableRecord
100
AcDbLayerTableRecord
  2
図枠
 70
     0
 62
     7
  6
CONTINUOUS
  0
LAYER
  5
38
100
AcDbSymbolTableRecord
100
AcDbLayerTableRecord
  2
図枠部品表
 70
     0
 62
     7
  6
CONTINUOUS
  0
LAYER
  5
215
100
AcDbSymbolTableRecord
100
AcDbLayerTableRecord
  2
CENTER
 70
     0
 62
     2
  6
CENTER
  0
LAYER
  5
216
100
AcDbSymbolTableRecord
100
AcDbLayerTableRecord
  2
DIM
 70
     0
 62
     4
  6
CONTINUOUS
  0
LAYER
  5
21F
100
AcDbSymbolTableRecord
100
AcDbLayerTableRecord
  2
DEFPOINTS
 70
     0
 62
     7
  6
CONTINUOUS
  0
ENDTAB
  0
TABLE
  2
STYLE
  5
3
100
AcDbSymbolTable
 70
     4
  0
STYLE
  5
F
100
AcDbSymbolTableRecord
100
AcDbTextStyleTableRecord
  2
STANDARD
 70
     0
 40
0.0
 41
1.0
 50
0.0
 71
     0
 42
2.5
  3
txt
  4

  0
STYLE
  5
39
100
AcDbSymbolTableRecord
100
AcDbTextStyleTableRecord
  2
BIGFONT
 70
     0
 40
0.0
 41
1.0
 50
0.0
 71
     0
 42
10.0
  3
txt.shx
  4
bigfont.shx
  0
STYLE
  5
3B
100
AcDbSymbolTableRecord
100
AcDbTextStyleTableRecord
  2
KANJI
 70
     0
 40
0.0
 41
1.0
 50
0.0
 71
     0
 42
3.0
  3
TXT
  4
BIGFONT
  0
STYLE
  5
1105
100
AcDbSymbolTableRecord
100
AcDbTextStyleTableRecord
  2

 70
     1
 40
0.0
 41
1.0
 50
0.0
 71
     0
 42
2.5
  3
ltypeshp.shx
  4

  0
ENDTAB
  0
TABLE
  2
VIEW
  5
6
100
AcDbSymbolTable
 70
     0
  0
ENDTAB
  0
TABLE
  2
UCS
  5
7
100
AcDbSymbolTable
 70
     0
  0
ENDTAB
  0
TABLE
  2
APPID
  5
9
100
AcDbSymbolTable
 70
    34
  0
APPID
  5
10
100
AcDbSymbolTableRecord
100
AcDbRegAppTableRecord
  2
ACAD
 70
     0
  0
APPID
  5
24
100
AcDbSymbolTableRecord
100
AcDbRegAppTableRecord
  2
CONTENTTABDATA
 70
     0
  0
APPID
  5
25
100
AcDbSymbolTableRecord
100
AcDbRegAppTableRecord
  2
CONTENTCURRENTTAB
 70
     0
  0
APPID
  5
422
100
AcDbSymbolTableRecord
100
AcDbRegAppTableRecord
  2
CONTENTBLOCKDESCRIPTION
 70
     0
  0
APPID
  5
110F
100
AcDbSymbolTableRecord
100
AcDbRegAppTableRecord
  2
MCAD_NO_VIS
 70
     0
  0
APPID
  5
1110
100
AcDbSymbolTableRecord
100
AcDbRegAppTableRecord
  2
ACAD_TEMP_GRAPHIC
 70
     0
  0
APPID
  5
1111
100
AcDbSymbolTableRecord
100
AcDbRegAppTableRecord
  2
GEVID966397200
 70
     0
  0
APPID
  5
1112
100
AcDbSymbolTableRecord
100
AcDbRegAppTableRecord
  2
GEVDC
 70
     0
  0
APPID
  5
1113
100
AcDbSymbolTableRecord
100
AcDbRegAppTableRecord
  2
GEVCON
 70
     0
  0
APPID
  5
1114
100
AcDbSymbolTableRecord
100
AcDbRegAppTableRecord
  2
GEVID966397201
 70
     0
  0
APPID
  5
1115
100
AcDbSymbolTableRecord
100
AcDbRegAppTableRecord
  2
GEVID966397202
 70
     0
  0
APPID
  5
1116
100
AcDbSymbolTableRecord
100
AcDbRegAppTableRecord
  2
GEVID966397203
 70
     0
  0
APPID
  5
1117
100
AcDbSymbolTableRecord
100
AcDbRegAppTableRecord
  2
GEVID966397204
 70
     0
  0
APPID
  5
1118
100
AcDbSymbolTableRecord
100
AcDbRegAppTableRecord
  2
GEVID966397205
 70
     0
  0
APPID
  5
1119
100
AcDbSymbolTableRecord
100
AcDbRegAppTableRecord
  2
GEVID966397206
 70
     0
  0
APPID
  5
111A
100
AcDbSymbolTableRecord
100
AcDbRegAppTableRecord
  2
GENIUS_GENBH_13
 70
     0
  0
APPID
  5
111B
100
AcDbSymbolTableRecord
100
AcDbRegAppTableRecord
  2
GENIUS_GENODEF_13
 70
     0
  0
APPID
  5
111C
100
AcDbSymbolTableRecord
100
AcDbRegAppTableRecord
  2
GENIUS_GENOBJ-NBEHI-BHF_13
 70
     0
  0
APPID
  5
111D
100
AcDbSymbolTableRecord
100
AcDbRegAppTableRecord
  2
GENIUS_GENOENT_13
 70
     0
  0
APPID
  5
111E
100
AcDbSymbolTableRecord
100
AcDbRegAppTableRecord
  2
GENIUS_GENOREF_13
 70
     0
  0
APPID
  5
111F
100
AcDbSymbolTableRecord
100
AcDbRegAppTableRecord
  2
GENIUS_GENOLIS_13
 70
     0
  0
APPID
  5
1120
100
AcDbSymbolTableRecord
100
AcDbRegAppTableRecord
  2
GENIUS_GENOBJ-NBEHI-BHB_13
 70
     0
  0
APPID
  5
1121
100
AcDbSymbolTableRecord
100
AcDbRegAppTableRecord
  2
GEVID966397207
 70
     0
  0
APPID
  5
1122
100
AcDbSymbolTableRecord
100
AcDbRegAppTableRecord
  2
GENIUS_GENOBJ-F-SCPASSM_13
 70
     0
  0
APPID
  5
1123
100
AcDbSymbolTableRecord
100
AcDbRegAppTableRecord
  2
GENIUS_GENDTOL_13
 70
     0
  0
APPID
  5
1124
100
AcDbSymbolTableRecord
100
AcDbRegAppTableRecord
  2
GEVID966521051
 70
     0
  0
APPID
  5
1125
100
AcDbSymbolTableRecord
100
AcDbRegAppTableRecord
  2
GEVID966521052
 70
     0
  0
APPID
  5
1126
100
AcDbSymbolTableRecord
100
AcDbRegAppTableRecord
  2
GEVID966521054
 70
     0
  0
APPID
  5
1127
100
AcDbSymbolTableRecord
100
AcDbRegAppTableRecord
  2
GEVID966521055
 70
     0
  0
APPID
  5
1128
100
AcDbSymbolTableRecord
100
AcDbRegAppTableRecord
  2
GEVID966521056
 70
     0
  0
APPID
  5
1129
100
AcDbSymbolTableRecord
100
AcDbRegAppTableRecord
  2
GEVID966521057
 70
     0
  0
APPID
  5
112A
100
AcDbSymbolTableRecord
100
AcDbRegAppTableRecord
  2
GEVID966521058
 70
     0
  0
APPID
  5
112B
100
AcDbSymbolTableRecord
100
AcDbRegAppTableRecord
  2
GEVID966521059
 70
     0
  0
APPID
  5
1201
100
AcDbSymbolTableRecord
100
AcDbRegAppTableRecord
  2
ADE
 70
     0
  0
ENDTAB
  0
TABLE
  2
DIMSTYLE
  5
A
100
AcDbSymbolTable
 70
     2
  0
DIMSTYLE
105
35
100
AcDbSymbolTableRecord
100
AcDbDimStyleTableRecord
  2
STANDARD_WS
 70
     0
  3

  4

  5

  6

  7

 40
1.0
 41
2.5
 42
0.625
 43
3.75
 44
1.25
 45
0.0
 46
0.0
 47
0.0
 48
0.0
140
2.5
141
2.5
142
0.0
143
0.0394
144
1.0
145
0.0
146
1.0
147
0.625
 71
     0
 72
     0
 73
     0
 74
     0
 75
     0
 76
     0
 77
     1
 78
     8
170
     0
171
     4
172
     1
173
     0
174
     0
175
     0
176
     0
177
     0
178
     0
270
     2
271
     4
272
     4
273
     8
274
     4
340
F
275
     0
280
     0
281
     0
282
     0
283
     1
284
     0
285
     0
286
     0
287
     3
288
     0
  0
DIMSTYLE
105
1108
100
AcDbSymbolTableRecord
100
AcDbDimStyleTableRecord
  2
AM_JIS
 70
     0
  3

  4
"
  5
OPEN30
  6
OPEN30
  7
OPEN30
 40
1.0
 41
2.5
 42
1.0
 43
10.0
 44
1.0
 45
0.0
 46
0.0
 47
0.1
 48
0.1
140
3.5
141
0.0
142
0.0
143
0.03937
144
1.0
145
0.0
146
0.71
147
1.5
 71
     0
 72
     0
 73
     0
 74
     0
 75
     0
 76
     0
 77
     3
 78
     8
170
     0
171
     2
172
     1
173
     0
174
     0
175
     0
176
   256
177
   256
178
     2
270
     2
271
     2
272
     3
273
     2
274
     4
340
F
275
     0
280
     0
281
     0
282
     0
283
     0
284
     0
285
     0
286
     0
287
     3
288
     0
  0
ENDTAB
  0
TABLE
  2
BLOCK_RECORD
  5
1
100
AcDbSymbolTable
 70
    13
  0
BLOCK_RECORD
  5
18
102
{ACAD_XDICTIONARY
360
1206
102
}
100
AcDbSymbolTableRecord
100
AcDbBlockTableRecord
  2
*MODEL_SPACE
  0
BLOCK_RECORD
  5
15
102
{ACAD_XDICTIONARY
360
1204
102
}
100
AcDbSymbolTableRecord
100
AcDbBlockTableRecord
  2
*PAPER_SPACE
  0
BLOCK_RECORD
  5
10F2
100
AcDbSymbolTableRecord
100
AcDbBlockTableRecord
  2
_OPEN30
  0
BLOCK_RECORD
  5
10F8
100
AcDbSymbolTableRecord
100
AcDbBlockTableRecord
  2
GENAXEH
  0
ENDTAB
  0
ENDSEC
  0
SECTION
  2
BLOCKS
  0
BLOCK
  5
19
100
AcDbEntity
  8
0
100
AcDbBlockBegin
  2
*MODEL_SPACE
 70
     2
 10
0.0
 20
0.0
 30
0.0
  3
*MODEL_SPACE
  1

  0
ENDBLK
  5
1A
100
AcDbEntity
  8
0
100
AcDbBlockEnd
  0
BLOCK
  5
16
100
AcDbEntity
 67
     1
  8
0
100
AcDbBlockBegin
  2
*PAPER_SPACE
 70
     0
 10
0.0
 20
0.0
 30
0.0
  3
*PAPER_SPACE
  1

  0
ENDBLK
  5
17
100
AcDbEntity
 67
     1
  8
0
100
AcDbBlockEnd
  0
BLOCK
  5
10F6
100
AcDbEntity
  8
0
100
AcDbBlockBegin
  2
_OPEN30
 70
     0
 10
0.0
 20
0.0
 30
0.0
  3
_OPEN30
  1

  0
LINE
  5
10F3
100
AcDbEntity
  8
0
 62
     0
100
AcDbLine
 10
-1.0
 20
0.267949
 30
0.0
 11
0.0
 21
0.0
 31
0.0
  0
LINE
  5
10F4
100
AcDbEntity
  8
0
 62
     0
100
AcDbLine
 10
0.0
 20
0.0
 30
0.0
 11
-1.0
 21
-0.267949
 31
0.0
  0
LINE
  5
10F5
100
AcDbEntity
  8
0
 62
     0
100
AcDbLine
 10
0.0
 20
0.0
 30
0.0
 11
-1.0
 21
0.0
 31
0.0
  0
ENDBLK
  5
10F7
100
AcDbEntity
  8
0
100
AcDbBlockEnd
  0
BLOCK
  5
10FA
100
AcDbEntity
  8
0
100
AcDbBlockBegin
  2
GENAXEH
 70
     0
 10
0.0
 20
0.0
 30
0.0
  3
GENAXEH
  1

  0
LINE
  5
10F9
100
AcDbEntity
  8
0
100
AcDbLine
 10
-1.0
 20
0.0
 30
0.0
 11
1.0
 21
0.0
 31
0.0
  0
ENDBLK
  5
10FB
100
AcDbEntity
  8
0
100
AcDbBlockEnd
  0
ENDSEC
  0
SECTION
  2
ENTITIES
  0
TEXT
  5
3E9
100
AcDbEntity
  8
図枠部品表
 62
     3
100
AcDbText
 10
403.65269
 20
422.521663
 30
0.0
 40
2.4325
  1

 41
0.8
  7
KANJI
 72
     1
 11
403.65269
 21
423.737913
 31
0.0
100
AcDbText
 73
     2
  0
TEXT
  5
A9F
100
AcDbEntity
  8
図枠
 62
     7
100
AcDbText
 10
162.933452
 20
10.11536
 30
0.0
 40
2.6
  1

  7
KANJI
 72
     1
 11
162.933452
 21
11.41536
 31
0.0
100
AcDbText
 73
     2
  0
LINE
  5
AF3
100
AcDbEntity
  8
CENTER
100
AcDbLine
 10
110.573656
 20
148.281154
 30
0.0
 11
155.573656
 21
148.281154
 31
0.0
  0
LINE
  5
AF5
100
AcDbEntity
  8
CENTER
100
AcDbLine
 10
74.436802
 20
148.281154
 30
0.0
 11
55.317108
 21
148.281154
 31
0.0
  0
LINE
  5
B07
100
AcDbEntity
  8
CENTER
100
AcDbLine
 10
112.918012
 20
137.281154
 30
0.0
 11
153.2293
 21
137.281154
 31
0.0
  0
LINE
  5
B1E
100
AcDbEntity
  8
CENTER
100
AcDbLine
 10
64.876955
 20
128.638281
 30
0.0
 11
64.876955
 21
145.924028
 31
0.0
  0
LINE
  5
B33
100
AcDbEntity
  8
CENTER
100
AcDbLine
 10
73.519828
 20
137.281154
 30
0.0
 11
56.234082
 21
137.281154
 31
0.0
  0
ARC
  5
C33
100
AcDbEntity
  8
0
100
AcDbCircle
 10
133.073656
 20
148.281154
 30
0.0
 40
17.0
100
AcDbArc
 50
272.528576
 51
267.471424
  0
LINE
  5
C39
100
AcDbEntity
  8
0
100
AcDbLine
 10
132.323656
 20
130.797233
 30
0.0
 11
132.323656
 21
141.824569
 31
0.0
  0
LINE
  5
C4B
100
AcDbEntity
  8
0
  6
HIDDEN
 62
     3
100
AcDbLine
 10
148.638038
 20
140.281154
 30
0.0
 11
144.460206
 21
140.281154
 31
0.0
  0
LINE
  5
C4D
100
AcDbEntity
  8
0
  6
HIDDEN
100
AcDbLine
 10
116.303146
 20
143.281154
 30
0.0
 11
127.073656
 21
143.281154
 31
0.0
  0
LINE
  5
C51
100
AcDbEntity
  8
0
  6
HIDDEN
100
AcDbLine
 10
127.073656
 20
131.841872
 30
0.0
 11
127.073656
 21
143.281154
 31
0.0
  0
LINE
  5
C5B
100
AcDbEntity
  8
0
  6
HIDDEN
100
AcDbLine
 10
132.323656
 20
140.781154
 30
0.0
 11
127.073656
 21
140.781154
 31
0.0
  0
LINE
  5
C5C
100
AcDbEntity
  8
0
  6
HIDDEN
100
AcDbLine
 10
132.323656
 20
133.781154
 30
0.0
 11
127.073656
 21
133.781154
 31
0.0
  0
LINE
  5
C5D
100
AcDbEntity
  8
0
100
AcDbLine
 10
133.823656
 20
160.781154
 30
0.0
 11
133.823656
 21
154.73774
 31
0.0
  0
LINE
  5
C5E
100
AcDbEntity
  8
0
100
AcDbLine
 10
133.823656
 20
160.781154
 30
0.0
 11
132.323656
 21
160.781154
 31
0.0
  0
LINE
  5
C61
100
AcDbEntity
  8
CENTER
100
AcDbLine
 10
133.073656
 20
123.874799
 30
0.0
 11
133.073656
 21
170.781154
 31
0.0
  0
ARC
  5
C63
100
AcDbEntity
  8
0
100
AcDbCircle
 10
133.073656
 20
148.281154
 30
0.0
 40
17.5
100
AcDbArc
 50
272.456286
 51
267.543714
  0
LINE
  5
C68
100
AcDbEntity
  8
0
100
AcDbLine
 10
71.876955
 20
165.781154
 30
0.0
 11
57.876955
 21
165.781154
 31
0.0
  0
LINE
  5
C69
100
AcDbEntity
  8
0
100
AcDbLine
 10
71.876955
 20
130.781154
 30
0.0
 11
57.876955
 21
130.781154
 31
0.0
  0
LINE
  5
C6B
100
AcDbEntity
  8
0
100
AcDbLine
 10
72.376955
 20
165.281154
 30
0.0
 11
72.376955
 21
131.281154
 31
0.0
  0
LINE
  5
C6D
100
AcDbEntity
  8
0
100
AcDbLine
 10
57.376955
 20
131.281154
 30
0.0
 11
57.376955
 21
165.281154
 31
0.0
  0
LINE
  5
C6E
100
AcDbEntity
  8
0
100
AcDbLine
 10
71.876955
 20
165.781154
 30
0.0
 11
72.376955
 21
165.281154
 31
0.0
  0
LINE
  5
C6F
100
AcDbEntity
  8
0
100
AcDbLine
 10
72.376955
 20
131.281154
 30
0.0
 11
71.876955
 21
130.781154
 31
0.0
  0
LINE
  5
C70
100
AcDbEntity
  8
0
100
AcDbLine
 10
57.876955
 20
130.781154
 30
0.0
 11
57.376955
 21
131.281154
 31
0.0
  0
LINE
  5
C71
100
AcDbEntity
  8
0
100
AcDbLine
 10
57.376955
 20
165.281154
 30
0.0
 11
57.876955
 21
165.781154
 31
0.0
  0
LINE
  5
C72
100
AcDbEntity
  8
0
100
AcDbLine
 10
71.876955
 20
165.781154
 30
0.0
 11
71.876955
 21
130.781154
 31
0.0
  0
LINE
  5
C73
100
AcDbEntity
  8
0
100
AcDbLine
 10
57.876955
 20
130.781154
 30
0.0
 11
57.876955
 21
165.781154
 31
0.0
  0
LINE
  5
C7D
100
AcDbEntity
  8
0
100
AcDbLine
 10
70.876955
 20
137.281154
 30
0.0
 11
70.876955
 21
131.841872
 31
0.0
  0
LINE
  5
C7E
100
AcDbEntity
  8
0
100
AcDbLine
 10
58.876955
 20
137.281154
 30
0.0
 11
58.876955
 21
131.841872
 31
0.0
  0
LINE
  5
C7F
100
AcDbEntity
  8
0
100
AcDbLine
 10
70.876955
 20
131.841872
 30
0.0
 11
58.876955
 21
131.841872
 31
0.0
  0
LINE
  5
C80
100
AcDbEntity
  8
0
  6
HIDDEN
100
AcDbLine
 10
72.376955
 20
160.781154
 30
0.0
 11
57.376955
 21
160.781154
 31
0.0
  0
ARC
  5
D8B
100
AcDbEntity
  8
0
100
AcDbCircle
 10
133.073656
 20
148.281154
 30
0.0
 40
6.5
100
AcDbArc
 50
96.62581
 51
263.37419
  0
ARC
  5
D8C
100
AcDbEntity
  8
0
100
AcDbCircle
 10
133.073656
 20
148.281154
 30
0.0
 40
7.0
100
AcDbArc
 50
96.15064
 51
263.84936
  0
LINE
  5
D8D
100
AcDbEntity
  8
0
  6
HIDDEN
100
AcDbLine
 10
71.876955
 20
154.781154
 30
0.0
 11
57.876955
 21
154.781154
 31
0.0
  0
LINE
  5
D8E
100
AcDbEntity
  8
0
  6
HIDDEN
100
AcDbLine
 10
71.876955
 20
141.781154
 30
0.0
 11
57.876955
 21
141.781154
 31
0.0
  0
ARC
  5
D8F
100
AcDbEntity
  8
0
100
AcDbCircle
 10
133.073656
 20
148.281154
 30
0.0
 40
6.5
100
AcDbArc
 50
276.62581
 51
83.37419
  0
ARC
  5
D90
100
AcDbEntity
  8
0
100
AcDbCircle
 10
133.073656
 20
148.281154
 30
0.0
 40
7.0
100
AcDbArc
 50
276.15064
 51
83.84936
  0
LINE
  5
D91
100
AcDbEntity
  8
0
100
AcDbLine
 10
71.876955
 20
154.781154
 30
0.0
 11
72.376955
 21
155.281154
 31
0.0
  0
LINE
  5
D92
100
AcDbEntity
  8
0
100
AcDbLine
 10
57.876955
 20
154.781154
 30
0.0
 11
57.376955
 21
155.281154
 31
0.0
  0
LINE
  5
D93
100
AcDbEntity
  8
0
100
AcDbLine
 10
71.876955
 20
141.781154
 30
0.0
 11
72.376955
 21
141.281154
 31
0.0
  0
LINE
  5
D94
100
AcDbEntity
  8
0
100
AcDbLine
 10
57.876955
 20
141.781154
 30
0.0
 11
57.376955
 21
141.281154
 31
0.0
  0
LINE
  5
DD9
100
AcDbEntity
  8
0
100
AcDbLine
 10
133.823656
 20
141.824569
 30
0.0
 11
133.823656
 21
130.797233
 31
0.0
  0
LINE
  5
DDA
100
AcDbEntity
  8
0
100
AcDbLine
 10
132.323656
 20
154.73774
 30
0.0
 11
132.323656
 21
160.781154
 31
0.0
  0
ARC
  5
F35
100
AcDbEntity
  8
0
100
AcDbCircle
 10
64.876955
 20
137.281154
 30
0.0
 40
6.0
100
AcDbArc
 50
0.0
 51
180.0
  0
LINE
  5
10AF
100
AcDbEntity
  8
0
100
AcDbLine
 10
-0.76073
 20
131.281154
 30
0.0
 11
-0.76073
 21
141.281154
 31
0.0
  0
LINE
  5
10B0
100
AcDbEntity
  8
0
100
AcDbLine
 10
14.23927
 20
165.281154
 30
0.0
 11
14.23927
 21
155.281154
 31
0.0
  0
CIRCLE
  5
10B3
100
AcDbEntity
  8
0
100
AcDbCircle
 10
6.73927
 20
137.281154
 30
0.0
 40
3.5
  0
CIRCLE
  5
10B4
100
AcDbEntity
  8
0
100
AcDbCircle
 10
6.73927
 20
137.281154
 30
0.0
 40
3.0
  0
LINE
  5
10B5
100
AcDbEntity
  8
0
100
AcDbLine
 10
13.73927
 20
141.781154
 30
0.0
 11
-0.26073
 21
141.781154
 31
0.0
  0
LINE
  5
10B7
100
AcDbEntity
  8
0
100
AcDbLine
 10
13.73927
 20
130.781154
 30
0.0
 11
-0.26073
 21
130.781154
 31
0.0
  0
LINE
  5
10B8
100
AcDbEntity
  8
CENTER
100
AcDbLine
 10
15.382144
 20
137.281154
 30
0.0
 11
-1.903603
 21
137.281154
 31
0.0
  0
LINE
  5
10B9
100
AcDbEntity
  8
CENTER
100
AcDbLine
 10
16.299117
 20
148.281154
 30
0.0
 11
-2.820576
 21
148.281154
 31
0.0
  0
LINE
  5
10BB
100
AcDbEntity
  8
0
100
AcDbLine
 10
-0.26073
 20
130.781154
 30
0.0
 11
-0.76073
 21
131.281154
 31
0.0
  0
LINE
  5
10BC
100
AcDbEntity
  8
0
100
AcDbLine
 10
-0.26073
 20
141.781154
 30
0.0
 11
-0.76073
 21
141.281154
 31
0.0
  0
CIRCLE
  5
10BD
100
AcDbEntity
  8
0
 62
     3
100
AcDbCircle
 10
6.73927
 20
137.281154
 30
0.0
 40
2.4585
  0
LINE
  5
10BF
100
AcDbEntity
  8
CENTER
100
AcDbLine
 10
6.73927
 20
128.638281
 30
0.0
 11
6.73927
 21
145.924028
 31
0.0
  0
LINE
  5
10C0
100
AcDbEntity
  8
0
100
AcDbLine
 10
14.23927
 20
131.281154
 30
0.0
 11
13.73927
 21
130.781154
 31
0.0
  0
LINE
  5
10C1
100
AcDbEntity
  8
0
100
AcDbLine
 10
13.73927
 20
141.781154
 30
0.0
 11
14.23927
 21
141.281154
 31
0.0
  0
LINE
  5
10C2
100
AcDbEntity
  8
0
100
AcDbLine
 10
13.73927
 20
154.781154
 30
0.0
 11
-0.26073
 21
154.781154
 31
0.0
  0
LINE
  5
10C4
100
AcDbEntity
  8
0
100
AcDbLine
 10
13.73927
 20
165.781154
 30
0.0
 11
-0.26073
 21
165.781154
 31
0.0
  0
LINE
  5
10C5
100
AcDbEntity
  8
0
100
AcDbLine
 10
-0.26073
 20
154.781154
 30
0.0
 11
-0.76073
 21
155.281154
 31
0.0
  0
LINE
  5
10C6
100
AcDbEntity
  8
0
100
AcDbLine
 10
-0.76073
 20
165.281154
 30
0.0
 11
-0.26073
 21
165.781154
 31
0.0
  0
LINE
  5
10C7
100
AcDbEntity
  8
0
100
AcDbLine
 10
13.73927
 20
154.781154
 30
0.0
 11
14.23927
 21
155.281154
 31
0.0
  0
LINE
  5
10C8
100
AcDbEntity
  8
0
100
AcDbLine
 10
13.73927
 20
165.781154
 30
0.0
 11
14.23927
 21
165.281154
 31
0.0
  0
POINT
  5
112C
100
AcDbEntity
  8
0
 60
     1
100
AcDbPoint
 10
152.829844
 20
176.592249
 30
0.0
 50
90.0
1001
GENIUS_GENOBJ-NBEHI-BHF_13
1002
{
1000
OWNER
1000
GENBEHI
1002
}
1001
GENIUS_GENOENT_13
1002
{
1000
MYREF
1005
112C
1002
}
1002
{
1000
GRP
1005
0
1002
}
1001
GENIUS_GENOLIS_13
1002
{
1000
ENT
1005
0
1002
}
1001
GENIUS_GENBH_13
1002
{
1000
OIUMAP
1000
OIU
1002
}
1002
{
1000
FLAGS
1070
    32
1002
}
1002
{
1000
BGO
1005
112D
1002
}
1001
GENIUS_GENODEF_13
1002
{
1000
HIER
1070
     1
1002
}
1002
{
1000
MANEDIT
1070
     1
1002
}
1002
{
1000
NOSEL
1070
     1
1002
}
1002
{
1000
BEHIND
1070
     0
1002
}
1002
{
1000
REACTOR
1002
}
  0
POINT
  5
112D
100
AcDbEntity
  8
0
 60
     1
100
AcDbPoint
 10
152.829844
 20
176.592249
 30
0.0
 50
90.0
1001
GENIUS_GENOBJ-NBEHI-BHB_13
1002
{
1000
OWNER
1000
GENBEHI
1002
}
1001
GENIUS_GENOENT_13
1002
{
1000
MYREF
1005
112D
1002
}
1002
{
1000
GRP
1005
0
1002
}
1001
GENIUS_GENOLIS_13
1002
{
1000
ENT
1002
}
1001
GENIUS_GENODEF_13
1002
{
1000
HIER
1070
     1
1002
}
1002
{
1000
MANEDIT
1070
     0
1002
}
1002
{
1000
NOSEL
1070
     1
1002
}
1002
{
1000
BEHIND
1070
     0
1002
}
1002
{
1000
REACTOR
1002
}
1002
{
1000
OTHER
1070
     1
1002
}
1001
GENIUS_GENBH_13
1002
{
1000
FGO
1005
112C
1002
}
  0
POINT
  5
112E
100
AcDbEntity
  8
0
 60
     1
100
AcDbPoint
 10
152.829844
 20
176.592249
 30
0.0
 50
90.0
1001
GENIUS_GENOBJ-NBEHI-BHF_13
1002
{
1000
OWNER
1000
GENBEHI
1002
}
1001
GENIUS_GENOENT_13
1002
{
1000
MYREF
1005
112E
1002
}
1002
{
1000
GRP
1005
0
1002
}
1001
GENIUS_GENOLIS_13
1002
{
1000
ENT
1005
0
1002
}
1001
GENIUS_GENODEF_13
1002
{
1000
HIER
1070
     1
1002
}
1002
{
1000
MANEDIT
1070
     0
1002
}
1002
{
1000
NOSEL
1070
     1
1002
}
1002
{
1000
BEHIND
1070
     0
1002
}
1002
{
1000
REACTOR
1002
}
1001
GENIUS_GENBH_13
1002
{
1000
OIUMAP
1000
OIU
1002
}
1002
{
1000
FLAGS
1070
    32
1002
}
1002
{
1000
BGO
1005
112F
1002
}
  0
POINT
  5
112F
100
AcDbEntity
  8
0
 60
     1
100
AcDbPoint
 10
152.829844
 20
176.592249
 30
0.0
 50
90.0
1001
GENIUS_GENOBJ-NBEHI-BHB_13
1002
{
1000
OWNER
1000
GENBEHI
1002
}
1001
GENIUS_GENOENT_13
1002
{
1000
MYREF
1005
112F
1002
}
1002
{
1000
GRP
1005
0
1002
}
1001
GENIUS_GENOLIS_13
1002
{
1000
ENT
1002
}
1001
GENIUS_GENODEF_13
1002
{
1000
HIER
1070
     1
1002
}
1002
{
1000
MANEDIT
1070
     0
1002
}
1002
{
1000
NOSEL
1070
     1
1002
}
1002
{
1000
BEHIND
1070
     0
1002
}
1002
{
1000
REACTOR
1002
}
1002
{
1000
OTHER
1070
     1
1002
}
1001
GENIUS_GENBH_13
1002
{
1000
FGO
1005
112E
1002
}
  0
POINT
  5
1130
100
AcDbEntity
  8
0
 60
     1
100
AcDbPoint
 10
152.829844
 20
176.592249
 30
0.0
 50
90.0
1001
GENIUS_GENOBJ-NBEHI-BHF_13
1002
{
1000
OWNER
1000
GENBEHI
1002
}
1001
GENIUS_GENOENT_13
1002
{
1000
MYREF
1005
1130
1002
}
1002
{
1000
GRP
1005
0
1002
}
1001
GENIUS_GENOLIS_13
1002
{
1000
ENT
1005
0
1002
}
1001
GENIUS_GENBH_13
1002
{
1000
OIUMAP
1000
OIU
1002
}
1002
{
1000
FLAGS
1070
    32
1002
}
1002
{
1000
BGO
1005
1131
1002
}
1001
GENIUS_GENODEF_13
1002
{
1000
HIER
1070
     1
1002
}
1002
{
1000
MANEDIT
1070
     1
1002
}
1002
{
1000
NOSEL
1070
     1
1002
}
1002
{
1000
BEHIND
1070
     0
1002
}
1002
{
1000
REACTOR
1002
}
  0
POINT
  5
1131
100
AcDbEntity
  8
0
 60
     1
100
AcDbPoint
 10
152.829844
 20
176.592249
 30
0.0
 50
90.0
1001
GENIUS_GENOBJ-NBEHI-BHB_13
1002
{
1000
OWNER
1000
GENBEHI
1002
}
1001
GENIUS_GENOENT_13
1002
{
1000
MYREF
1005
1131
1002
}
1002
{
1000
GRP
1005
0
1002
}
1001
GENIUS_GENOLIS_13
1002
{
1000
ENT
1002
}
1001
GENIUS_GENODEF_13
1002
{
1000
HIER
1070
     1
1002
}
1002
{
1000
MANEDIT
1070
     0
1002
}
1002
{
1000
NOSEL
1070
     1
1002
}
1002
{
1000
BEHIND
1070
     0
1002
}
1002
{
1000
REACTOR
1002
}
1002
{
1000
OTHER
1070
     1
1002
}
1001
GENIUS_GENBH_13
1002
{
1000
FGO
1005
1130
1002
}
  0
POINT
  5
1132
100
AcDbEntity
  8
0
 60
     1
100
AcDbPoint
 10
152.829844
 20
176.592249
 30
0.0
 50
90.0
1001
GENIUS_GENOBJ-F-SCPASSM_13
1002
{
1000
OWNER
1000
GEF
1002
}
1001
GENIUS_GENOENT_13
1002
{
1000
MYREF
1005
1132
1002
}
1002
{
1000
GRP
1005
0
1002
}
1001
GENIUS_GENOLIS_13
1002
{
1000
ENT
1005
0
1005
0
1002
}
1001
GENIUS_GENODEF_13
1002
{
1000
HIER
1070
   200
1002
}
1002
{
1000
MANEDIT
1070
     1
1002
}
1002
{
1000
NOSEL
1070
     0
1002
}
1002
{
1000
BEHIND
1070
     0
1002
}
1002
{
1000
REACTOR
1002
}
  0
POINT
  5
1133
100
AcDbEntity
  8
0
 60
     1
100
AcDbPoint
 10
152.829844
 20
176.592249
 30
0.0
 50
90.0
1001
GENIUS_GENOBJ-NBEHI-BHF_13
1002
{
1000
OWNER
1000
GENBEHI
1002
}
1001
GENIUS_GENOENT_13
1002
{
1000
MYREF
1005
1133
1002
}
1002
{
1000
GRP
1005
0
1002
}
1001
GENIUS_GENOLIS_13
1002
{
1000
ENT
1005
0
1002
}
1001
GENIUS_GENODEF_13
1002
{
1000
HIER
1070
     1
1002
}
1002
{
1000
MANEDIT
1070
     0
1002
}
1002
{
1000
NOSEL
1070
     1
1002
}
1002
{
1000
BEHIND
1070
     0
1002
}
1002
{
1000
REACTOR
1002
}
1001
GENIUS_GENBH_13
1002
{
1000
OIUMAP
1000
OIU
1002
}
1002
{
1000
FLAGS
1070
    32
1002
}
1002
{
1000
BGO
1005
1134
1002
}
  0
POINT
  5
1134
100
AcDbEntity
  8
0
 60
     1
100
AcDbPoint
 10
152.829844
 20
176.592249
 30
0.0
 50
90.0
1001
GENIUS_GENOBJ-NBEHI-BHB_13
1002
{
1000
OWNER
1000
GENBEHI
1002
}
1001
GENIUS_GENOENT_13
1002
{
1000
MYREF
1005
1134
1002
}
1002
{
1000
GRP
1005
0
1002
}
1001
GENIUS_GENOLIS_13
1002
{
1000
ENT
1002
}
1001
GENIUS_GENODEF_13
1002
{
1000
HIER
1070
     1
1002
}
1002
{
1000
MANEDIT
1070
     0
1002
}
1002
{
1000
NOSEL
1070
     1
1002
}
1002
{
1000
BEHIND
1070
     0
1002
}
1002
{
1000
REACTOR
1002
}
1002
{
1000
OTHER
1070
     1
1002
}
1001
GENIUS_GENBH_13
1002
{
1000
FGO
1005
1133
1002
}
  0
POINT
  5
1135
100
AcDbEntity
  8
0
 60
     1
100
AcDbPoint
 10
152.829844
 20
176.592249
 30
0.0
 50
90.0
1001
GENIUS_GENOBJ-NBEHI-BHF_13
1002
{
1000
OWNER
1000
GENBEHI
1002
}
1001
GENIUS_GENOENT_13
1002
{
1000
MYREF
1005
1135
1002
}
1002
{
1000
GRP
1005
0
1002
}
1001
GENIUS_GENOLIS_13
1002
{
1000
ENT
1005
0
1002
}
1001
GENIUS_GENBH_13
1002
{
1000
OIUMAP
1000
OIU
1002
}
1002
{
1000
FLAGS
1070
    32
1002
}
1002
{
1000
BGO
1005
1136
1002
}
1001
GENIUS_GENODEF_13
1002
{
1000
HIER
1070
     1
1002
}
1002
{
1000
MANEDIT
1070
     1
1002
}
1002
{
1000
NOSEL
1070
     1
1002
}
1002
{
1000
BEHIND
1070
     0
1002
}
1002
{
1000
REACTOR
1002
}
  0
POINT
  5
1136
100
AcDbEntity
  8
0
 60
     1
100
AcDbPoint
 10
152.829844
 20
176.592249
 30
0.0
 50
90.0
1001
GENIUS_GENOBJ-NBEHI-BHB_13
1002
{
1000
OWNER
1000
GENBEHI
1002
}
1001
GENIUS_GENOENT_13
1002
{
1000
MYREF
1005
1136
1002
}
1002
{
1000
GRP
1005
0
1002
}
1001
GENIUS_GENOLIS_13
1002
{
1000
ENT
1005
0
1002
}
1001
GENIUS_GENODEF_13
1002
{
1000
HIER
1070
     1
1002
}
1002
{
1000
MANEDIT
1070
     0
1002
}
1002
{
1000
NOSEL
1070
     1
1002
}
1002
{
1000
BEHIND
1070
     0
1002
}
1002
{
1000
REACTOR
1002
}
1002
{
1000
OTHER
1070
     1
1002
}
1001
GENIUS_GENBH_13
1002
{
1000
FGO
1005
1135
1002
}
  0
POINT
  5
1137
100
AcDbEntity
  8
0
 60
     1
100
AcDbPoint
 10
152.829844
 20
176.592249
 30
0.0
 50
90.0
1001
GENIUS_GENOBJ-F-SCPASSM_13
1002
{
1000
OWNER
1000
GEF
1002
}
1001
GENIUS_GENOENT_13
1002
{
1000
MYREF
1005
1137
1002
}
1002
{
1000
GRP
1005
0
1002
}
1001
GENIUS_GENOLIS_13
1002
{
1000
ENT
1005
0
1005
0
1002
}
1001
GENIUS_GENODEF_13
1002
{
1000
HIER
1070
   200
1002
}
1002
{
1000
MANEDIT
1070
     1
1002
}
1002
{
1000
NOSEL
1070
     0
1002
}
1002
{
1000
BEHIND
1070
     0
1002
}
1002
{
1000
REACTOR
1002
}
  0
POINT
  5
1138
100
AcDbEntity
  8
0
 60
     1
100
AcDbPoint
 10
152.829844
 20
176.592249
 30
0.0
 50
90.0
1001
GENIUS_GENOBJ-NBEHI-BHF_13
1002
{
1000
OWNER
1000
GENBEHI
1002
}
1001
GENIUS_GENOENT_13
1002
{
1000
MYREF
1005
1138
1002
}
1002
{
1000
GRP
1005
0
1002
}
1001
GENIUS_GENOLIS_13
1002
{
1000
ENT
1005
0
1002
}
1001
GENIUS_GENODEF_13
1002
{
1000
HIER
1070
     1
1002
}
1002
{
1000
MANEDIT
1070
     0
1002
}
1002
{
1000
NOSEL
1070
     1
1002
}
1002
{
1000
BEHIND
1070
     0
1002
}
1002
{
1000
REACTOR
1002
}
1001
GENIUS_GENBH_13
1002
{
1000
OIUMAP
1000
OIU
1002
}
1002
{
1000
FLAGS
1070
    32
1002
}
1002
{
1000
BGO
1005
1139
1002
}
  0
POINT
  5
1139
100
AcDbEntity
  8
0
 60
     1
100
AcDbPoint
 10
152.829844
 20
176.592249
 30
0.0
 50
90.0
1001
GENIUS_GENOBJ-NBEHI-BHB_13
1002
{
1000
OWNER
1000
GENBEHI
1002
}
1001
GENIUS_GENOENT_13
1002
{
1000
MYREF
1005
1139
1002
}
1002
{
1000
GRP
1005
0
1002
}
1001
GENIUS_GENOLIS_13
1002
{
1000
ENT
1002
}
1001
GENIUS_GENODEF_13
1002
{
1000
HIER
1070
     1
1002
}
1002
{
1000
MANEDIT
1070
     0
1002
}
1002
{
1000
NOSEL
1070
     1
1002
}
1002
{
1000
BEHIND
1070
     0
1002
}
1002
{
1000
REACTOR
1002
}
1002
{
1000
OTHER
1070
     1
1002
}
1001
GENIUS_GENBH_13
1002
{
1000
FGO
1005
1138
1002
}
  0
POINT
  5
113A
100
AcDbEntity
  8
0
 60
     1
100
AcDbPoint
 10
152.829844
 20
176.592249
 30
0.0
 50
90.0
1001
GENIUS_GENOBJ-NBEHI-BHF_13
1002
{
1000
OWNER
1000
GENBEHI
1002
}
1001
GENIUS_GENOENT_13
1002
{
1000
MYREF
1005
113A
1002
}
1002
{
1000
GRP
1005
0
1002
}
1001
GENIUS_GENOLIS_13
1002
{
1000
ENT
1005
0
1002
}
1001
GENIUS_GENBH_13
1002
{
1000
OIUMAP
1000
OIU
1002
}
1002
{
1000
FLAGS
1070
    32
1002
}
1002
{
1000
BGO
1005
113B
1002
}
1001
GENIUS_GENODEF_13
1002
{
1000
HIER
1070
     1
1002
}
1002
{
1000
MANEDIT
1070
     1
1002
}
1002
{
1000
NOSEL
1070
     1
1002
}
1002
{
1000
BEHIND
1070
     0
1002
}
1002
{
1000
REACTOR
1002
}
  0
POINT
  5
113B
100
AcDbEntity
  8
0
 60
     1
100
AcDbPoint
 10
152.829844
 20
176.592249
 30
0.0
 50
90.0
1001
GENIUS_GENOBJ-NBEHI-BHB_13
1002
{
1000
OWNER
1000
GENBEHI
1002
}
1001
GENIUS_GENOENT_13
1002
{
1000
MYREF
1005
113B
1002
}
1002
{
1000
GRP
1005
0
1002
}
1001
GENIUS_GENOLIS_13
1002
{
1000
ENT
1005
0
1002
}
1001
GENIUS_GENODEF_13
1002
{
1000
HIER
1070
     1
1002
}
1002
{
1000
MANEDIT
1070
     0
1002
}
1002
{
1000
NOSEL
1070
     1
1002
}
1002
{
1000
BEHIND
1070
     0
1002
}
1002
{
1000
REACTOR
1002
}
1002
{
1000
OTHER
1070
     1
1002
}
1001
GENIUS_GENBH_13
1002
{
1000
FGO
1005
113A
1002
}
  0
POINT
  5
113C
100
AcDbEntity
  8
0
 60
     1
100
AcDbPoint
 10
152.829844
 20
176.592249
 30
0.0
 50
90.0
1001
GENIUS_GENOBJ-F-SCPASSM_13
1002
{
1000
OWNER
1000
GEF
1002
}
1001
GENIUS_GENOENT_13
1002
{
1000
MYREF
1005
113C
1002
}
1002
{
1000
GRP
1005
0
1002
}
1001
GENIUS_GENOLIS_13
1002
{
1000
ENT
1005
0
1005
0
1002
}
1001
GENIUS_GENODEF_13
1002
{
1000
HIER
1070
   200
1002
}
1002
{
1000
MANEDIT
1070
     1
1002
}
1002
{
1000
NOSEL
1070
     0
1002
}
1002
{
1000
BEHIND
1070
     0
1002
}
1002
{
1000
REACTOR
1002
}
  0
POINT
  5
113D
100
AcDbEntity
  8
0
 60
     1
100
AcDbPoint
 10
152.829844
 20
176.592249
 30
0.0
 50
90.0
1001
GENIUS_GENOBJ-NBEHI-BHF_13
1002
{
1000
OWNER
1000
GENBEHI
1002
}
1001
GENIUS_GENOENT_13
1002
{
1000
MYREF
1005
113D
1002
}
1002
{
1000
GRP
1005
0
1002
}
1001
GENIUS_GENOLIS_13
1002
{
1000
ENT
1005
0
1002
}
1001
GENIUS_GENODEF_13
1002
{
1000
HIER
1070
     1
1002
}
1002
{
1000
MANEDIT
1070
     0
1002
}
1002
{
1000
NOSEL
1070
     1
1002
}
1002
{
1000
BEHIND
1070
     0
1002
}
1002
{
1000
REACTOR
1002
}
1001
GENIUS_GENBH_13
1002
{
1000
OIUMAP
1000
OIU
1002
}
1002
{
1000
FLAGS
1070
    32
1002
}
1002
{
1000
BGO
1005
113E
1002
}
  0
POINT
  5
113E
100
AcDbEntity
  8
0
 60
     1
100
AcDbPoint
 10
152.829844
 20
176.592249
 30
0.0
 50
90.0
1001
GENIUS_GENOBJ-NBEHI-BHB_13
1002
{
1000
OWNER
1000
GENBEHI
1002
}
1001
GENIUS_GENOENT_13
1002
{
1000
MYREF
1005
113E
1002
}
1002
{
1000
GRP
1005
0
1002
}
1001
GENIUS_GENOLIS_13
1002
{
1000
ENT
1002
}
1001
GENIUS_GENODEF_13
1002
{
1000
HIER
1070
     1
1002
}
1002
{
1000
MANEDIT
1070
     0
1002
}
1002
{
1000
NOSEL
1070
     1
1002
}
1002
{
1000
BEHIND
1070
     0
1002
}
1002
{
1000
REACTOR
1002
}
1002
{
1000
OTHER
1070
     1
1002
}
1001
GENIUS_GENBH_13
1002
{
1000
FGO
1005
113D
1002
}
  0
POINT
  5
113F
100
AcDbEntity
  8
0
 60
     1
100
AcDbPoint
 10
152.829844
 20
176.592249
 30
0.0
 50
90.0
1001
GENIUS_GENOBJ-NBEHI-BHF_13
1002
{
1000
OWNER
1000
GENBEHI
1002
}
1001
GENIUS_GENOENT_13
1002
{
1000
MYREF
1005
113F
1002
}
1002
{
1000
GRP
1005
0
1002
}
1001
GENIUS_GENOLIS_13
1002
{
1000
ENT
1005
0
1002
}
1001
GENIUS_GENBH_13
1002
{
1000
OIUMAP
1000
OIU
1002
}
1002
{
1000
FLAGS
1070
    32
1002
}
1002
{
1000
BGO
1005
1140
1002
}
1001
GENIUS_GENODEF_13
1002
{
1000
HIER
1070
     1
1002
}
1002
{
1000
MANEDIT
1070
     1
1002
}
1002
{
1000
NOSEL
1070
     1
1002
}
1002
{
1000
BEHIND
1070
     0
1002
}
1002
{
1000
REACTOR
1002
}
  0
POINT
  5
1140
100
AcDbEntity
  8
0
 60
     1
100
AcDbPoint
 10
152.829844
 20
176.592249
 30
0.0
 50
90.0
1001
GENIUS_GENOBJ-NBEHI-BHB_13
1002
{
1000
OWNER
1000
GENBEHI
1002
}
1001
GENIUS_GENOENT_13
1002
{
1000
MYREF
1005
1140
1002
}
1002
{
1000
GRP
1005
0
1002
}
1001
GENIUS_GENOLIS_13
1002
{
1000
ENT
1005
0
1002
}
1001
GENIUS_GENODEF_13
1002
{
1000
HIER
1070
     1
1002
}
1002
{
1000
MANEDIT
1070
     0
1002
}
1002
{
1000
NOSEL
1070
     1
1002
}
1002
{
1000
BEHIND
1070
     0
1002
}
1002
{
1000
REACTOR
1002
}
1002
{
1000
OTHER
1070
     1
1002
}
1001
GENIUS_GENBH_13
1002
{
1000
FGO
1005
113F
1002
}
  0
POINT
  5
1141
100
AcDbEntity
  8
0
 60
     1
100
AcDbPoint
 10
152.829844
 20
176.592249
 30
0.0
 50
90.0
1001
GENIUS_GENOBJ-F-SCPASSM_13
1002
{
1000
OWNER
1000
GEF
1002
}
1001
GENIUS_GENOENT_13
1002
{
1000
MYREF
1005
1141
1002
}
1002
{
1000
GRP
1005
0
1002
}
1001
GENIUS_GENOLIS_13
1002
{
1000
ENT
1005
0
1005
0
1002
}
1001
GENIUS_GENODEF_13
1002
{
1000
HIER
1070
   200
1002
}
1002
{
1000
MANEDIT
1070
     1
1002
}
1002
{
1000
NOSEL
1070
     0
1002
}
1002
{
1000
BEHIND
1070
     0
1002
}
1002
{
1000
REACTOR
1002
}
  0
POINT
  5
1142
100
AcDbEntity
  8
0
 60
     1
100
AcDbPoint
 10
152.829844
 20
176.592249
 30
0.0
 50
90.0
1001
GENIUS_GENOBJ-NBEHI-BHB_13
1002
{
1000
OWNER
1000
GENBEHI
1002
}
1001
GENIUS_GENOENT_13
1002
{
1000
MYREF
1005
1142
1002
}
1002
{
1000
GRP
1005
0
1002
}
1001
GENIUS_GENOLIS_13
1002
{
1000
ENT
1002
}
1001
GENIUS_GENODEF_13
1002
{
1000
HIER
1070
     1
1002
}
1002
{
1000
MANEDIT
1070
     0
1002
}
1002
{
1000
NOSEL
1070
     1
1002
}
1002
{
1000
BEHIND
1070
     0
1002
}
1002
{
1000
REACTOR
1002
}
1002
{
1000
OTHER
1070
     1
1002
}
1001
GENIUS_GENBH_13
1002
{
1000
FGO
1005
0
1002
}
  0
POINT
  5
1143
100
AcDbEntity
  8
0
 60
     1
100
AcDbPoint
 10
152.829844
 20
176.592249
 30
0.0
 50
90.0
1001
GENIUS_GENOBJ-NBEHI-BHF_13
1002
{
1000
OWNER
1000
GENBEHI
1002
}
1001
GENIUS_GENOENT_13
1002
{
1000
MYREF
1005
1143
1002
}
1002
{
1000
GRP
1005
0
1002
}
1001
GENIUS_GENOLIS_13
1002
{
1000
ENT
1005
0
1002
}
1001
GENIUS_GENBH_13
1002
{
1000
OIUMAP
1000
OIU
1002
}
1002
{
1000
FLAGS
1070
    32
1002
}
1002
{
1000
BGO
1005
0
1002
}
1001
GENIUS_GENODEF_13
1002
{
1000
HIER
1070
     1
1002
}
1002
{
1000
MANEDIT
1070
     1
1002
}
1002
{
1000
NOSEL
1070
     1
1002
}
1002
{
1000
BEHIND
1070
     0
1002
}
1002
{
1000
REACTOR
1002
}
  0
POINT
  5
1144
100
AcDbEntity
  8
0
 60
     1
100
AcDbPoint
 10
152.829844
 20
176.592249
 30
0.0
 50
90.0
1001
GENIUS_GENOBJ-NBEHI-BHF_13
1002
{
1000
OWNER
1000
GENBEHI
1002
}
1001
GENIUS_GENOENT_13
1002
{
1000
MYREF
1005
1144
1002
}
1002
{
1000
GRP
1005
0
1002
}
1001
GENIUS_GENOLIS_13
1002
{
1000
ENT
1005
0
1002
}
1001
GENIUS_GENODEF_13
1002
{
1000
HIER
1070
     1
1002
}
1002
{
1000
MANEDIT
1070
     0
1002
}
1002
{
1000
NOSEL
1070
     1
1002
}
1002
{
1000
BEHIND
1070
     0
1002
}
1002
{
1000
REACTOR
1002
}
1001
GENIUS_GENBH_13
1002
{
1000
OIUMAP
1000
OIU
1002
}
1002
{
1000
FLAGS
1070
    32
1002
}
1002
{
1000
BGO
1005
1145
1002
}
  0
POINT
  5
1145
100
AcDbEntity
  8
0
 60
     1
100
AcDbPoint
 10
152.829844
 20
176.592249
 30
0.0
 50
90.0
1001
GENIUS_GENOBJ-NBEHI-BHB_13
1002
{
1000
OWNER
1000
GENBEHI
1002
}
1001
GENIUS_GENOENT_13
1002
{
1000
MYREF
1005
1145
1002
}
1002
{
1000
GRP
1005
0
1002
}
1001
GENIUS_GENOLIS_13
1002
{
1000
ENT
1002
}
1001
GENIUS_GENODEF_13
1002
{
1000
HIER
1070
     1
1002
}
1002
{
1000
MANEDIT
1070
     0
1002
}
1002
{
1000
NOSEL
1070
     1
1002
}
1002
{
1000
BEHIND
1070
     0
1002
}
1002
{
1000
REACTOR
1002
}
1002
{
1000
OTHER
1070
     1
1002
}
1001
GENIUS_GENBH_13
1002
{
1000
FGO
1005
1144
1002
}
  0
POINT
  5
1146
100
AcDbEntity
  8
0
 60
     1
100
AcDbPoint
 10
152.829844
 20
176.592249
 30
0.0
 50
90.0
1001
GENIUS_GENOBJ-NBEHI-BHF_13
1002
{
1000
OWNER
1000
GENBEHI
1002
}
1001
GENIUS_GENOENT_13
1002
{
1000
MYREF
1005
1146
1002
}
1002
{
1000
GRP
1005
0
1002
}
1001
GENIUS_GENOLIS_13
1002
{
1000
ENT
1005
0
1002
}
1001
GENIUS_GENBH_13
1002
{
1000
OIUMAP
1000
OIU
1002
}
1002
{
1000
FLAGS
1070
    32
1002
}
1002
{
1000
BGO
1005
1147
1002
}
1001
GENIUS_GENODEF_13
1002
{
1000
HIER
1070
     1
1002
}
1002
{
1000
MANEDIT
1070
     1
1002
}
1002
{
1000
NOSEL
1070
     1
1002
}
1002
{
1000
BEHIND
1070
     0
1002
}
1002
{
1000
REACTOR
1002
}
  0
POINT
  5
1147
100
AcDbEntity
  8
0
 60
     1
100
AcDbPoint
 10
152.829844
 20
176.592249
 30
0.0
 50
90.0
1001
GENIUS_GENOBJ-NBEHI-BHB_13
1002
{
1000
OWNER
1000
GENBEHI
1002
}
1001
GENIUS_GENOENT_13
1002
{
1000
MYREF
1005
1147
1002
}
1002
{
1000
GRP
1005
0
1002
}
1001
GENIUS_GENOLIS_13
1002
{
1000
ENT
1005
0
1002
}
1001
GENIUS_GENODEF_13
1002
{
1000
HIER
1070
     1
1002
}
1002
{
1000
MANEDIT
1070
     0
1002
}
1002
{
1000
NOSEL
1070
     1
1002
}
1002
{
1000
BEHIND
1070
     0
1002
}
1002
{
1000
REACTOR
1002
}
1002
{
1000
OTHER
1070
     1
1002
}
1001
GENIUS_GENBH_13
1002
{
1000
FGO
1005
1146
1002
}
  0
POINT
  5
1148
100
AcDbEntity
  8
0
 60
     1
100
AcDbPoint
 10
152.829844
 20
176.592249
 30
0.0
 50
90.0
1001
GENIUS_GENOBJ-F-SCPASSM_13
1002
{
1000
OWNER
1000
GEF
1002
}
1001
GENIUS_GENOENT_13
1002
{
1000
MYREF
1005
1148
1002
}
1002
{
1000
GRP
1005
0
1002
}
1001
GENIUS_GENOLIS_13
1002
{
1000
ENT
1005
0
1005
0
1002
}
1001
GENIUS_GENODEF_13
1002
{
1000
HIER
1070
   200
1002
}
1002
{
1000
MANEDIT
1070
     1
1002
}
1002
{
1000
NOSEL
1070
     0
1002
}
1002
{
1000
BEHIND
1070
     0
1002
}
1002
{
1000
REACTOR
1002
}
  0
LINE
  5
1149
100
AcDbEntity
  8
0
  6
HIDDEN
100
AcDbLine
 10
121.673656
 20
142.281154
 30
0.0
 11
127.073656
 21
142.281154
 31
0.0
1001
GENIUS_GENOREF_13
1005
1146
1005
1148
  0
LINE
  5
114A
100
AcDbEntity
  8
0
  6
HIDDEN
100
AcDbLine
 10
125.984933
 20
132.281154
 30
0.0
 11
127.073656
 21
132.281154
 31
0.0
1001
GENIUS_GENOREF_13
1005
1146
1005
1148
  0
LINE
  5
114B
100
AcDbEntity
  8
0
  6
HIDDEN
100
AcDbLine
 10
121.073656
 20
135.543415
 30
0.0
 11
121.073656
 21
141.681154
 31
0.0
1001
GENIUS_GENOREF_13
1005
1146
1005
1148
  0
ARC
  5
114C
100
AcDbEntity
  8
0
100
AcDbCircle
 10
121.673656
 20
132.881154
 30
0.0
 40
0.6
100
AcDbArc
 50
180.0
 51
270.0
1001
GENIUS_GENOREF_13
1005
1146
1005
1148
  0
ARC
  5
114D
100
AcDbEntity
  8
0
100
AcDbCircle
 10
121.673656
 20
141.681154
 30
0.0
 40
0.6
100
AcDbArc
 50
90.0
 51
180.0
1001
GENIUS_GENOREF_13
1005
1146
1005
1148
  0
LINE
  5
114E
100
AcDbEntity
  8
0
  6
HIDDEN
100
AcDbLine
 10
145.073656
 20
134.894604
 30
0.0
 11
133.823656
 21
134.894604
 31
0.0
1001
GENIUS_GENOREF_13
1005
1146
1005
1148
  0
LINE
  5
114F
100
AcDbEntity
  8
0
  6
HIDDEN
100
AcDbLine
 10
148.307122
 20
139.667704
 30
0.0
 11
133.823656
 21
139.667704
 31
0.0
1001
GENIUS_GENOREF_13
1005
1146
1005
1148
  0
LINE
  5
1150
100
AcDbEntity
  8
0
100
AcDbLine
 10
144.460206
 20
134.281154
 30
0.0
 11
145.073656
 21
134.894604
 31
0.0
1001
GENIUS_GENOREF_13
1005
1146
1005
1148
  0
LINE
  5
1151
100
AcDbEntity
  8
0
100
AcDbLine
 10
144.460206
 20
140.281154
 30
0.0
 11
145.073656
 21
139.667704
 31
0.0
1001
GENIUS_GENOREF_13
1005
1146
1005
1148
  0
LINE
  5
1152
100
AcDbEntity
  8
0
  6
HIDDEN
100
AcDbLine
 10
127.073656
 20
134.281154
 30
0.0
 11
132.323656
 21
134.281154
 31
0.0
1001
GENIUS_GENOREF_13
1005
1146
1005
1148
  0
LINE
  5
1153
100
AcDbEntity
  8
0
  6
HIDDEN
100
AcDbLine
 10
127.073656
 20
140.281154
 30
0.0
 11
132.323656
 21
140.281154
 31
0.0
1001
GENIUS_GENOREF_13
1005
1146
1005
1148
  0
LINE
  5
1155
100
AcDbEntity
  8
0
  6
HIDDEN
100
AcDbLine
 10
129.573656
 20
140.281154
 30
0.0
 11
129.573656
 21
134.281154
 31
0.0
1001
GENIUS_GENOREF_13
1005
1146
1005
1148
  0
LINE
  5
1156
100
AcDbEntity
  8
0
100
AcDbLine
 10
129.573656
 20
134.894604
 30
0.0
 11
128.960206
 21
134.281154
 31
0.0
1001
GENIUS_GENOREF_13
1005
1146
1005
1148
  0
LINE
  5
1157
100
AcDbEntity
  8
0
100
AcDbLine
 10
129.573656
 20
139.667704
 30
0.0
 11
128.960206
 21
140.281154
 31
0.0
1001
GENIUS_GENOREF_13
1005
1146
1005
1148
  0
LINE
  5
1158
100
AcDbEntity
  8
0
  6
HIDDEN
100
AcDbLine
 10
144.460206
 20
140.281154
 30
0.0
 11
144.460206
 21
134.281154
 31
0.0
1001
GENIUS_GENOREF_13
1005
1146
1005
1148
  0
LINE
  5
1159
100
AcDbEntity
  8
0
  6
HIDDEN
100
AcDbLine
 10
145.073656
 20
139.667704
 30
0.0
 11
145.073656
 21
134.894604
 31
0.0
1001
GENIUS_GENOREF_13
1005
1146
1005
1148
  0
POINT
  5
115A
100
AcDbEntity
  8
0
 60
     1
100
AcDbPoint
 10
152.829844
 20
176.592249
 30
0.0
 50
90.0
1001
GENIUS_GENOBJ-NBEHI-BHF_13
1002
{
1000
OWNER
1000
GENBEHI
1002
}
1001
GENIUS_GENOENT_13
1002
{
1000
MYREF
1005
115A
1002
}
1002
{
1000
GRP
1005
0
1002
}
1001
GENIUS_GENOLIS_13
1002
{
1000
ENT
1005
0
1002
}
1001
GENIUS_GENODEF_13
1002
{
1000
HIER
1070
     1
1002
}
1002
{
1000
MANEDIT
1070
     0
1002
}
1002
{
1000
NOSEL
1070
     1
1002
}
1002
{
1000
BEHIND
1070
     0
1002
}
1002
{
1000
REACTOR
1002
}
1001
GENIUS_GENBH_13
1002
{
1000
OIUMAP
1000
OIU
1002
}
1002
{
1000
FLAGS
1070
    32
1002
}
1002
{
1000
BGO
1005
115B
1002
}
  0
POINT
  5
115B
100
AcDbEntity
  8
0
 60
     1
100
AcDbPoint
 10
152.829844
 20
176.592249
 30
0.0
 50
90.0
1001
GENIUS_GENOBJ-NBEHI-BHB_13
1002
{
1000
OWNER
1000
GENBEHI
1002
}
1001
GENIUS_GENOENT_13
1002
{
1000
MYREF
1005
115B
1002
}
1002
{
1000
GRP
1005
0
1002
}
1001
GENIUS_GENOLIS_13
1002
{
1000
ENT
1002
}
1001
GENIUS_GENODEF_13
1002
{
1000
HIER
1070
     1
1002
}
1002
{
1000
MANEDIT
1070
     0
1002
}
1002
{
1000
NOSEL
1070
     1
1002
}
1002
{
1000
BEHIND
1070
     0
1002
}
1002
{
1000
REACTOR
1002
}
1002
{
1000
OTHER
1070
     1
1002
}
1001
GENIUS_GENBH_13
1002
{
1000
FGO
1005
115A
1002
}
  0
POINT
  5
115C
100
AcDbEntity
  8
0
 60
     1
100
AcDbPoint
 10
152.829844
 20
176.592249
 30
0.0
 50
90.0
1001
GENIUS_GENOBJ-NBEHI-BHF_13
1002
{
1000
OWNER
1000
GENBEHI
1002
}
1001
GENIUS_GENOENT_13
1002
{
1000
MYREF
1005
115C
1002
}
1002
{
1000
GRP
1005
0
1002
}
1001
GENIUS_GENOLIS_13
1002
{
1000
ENT
1005
0
1002
}
1001
GENIUS_GENBH_13
1002
{
1000
OIUMAP
1000
OIU
1002
}
1002
{
1000
FLAGS
1070
    32
1002
}
1002
{
1000
BGO
1005
115D
1002
}
1001
GENIUS_GENODEF_13
1002
{
1000
HIER
1070
     1
1002
}
1002
{
1000
MANEDIT
1070
     1
1002
}
1002
{
1000
NOSEL
1070
     1
1002
}
1002
{
1000
BEHIND
1070
     0
1002
}
1002
{
1000
REACTOR
1002
}
  0
POINT
  5
115D
100
AcDbEntity
  8
0
 60
     1
100
AcDbPoint
 10
152.829844
 20
176.592249
 30
0.0
 50
90.0
1001
GENIUS_GENOBJ-NBEHI-BHB_13
1002
{
1000
OWNER
1000
GENBEHI
1002
}
1001
GENIUS_GENOENT_13
1002
{
1000
MYREF
1005
115D
1002
}
1002
{
1000
GRP
1005
0
1002
}
1001
GENIUS_GENOLIS_13
1002
{
1000
ENT
1005
0
1002
}
1001
GENIUS_GENODEF_13
1002
{
1000
HIER
1070
     1
1002
}
1002
{
1000
MANEDIT
1070
     0
1002
}
1002
{
1000
NOSEL
1070
     1
1002
}
1002
{
1000
BEHIND
1070
     0
1002
}
1002
{
1000
REACTOR
1002
}
1002
{
1000
OTHER
1070
     1
1002
}
1001
GENIUS_GENBH_13
1002
{
1000
FGO
1005
115C
1002
}
  0
POINT
  5
115E
100
AcDbEntity
  8
0
 60
     1
100
AcDbPoint
 10
152.829844
 20
176.592249
 30
0.0
 50
90.0
1001
GENIUS_GENOBJ-F-SCPASSM_13
1002
{
1000
OWNER
1000
GEF
1002
}
1001
GENIUS_GENOENT_13
1002
{
1000
MYREF
1005
115E
1002
}
1002
{
1000
GRP
1005
0
1002
}
1001
GENIUS_GENOLIS_13
1002
{
1000
ENT
1005
0
1005
0
1002
}
1001
GENIUS_GENODEF_13
1002
{
1000
HIER
1070
   200
1002
}
1002
{
1000
MANEDIT
1070
     1
1002
}
1002
{
1000
NOSEL
1070
     0
1002
}
1002
{
1000
BEHIND
1070
     0
1002
}
1002
{
1000
REACTOR
1002
}
  0
CIRCLE
  5
115F
100
AcDbEntity
  8
0
100
AcDbCircle
 10
64.876955
 20
137.281154
 30
0.0
 40
5.0
1001
GENIUS_GENOREF_13
1005
115C
1005
115E
  0
LINE
  5
1160
100
AcDbEntity
  8
0
100
AcDbLine
 10
67.376955
 20
138.72453
 30
0.0
 11
64.876955
 21
140.167906
 31
0.0
1001
GENIUS_GENOREF_13
1005
115C
1005
115E
  0
LINE
  5
1161
100
AcDbEntity
  8
0
100
AcDbLine
 10
64.876955
 20
134.394403
 30
0.0
 11
67.376955
 21
135.837779
 31
0.0
1001
GENIUS_GENOREF_13
1005
115C
1005
115E
  0
LINE
  5
1162
100
AcDbEntity
  8
0
100
AcDbLine
 10
67.376955
 20
135.837779
 30
0.0
 11
67.376955
 21
138.72453
 31
0.0
1001
GENIUS_GENOREF_13
1005
115C
1005
115E
  0
LINE
  5
1163
100
AcDbEntity
  8
0
100
AcDbLine
 10
62.376955
 20
138.72453
 30
0.0
 11
62.376955
 21
135.837779
 31
0.0
1001
GENIUS_GENOREF_13
1005
115C
1005
115E
  0
LINE
  5
1164
100
AcDbEntity
  8
0
100
AcDbLine
 10
62.376955
 20
135.837779
 30
0.0
 11
64.876955
 21
134.394403
 31
0.0
1001
GENIUS_GENOREF_13
1005
115C
1005
115E
  0
LINE
  5
1165
100
AcDbEntity
  8
0
100
AcDbLine
 10
64.876955
 20
140.167906
 30
0.0
 11
62.376955
 21
138.72453
 31
0.0
1001
GENIUS_GENOREF_13
1005
115C
1005
115E
  0
LINE
  5
1169
100
AcDbEntity
  8
0
100
AcDbLine
 10
121.073656
 20
132.881154
 30
0.0
 11
121.073656
 21
135.543415
 31
0.0
  0
LINE
  5
116A
100
AcDbEntity
  8
0
100
AcDbLine
 10
121.673656
 20
132.281154
 30
0.0
 11
125.984933
 21
132.281154
 31
0.0
  0
LINE
  5
116B
100
AcDbEntity
  8
0
  6
HIDDEN
100
AcDbLine
 10
132.323656
 20
139.667704
 30
0.0
 11
129.573656
 21
139.667704
 31
0.0
1001
GENIUS_GENOREF_13
1005
1146
1005
1148
  0
LINE
  5
116C
100
AcDbEntity
  8
0
  6
HIDDEN
100
AcDbLine
 10
133.823656
 20
140.281154
 30
0.0
 11
144.460206
 21
140.281154
 31
0.0
1001
GENIUS_GENOREF_13
1005
1146
1005
1148
  0
LINE
  5
116D
100
AcDbEntity
  8
0
  6
HIDDEN
100
AcDbLine
 10
132.323656
 20
134.894604
 30
0.0
 11
129.573656
 21
134.894604
 31
0.0
1001
GENIUS_GENOREF_13
1005
1146
1005
1148
  0
LINE
  5
116E
100
AcDbEntity
  8
0
  6
HIDDEN
100
AcDbLine
 10
133.823656
 20
134.281154
 30
0.0
 11
144.460206
 21
134.281154
 31
0.0
1001
GENIUS_GENOREF_13
1005
1146
1005
1148
  0
LINE
  5
116F
100
AcDbEntity
  8
0
100
AcDbLine
 10
132.323656
 20
140.281154
 30
0.0
 11
133.823656
 21
140.281154
 31
0.0
  0
LINE
  5
1170
100
AcDbEntity
  8
0
100
AcDbLine
 10
132.323656
 20
139.667704
 30
0.0
 11
133.823656
 21
139.667704
 31
0.0
  0
LINE
  5
1171
100
AcDbEntity
  8
0
100
AcDbLine
 10
132.323656
 20
134.894604
 30
0.0
 11
133.823656
 21
134.894604
 31
0.0
  0
LINE
  5
1172
100
AcDbEntity
  8
0
100
AcDbLine
 10
132.323656
 20
134.281154
 30
0.0
 11
133.823656
 21
134.281154
 31
0.0
  0
LINE
  5
1173
100
AcDbEntity
  8
0
100
AcDbLine
 10
-0.76073
 20
155.281154
 30
0.0
 11
-0.76073
 21
165.281154
 31
0.0
  0
LINE
  5
1176
100
AcDbEntity
  8
0
100
AcDbLine
 10
14.23927
 20
141.281154
 30
0.0
 11
14.23927
 21
131.281154
 31
0.0
  0
ARC
  5
1177
100
AcDbEntity
  8
0
  6
HIDDEN
100
AcDbCircle
 10
6.73927
 20
137.281154
 30
0.0
 40
5.0
100
AcDbArc
 50
115.841933
 51
64.158067
1001
GENIUS_GENOREF_13
1005
115C
1005
115E
  0
LINE
  5
1189
100
AcDbEntity
  8
0
100
AcDbLine
 10
14.23927
 20
160.781154
 30
0.0
 11
-0.76073
 21
160.781154
 31
0.0
  0
ENDSEC
  0
SECTION
  2
OBJECTS
  0
DICTIONARY
  5
C
100
AcDbDictionary
  3
ACAD_GROUP
350
D
  3
ACAD_LAYOUT
350
E5C
  3
ACAD_MLINESTYLE
350
1B
  3
ACAD_PLOTSETTINGS
350
E5D
  3
ADE_QUERY_LIBRARY
350
1202
  3
CONTENTDICTIONARY
350
23
1001
ADE
1000
ADE02C004
1000
[Query]
1000
CaseSensitiveMatch=0
1000
SaveCurrQueryInSession=1
1000
MkSelSetWithQryObj=0
1000
ShowBlockAsInsPt=0
1000
CreateAssociativeHatchObjects=0
1000
ReferenceBoundaryForAreaLocation=1
1000
ShowImageAsBoundary=1
1000
DefaultJoinOperator=2
1000
ColorForAdd=red
1000
ColorForRemove=red
1000
BlockLocnForQuery=1
1000
TextLocnForQuery=1
1000
[Save Back]
1000
RedefineBlockDefinitions=1
1000
RedefineLayerDefinitions=1
1000
RedefineTextStyleDefinitions=1
1000
RemoveUnusedGroups=1
1000
EraseSavedBackObjects=1
1000
RemoveLockAfterSave=1
1000
CreateHistoryFileOfChanges=0
1000
CreateBackupFileOfSourceDwg=1
1000
DontAddObjectsToSaveSet=0
1000
MarkObjectsForEditingWithoutPrompting=0
1000
[Coordinate Transformation]
1000
RestoreLastActiveDwgsOnStartup=1
1000
ActivateDwgsOnAttach=1
1000
AdjustSizesAndScalesForChangesInUnits=1
1000
AdjustRotationsForMapDistortions=1
1000
AdjustSizesAndScalesForMapDistortions=1
1000
AdjustElevations=1
1000
AdjustZeroRotationObjects=1
1000
ReconnectDbOnWSOpen=1
1000
NoOfSQLConditionsInHistory=10
1001
ACAD
1000
TREAT_AS_HARD
1070
     0
  0
DICTIONARY
  5
1206
100
AcDbDictionary
280
     1
  3
ACAD_LAYOUTSELFREF
360
1207
  0
DICTIONARY
  5
1204
100
AcDbDictionary
280
     1
  3
ACAD_LAYOUTSELFREF
360
1205
  0
DICTIONARY
  5
D
102
{ACAD_REACTORS
330
C
102
}
100
AcDbDictionary
1001
ACAD
1000
TREAT_AS_HARD
1070
     0
  0
DICTIONARY
  5
E5C
102
{ACAD_REACTORS
330
C
102
}
100
AcDbDictionary
1001
ACAD
1000
TREAT_AS_HARD
1070
     0
  0
DICTIONARY
  5
1B
102
{ACAD_REACTORS
330
C
102
}
100
AcDbDictionary
  3
STANDARD
350
1C
1001
ACAD
1000
TREAT_AS_HARD
1070
     0
  0
DICTIONARY
  5
E5D
102
{ACAD_REACTORS
330
C
102
}
100
AcDbDictionary
1001
ACAD
1000
TREAT_AS_HARD
1070
     0
  0
DICTIONARY
  5
1202
102
{ACAD_REACTORS
330
C
102
}
100
AcDbDictionary
  3
_CURRQRY
350
1203
1001
ACAD
1000
TREAT_AS_HARD
1070
     0
  0
DICTIONARY
  5
23
102
{ACAD_REACTORS
330
C
102
}
100
AcDbDictionary
1001
ACAD
1000
TREAT_AS_HARD
1070
     0
  0
XRECORD
  5
1207
102
{ACAD_REACTORS
330
1206
102
}
100
AcDbXrecord
340
18
  0
XRECORD
  5
1205
102
{ACAD_REACTORS
330
1204
102
}
100
AcDbXrecord
340
15
  0
MLINESTYLE
  5
1C
102
{ACAD_REACTORS
330
1B
102
}
100
AcDbMlineStyle
  2
STANDARD
 70
     0
  3

 62
   256
 51
90.0
 52
90.0
 71
     2
 49
0.5
 62
   256
  6
BYLAYER
 49
-0.5
 62
   256
  6
BYLAYER
  0
XRECORD
  5
1203
102
{ACAD_REACTORS
330
1202
102
}
100
AcDbXrecord
1000
ADE02C001
1070
     1
1070
     0
1002
{
1002
}
1002
{
1002
}
1002
{
1002
}
1000

  0
ENDSEC
  0
EOF
