  0
SECTION
  2
HEADER
  9
$ACADVER
  1
AC1014
  9
$ACADMAINTVER
 70
     0
  9
$DWGCODEPAGE
  3
ANSI_932
  9
$INSBASE
 10
0.0
 20
0.0
 30
0.0
  9
$EXTMIN
 10
6.637906
 20
94.545342
 30
0.0
  9
$EXTMAX
 10
179.851407
 20
181.163007
 30
0.0
  9
$LIMMIN
 10
0.0
 20
0.0
  9
$LIMMAX
 10
420.0
 20
297.0
  9
$ORTHOMODE
 70
     0
  9
$REGENMODE
 70
     1
  9
$FILLMODE
 70
     1
  9
$QTEXTMODE
 70
     0
  9
$MIRRTEXT
 70
     1
  9
$DRAGMODE
 70
     2
  9
$LTSCALE
 40
0.2
  9
$OSMODE
 70
    37
  9
$ATTMODE
 70
     1
  9
$TEXTSIZE
 40
10.0
  9
$TRACEWID
 40
1.0
  9
$TEXTSTYLE
  7
BIGFONT
  9
$CLAYER
  8
0
  9
$CELTYPE
  6
BYLAYER
  9
$CECOLOR
 62
   256
  9
$CELTSCALE
 40
1.0
  9
$DELOBJ
 70
     1
  9
$DISPSILH
 70
     0
  9
$DIMSCALE
 40
1.0
  9
$DIMASZ
 40
2.5
  9
$DIMEXO
 40
0.625
  9
$DIMDLI
 40
3.75
  9
$DIMRND
 40
0.0
  9
$DIMDLE
 40
0.0
  9
$DIMEXE
 40
1.25
  9
$DIMTP
 40
0.0
  9
$DIMTM
 40
0.0
  9
$DIMTXT
 40
2.5
  9
$DIMCEN
 40
0.5
  9
$DIMTSZ
 40
0.0
  9
$DIMTOL
 70
     0
  9
$DIMLIM
 70
     0
  9
$DIMTIH
 70
     0
  9
$DIMTOH
 70
     0
  9
$DIMSE1
 70
     0
  9
$DIMSE2
 70
     0
  9
$DIMTAD
 70
     3
  9
$DIMZIN
 70
     8
  9
$DIMBLK
  1

  9
$DIMASO
 70
     1
  9
$DIMSHO
 70
     1
  9
$DIMPOST
  1

  9
$DIMAPOST
  1

  9
$DIMALT
 70
     0
  9
$DIMALTD
 70
     4
  9
$DIMALTF
 40
0.0394
  9
$DIMLFAC
 40
1.0
  9
$DIMTOFL
 70
     1
  9
$DIMTVP
 40
0.0
  9
$DIMTIX
 70
     0
  9
$DIMSOXD
 70
     0
  9
$DIMSAH
 70
     0
  9
$DIMBLK1
  1

  9
$DIMBLK2
  1

  9
$DIMSTYLE
  2
STANDARD_WS
  9
$DIMCLRD
 70
     0
  9
$DIMCLRE
 70
     0
  9
$DIMCLRT
 70
   256
  9
$DIMTFAC
 40
1.0
  9
$DIMGAP
 40
1.2
  9
$DIMJUST
 70
     0
  9
$DIMSD1
 70
     0
  9
$DIMSD2
 70
     0
  9
$DIMTOLJ
 70
     1
  9
$DIMTZIN
 70
     0
  9
$DIMALTZ
 70
     0
  9
$DIMALTTZ
 70
     0
  9
$DIMFIT
 70
     3
  9
$DIMUPT
 70
     0
  9
$DIMUNIT
 70
     2
  9
$DIMDEC
 70
     4
  9
$DIMTDEC
 70
     4
  9
$DIMALTU
 70
     8
  9
$DIMALTTD
 70
     4
  9
$DIMTXSTY
  7
BIGFONT
  9
$DIMAUNIT
 70
     0
  9
$LUNITS
 70
     2
  9
$LUPREC
 70
     4
  9
$SKETCHINC
 40
1.0
  9
$FILLETRAD
 40
0.0
  9
$AUNITS
 70
     0
  9
$AUPREC
 70
     0
  9
$MENU
  1
acad
  9
$ELEVATION
 40
0.0
  9
$PELEVATION
 40
0.0
  9
$THICKNESS
 40
0.0
  9
$LIMCHECK
 70
     0
  9
$BLIPMODE
 70
     0
  9
$CHAMFERA
 40
0.5
  9
$CHAMFERB
 40
0.5
  9
$CHAMFERC
 40
20.0
  9
$CHAMFERD
 40
0.0
  9
$SKPOLY
 70
     0
  9
$TDCREATE
 40
2451225.415346065
  9
$TDUPDATE
 40
2453594.442521330
  9
$TDINDWG
 40
0.2819554745
  9
$TDUSRTIMER
 40
0.2819554745
  9
$USRTIMER
 70
     1
  9
$ANGBASE
 50
0.0
  9
$ANGDIR
 70
     0
  9
$PDMODE
 70
     0
  9
$PDSIZE
 40
0.0
  9
$PLINEWID
 40
0.0
  9
$COORDS
 70
     1
  9
$SPLFRAME
 70
     0
  9
$SPLINETYPE
 70
     6
  9
$SPLINESEGS
 70
     8
  9
$ATTDIA
 70
     0
  9
$ATTREQ
 70
     1
  9
$HANDLING
 70
     1
  9
$HANDSEED
  5
F9B
  9
$SURFTAB1
 70
     6
  9
$SURFTAB2
 70
     6
  9
$SURFTYPE
 70
     6
  9
$SURFU
 70
     6
  9
$SURFV
 70
     6
  9
$UCSNAME
  2

  9
$UCSORG
 10
0.0
 20
0.0
 30
0.0
  9
$UCSXDIR
 10
1.0
 20
0.0
 30
0.0
  9
$UCSYDIR
 10
0.0
 20
1.0
 30
0.0
  9
$PUCSNAME
  2

  9
$PUCSORG
 10
0.0
 20
0.0
 30
0.0
  9
$PUCSXDIR
 10
1.0
 20
0.0
 30
0.0
  9
$PUCSYDIR
 10
0.0
 20
1.0
 30
0.0
  9
$USERI1
 70
     0
  9
$USERI2
 70
     0
  9
$USERI3
 70
     0
  9
$USERI4
 70
     0
  9
$USERI5
 70
     0
  9
$USERR1
 40
0.0
  9
$USERR2
 40
0.0
  9
$USERR3
 40
0.0
  9
$USERR4
 40
0.0
  9
$USERR5
 40
0.0
  9
$WORLDVIEW
 70
     1
  9
$SHADEDGE
 70
     3
  9
$SHADEDIF
 70
    70
  9
$TILEMODE
 70
     1
  9
$MAXACTVP
 70
    48
  9
$PINSBASE
 10
0.0
 20
0.0
 30
0.0
  9
$PLIMCHECK
 70
     0
  9
$PEXTMIN
 10
1.000000E+20
 20
1.000000E+20
 30
1.000000E+20
  9
$PEXTMAX
 10
-1.000000E+20
 20
-1.000000E+20
 30
-1.000000E+20
  9
$PLIMMIN
 10
0.0
 20
0.0
  9
$PLIMMAX
 10
420.0
 20
297.0
  9
$UNITMODE
 70
     0
  9
$VISRETAIN
 70
     1
  9
$PLINEGEN
 70
     0
  9
$PSLTSCALE
 70
     0
  9
$TREEDEPTH
 70
  3020
  9
$PICKSTYLE
 70
     1
  9
$CMLSTYLE
  2
STANDARD
  9
$CMLJUST
 70
     0
  9
$CMLSCALE
 40
20.0
  9
$PROXYGRAPHICS
 70
     1
  9
$MEASUREMENT
 70
     0
  0
ENDSEC
  0
SECTION
  2
CLASSES
  0
CLASS
  1
DICTIONARYVAR
  2
AcDbDictionaryVar
  3
"AutoCAD"
 90
        0
280
     0
281
     0
  0
CLASS
  1
HATCH
  2
AcDbHatch
  3
"ACAD_SEDONA"
 90
        0
280
     0
281
     1
  0
CLASS
  1
LWPOLYLINE
  2
AcDbPolyline
  3
"AutoCAD"
 90
        0
280
     0
281
     1
  0
CLASS
  1
ACDBDICTIONARYWDFLT
  2
AcDbDictionaryWithDefault
  3
AutoCAD 2000
 90
        0
280
     0
281
     0
  0
CLASS
  1
ACDBPLACEHOLDER
  2
AcDbPlaceHolder
  3
AutoCAD 2000
 90
        0
280
     0
281
     0
  0
CLASS
  1
LAYOUT
  2
AcDbLayout
  3
AutoCAD 2000
 90
        0
280
     0
281
     0
  0
CLASS
  1
LONG_TRANSACTION
  2
AcDbLongTransaction
  3
AutoCAD 2000
 90
        0
280
     0
281
     0
  0
CLASS
  1
LWPOLYLINE
  2
AcDbPolyline
  3
"AutoCAD"
 90
        0
280
     0
281
     1
  0
CLASS
  1
HATCH
  2
AcDbHatch
  3
"ACAD_SEDONA"
 90
        0
280
     0
281
     1
  0
CLASS
  1
XRECORD
  2
AcDbXrecord
  3
"<Built In>"
 90
        0
280
     0
281
     0
  0
ENDSEC
  0
SECTION
  2
TABLES
  0
TABLE
  2
VPORT
  5
8
100
AcDbSymbolTable
 70
     2
  0
VPORT
  5
F9A
100
AcDbSymbolTableRecord
100
AcDbViewportTableRecord
  2
*ACTIVE
 70
     0
 10
0.0
 20
0.0
 11
1.0
 21
1.0
 12
106.820394
 22
131.775371
 13
0.0
 23
0.0
 14
10.0
 24
10.0
 15
10.0
 25
10.0
 16
0.0
 26
0.0
 36
1.0
 17
0.0
 27
0.0
 37
0.0
 40
143.50302
 41
1.434944
 42
50.0
 43
0.0
 44
0.0
 50
0.0
 51
0.0
 71
     0
 72
   100
 73
     1
 74
     0
 75
     0
 76
     0
 77
     0
 78
     0
  0
ENDTAB
  0
TABLE
  2
LTYPE
  5
5
100
AcDbSymbolTable
 70
     3
  0
LTYPE
  5
12
100
AcDbSymbolTableRecord
100
AcDbLinetypeTableRecord
  2
BYBLOCK
 70
     0
  3

 72
    65
 73
     0
 40
0.0
  0
LTYPE
  5
13
100
AcDbSymbolTableRecord
100
AcDbLinetypeTableRecord
  2
BYLAYER
 70
     0
  3

 72
    65
 73
     0
 40
0.0
  0
LTYPE
  5
14
100
AcDbSymbolTableRecord
100
AcDbLinetypeTableRecord
  2
CONTINUOUS
 70
     0
  3
Solid line
 72
    65
 73
     0
 40
0.0
  0
LTYPE
  5
11A
100
AcDbSymbolTableRecord
100
AcDbLinetypeTableRecord
  2
CENTER
 70
     0
  3
Center ____ _ ____ _ ____ _ ____ _ ____ _ ____
 72
    65
 73
     4
 40
50.8
 49
31.75
 74
     0
 49
-6.35
 74
     0
 49
6.35
 74
     0
 49
-6.35
 74
     0
  0
LTYPE
  5
11B
100
AcDbSymbolTableRecord
100
AcDbLinetypeTableRecord
  2
HIDDEN
 70
     0
  3
Hidden __ __ __ __ __ __ __ __ __ __ __ __ __ _
 72
    65
 73
     2
 40
9.525
 49
6.35
 74
     0
 49
-3.175
 74
     0
  0
ENDTAB
  0
TABLE
  2
LAYER
  5
2
100
AcDbSymbolTable
 70
     6
  0
LAYER
  5
E
100
AcDbSymbolTableRecord
100
AcDbLayerTableRecord
  2
0
 70
     0
 62
     7
  6
CONTINUOUS
  0
LAYER
  5
37
100
AcDbSymbolTableRecord
100
AcDbLayerTableRecord
  2
図枠
 70
     0
 62
     7
  6
CONTINUOUS
  0
LAYER
  5
38
100
AcDbSymbolTableRecord
100
AcDbLayerTableRecord
  2
図枠部品表
 70
     0
 62
     7
  6
CONTINUOUS
  0
LAYER
  5
215
100
AcDbSymbolTableRecord
100
AcDbLayerTableRecord
  2
CENTER
 70
     0
 62
     2
  6
CENTER
  0
LAYER
  5
216
100
AcDbSymbolTableRecord
100
AcDbLayerTableRecord
  2
DIM
 70
     0
 62
     4
  6
CONTINUOUS
  0
LAYER
  5
21F
100
AcDbSymbolTableRecord
100
AcDbLayerTableRecord
  2
DEFPOINTS
 70
     0
 62
     7
  6
CONTINUOUS
  0
ENDTAB
  0
TABLE
  2
STYLE
  5
3
100
AcDbSymbolTable
 70
     4
  0
STYLE
  5
F
100
AcDbSymbolTableRecord
100
AcDbTextStyleTableRecord
  2
STANDARD
 70
     0
 40
0.0
 41
1.0
 50
0.0
 71
     0
 42
2.5
  3
txt
  4

  0
STYLE
  5
39
100
AcDbSymbolTableRecord
100
AcDbTextStyleTableRecord
  2
BIGFONT
 70
     0
 40
0.0
 41
1.0
 50
0.0
 71
     0
 42
10.0
  3
txt.shx
  4
bigfont.shx
  0
STYLE
  5
3B
100
AcDbSymbolTableRecord
100
AcDbTextStyleTableRecord
  2
KANJI
 70
     0
 40
0.0
 41
1.0
 50
0.0
 71
     0
 42
3.0
  3
TXT
  4
BIGFONT
  0
STYLE
  5
E84
100
AcDbSymbolTableRecord
100
AcDbTextStyleTableRecord
  2

 70
     1
 40
0.0
 41
1.0
 50
0.0
 71
     0
 42
2.5
  3
ltypeshp.shx
  4

  0
ENDTAB
  0
TABLE
  2
VIEW
  5
6
100
AcDbSymbolTable
 70
     0
  0
ENDTAB
  0
TABLE
  2
UCS
  5
7
100
AcDbSymbolTable
 70
     0
  0
ENDTAB
  0
TABLE
  2
APPID
  5
9
100
AcDbSymbolTable
 70
    34
  0
APPID
  5
10
100
AcDbSymbolTableRecord
100
AcDbRegAppTableRecord
  2
ACAD
 70
     0
  0
APPID
  5
24
100
AcDbSymbolTableRecord
100
AcDbRegAppTableRecord
  2
CONTENTTABDATA
 70
     0
  0
APPID
  5
25
100
AcDbSymbolTableRecord
100
AcDbRegAppTableRecord
  2
CONTENTCURRENTTAB
 70
     0
  0
APPID
  5
422
100
AcDbSymbolTableRecord
100
AcDbRegAppTableRecord
  2
CONTENTBLOCKDESCRIPTION
 70
     0
  0
APPID
  5
E8E
100
AcDbSymbolTableRecord
100
AcDbRegAppTableRecord
  2
MCAD_NO_VIS
 70
     0
  0
APPID
  5
E8F
100
AcDbSymbolTableRecord
100
AcDbRegAppTableRecord
  2
ACAD_TEMP_GRAPHIC
 70
     0
  0
APPID
  5
E90
100
AcDbSymbolTableRecord
100
AcDbRegAppTableRecord
  2
GEVID966397200
 70
     0
  0
APPID
  5
E91
100
AcDbSymbolTableRecord
100
AcDbRegAppTableRecord
  2
GEVDC
 70
     0
  0
APPID
  5
E92
100
AcDbSymbolTableRecord
100
AcDbRegAppTableRecord
  2
GEVCON
 70
     0
  0
APPID
  5
E93
100
AcDbSymbolTableRecord
100
AcDbRegAppTableRecord
  2
GEVID966397201
 70
     0
  0
APPID
  5
E94
100
AcDbSymbolTableRecord
100
AcDbRegAppTableRecord
  2
GEVID966397202
 70
     0
  0
APPID
  5
E95
100
AcDbSymbolTableRecord
100
AcDbRegAppTableRecord
  2
GEVID966397203
 70
     0
  0
APPID
  5
E96
100
AcDbSymbolTableRecord
100
AcDbRegAppTableRecord
  2
GEVID966397204
 70
     0
  0
APPID
  5
E97
100
AcDbSymbolTableRecord
100
AcDbRegAppTableRecord
  2
GEVID966397205
 70
     0
  0
APPID
  5
E98
100
AcDbSymbolTableRecord
100
AcDbRegAppTableRecord
  2
GEVID966397206
 70
     0
  0
APPID
  5
E99
100
AcDbSymbolTableRecord
100
AcDbRegAppTableRecord
  2
GENIUS_GENBH_13
 70
     0
  0
APPID
  5
E9A
100
AcDbSymbolTableRecord
100
AcDbRegAppTableRecord
  2
GENIUS_GENODEF_13
 70
     0
  0
APPID
  5
E9B
100
AcDbSymbolTableRecord
100
AcDbRegAppTableRecord
  2
GENIUS_GENOBJ-NBEHI-BHF_13
 70
     0
  0
APPID
  5
E9C
100
AcDbSymbolTableRecord
100
AcDbRegAppTableRecord
  2
GENIUS_GENOENT_13
 70
     0
  0
APPID
  5
E9D
100
AcDbSymbolTableRecord
100
AcDbRegAppTableRecord
  2
GENIUS_GENOREF_13
 70
     0
  0
APPID
  5
E9E
100
AcDbSymbolTableRecord
100
AcDbRegAppTableRecord
  2
GENIUS_GENOLIS_13
 70
     0
  0
APPID
  5
E9F
100
AcDbSymbolTableRecord
100
AcDbRegAppTableRecord
  2
GENIUS_GENOBJ-NBEHI-BHB_13
 70
     0
  0
APPID
  5
EA0
100
AcDbSymbolTableRecord
100
AcDbRegAppTableRecord
  2
GEVID966397207
 70
     0
  0
APPID
  5
EA1
100
AcDbSymbolTableRecord
100
AcDbRegAppTableRecord
  2
GENIUS_GENOBJ-F-SCPASSM_13
 70
     0
  0
APPID
  5
EA2
100
AcDbSymbolTableRecord
100
AcDbRegAppTableRecord
  2
GENIUS_GENDTOL_13
 70
     0
  0
APPID
  5
EA3
100
AcDbSymbolTableRecord
100
AcDbRegAppTableRecord
  2
GEVID966521051
 70
     0
  0
APPID
  5
EA4
100
AcDbSymbolTableRecord
100
AcDbRegAppTableRecord
  2
GEVID966521052
 70
     0
  0
APPID
  5
EA5
100
AcDbSymbolTableRecord
100
AcDbRegAppTableRecord
  2
GEVID966521054
 70
     0
  0
APPID
  5
EA6
100
AcDbSymbolTableRecord
100
AcDbRegAppTableRecord
  2
GEVID966521055
 70
     0
  0
APPID
  5
EA7
100
AcDbSymbolTableRecord
100
AcDbRegAppTableRecord
  2
GEVID966521056
 70
     0
  0
APPID
  5
EA8
100
AcDbSymbolTableRecord
100
AcDbRegAppTableRecord
  2
GEVID966521057
 70
     0
  0
APPID
  5
EA9
100
AcDbSymbolTableRecord
100
AcDbRegAppTableRecord
  2
GEVID966521058
 70
     0
  0
APPID
  5
EAA
100
AcDbSymbolTableRecord
100
AcDbRegAppTableRecord
  2
GEVID966521059
 70
     0
  0
APPID
  5
F87
100
AcDbSymbolTableRecord
100
AcDbRegAppTableRecord
  2
ADE
 70
     0
  0
ENDTAB
  0
TABLE
  2
DIMSTYLE
  5
A
100
AcDbSymbolTable
 70
     2
  0
DIMSTYLE
105
35
100
AcDbSymbolTableRecord
100
AcDbDimStyleTableRecord
  2
STANDARD_WS
 70
     0
  3

  4

  5

  6

  7

 40
1.0
 41
2.5
 42
0.625
 43
3.75
 44
1.25
 45
0.0
 46
0.0
 47
0.0
 48
0.0
140
2.5
141
2.5
142
0.0
143
0.0394
144
1.0
145
0.0
146
1.0
147
0.625
 71
     0
 72
     0
 73
     0
 74
     0
 75
     0
 76
     0
 77
     1
 78
     8
170
     0
171
     4
172
     1
173
     0
174
     0
175
     0
176
     0
177
     0
178
     0
270
     2
271
     4
272
     4
273
     8
274
     4
340
F
275
     0
280
     0
281
     0
282
     0
283
     1
284
     0
285
     0
286
     0
287
     3
288
     0
  0
DIMSTYLE
105
E87
100
AcDbSymbolTableRecord
100
AcDbDimStyleTableRecord
  2
AM_JIS
 70
     0
  3

  4
"
  5
OPEN30
  6
OPEN30
  7
OPEN30
 40
1.0
 41
2.5
 42
1.0
 43
10.0
 44
1.0
 45
0.0
 46
0.0
 47
0.1
 48
0.1
140
3.5
141
0.0
142
0.0
143
0.03937
144
1.0
145
0.0
146
0.71
147
1.5
 71
     0
 72
     0
 73
     0
 74
     0
 75
     0
 76
     0
 77
     3
 78
     8
170
     0
171
     2
172
     1
173
     0
174
     0
175
     0
176
   256
177
   256
178
     2
270
     2
271
     2
272
     3
273
     2
274
     4
340
F
275
     0
280
     0
281
     0
282
     0
283
     0
284
     0
285
     0
286
     0
287
     3
288
     0
  0
ENDTAB
  0
TABLE
  2
BLOCK_RECORD
  5
1
100
AcDbSymbolTable
 70
    13
  0
BLOCK_RECORD
  5
18
102
{ACAD_XDICTIONARY
360
F8C
102
}
100
AcDbSymbolTableRecord
100
AcDbBlockTableRecord
  2
*MODEL_SPACE
  0
BLOCK_RECORD
  5
15
102
{ACAD_XDICTIONARY
360
F8A
102
}
100
AcDbSymbolTableRecord
100
AcDbBlockTableRecord
  2
*PAPER_SPACE
  0
BLOCK_RECORD
  5
B45
100
AcDbSymbolTableRecord
100
AcDbBlockTableRecord
  2
*D0
  0
BLOCK_RECORD
  5
B52
100
AcDbSymbolTableRecord
100
AcDbBlockTableRecord
  2
*D1
  0
BLOCK_RECORD
  5
B5F
100
AcDbSymbolTableRecord
100
AcDbBlockTableRecord
  2
*D2
  0
BLOCK_RECORD
  5
B7D
100
AcDbSymbolTableRecord
100
AcDbBlockTableRecord
  2
*D3
  0
BLOCK_RECORD
  5
B90
100
AcDbSymbolTableRecord
100
AcDbBlockTableRecord
  2
*D4
  0
BLOCK_RECORD
  5
B9D
100
AcDbSymbolTableRecord
100
AcDbBlockTableRecord
  2
*D5
  0
BLOCK_RECORD
  5
BAA
100
AcDbSymbolTableRecord
100
AcDbBlockTableRecord
  2
*D6
  0
BLOCK_RECORD
  5
BB7
100
AcDbSymbolTableRecord
100
AcDbBlockTableRecord
  2
*D7
  0
BLOCK_RECORD
  5
BD0
100
AcDbSymbolTableRecord
100
AcDbBlockTableRecord
  2
*D8
  0
BLOCK_RECORD
  5
BDA
100
AcDbSymbolTableRecord
100
AcDbBlockTableRecord
  2
*D9
  0
BLOCK_RECORD
  5
BE7
100
AcDbSymbolTableRecord
100
AcDbBlockTableRecord
  2
*D10
  0
BLOCK_RECORD
  5
E71
100
AcDbSymbolTableRecord
100
AcDbBlockTableRecord
  2
_OPEN30
  0
BLOCK_RECORD
  5
E77
100
AcDbSymbolTableRecord
100
AcDbBlockTableRecord
  2
GENAXEH
  0
ENDTAB
  0
ENDSEC
  0
SECTION
  2
BLOCKS
  0
BLOCK
  5
19
100
AcDbEntity
  8
0
100
AcDbBlockBegin
  2
*MODEL_SPACE
 70
     2
 10
0.0
 20
0.0
 30
0.0
  3
*MODEL_SPACE
  1

  0
ENDBLK
  5
1A
100
AcDbEntity
  8
0
100
AcDbBlockEnd
  0
BLOCK
  5
16
100
AcDbEntity
 67
     1
  8
0
100
AcDbBlockBegin
  2
*PAPER_SPACE
 70
     0
 10
0.0
 20
0.0
 30
0.0
  3
*PAPER_SPACE
  1

  0
ENDBLK
  5
17
100
AcDbEntity
 67
     1
  8
0
100
AcDbBlockEnd
  0
BLOCK
  5
B46
100
AcDbEntity
  8
0
100
AcDbBlockBegin
  2
*D0
 70
     1
 10
0.0
 20
0.0
 30
0.0
  3
*D0
  1

  0
LINE
  5
F76
100
AcDbEntity
  8
DIM
 62
     0
100
AcDbLine
 10
134.448656
 20
160.781154
 30
0.0
 11
164.859432
 21
160.781154
 31
0.0
  0
LINE
  5
F77
100
AcDbEntity
  8
DIM
 62
     0
100
AcDbLine
 10
156.198656
 20
148.281154
 30
0.0
 11
164.859432
 21
148.281154
 31
0.0
  0
LINE
  5
F78
100
AcDbEntity
  8
DIM
 62
     0
100
AcDbLine
 10
163.609432
 20
158.281154
 30
0.0
 11
163.609432
 21
150.781154
 31
0.0
  0
SOLID
  5
F79
100
AcDbEntity
  8
DIM
 62
     0
100
AcDbTrace
 10
163.192765
 20
158.281154
 30
0.0
 11
164.026099
 21
158.281154
 31
0.0
 12
163.609432
 22
160.781154
 32
0.0
 13
163.609432
 23
160.781154
 33
0.0
  0
SOLID
  5
F7A
100
AcDbEntity
  8
DIM
 62
     0
100
AcDbTrace
 10
163.192765
 20
150.781154
 30
0.0
 11
164.026099
 21
150.781154
 31
0.0
 12
163.609432
 22
148.281154
 32
0.0
 13
163.609432
 23
148.281154
 33
0.0
  0
MTEXT
  5
F7B
100
AcDbEntity
  8
DIM
100
AcDbMText
 10
161.159432
 20
154.531154
 30
0.0
 40
2.5
 41
0.0
 71
     5
 72
     5
  1
\A1;12.5
  7
BIGFONT
 11
0.0
 21
1.0
 31
0.0
1001
ACAD
1000
MTEXTBEGIN
1070
    73
1070
     1
1070
    44
1040
1.0
1070
    74
1070
     0
1000
MTEXTEND
  0
POINT
  5
F7C
100
AcDbEntity
  8
DEFPOINTS
 62
     0
100
AcDbPoint
 10
133.823656
 20
160.781154
 30
0.0
  0
POINT
  5
F7D
100
AcDbEntity
  8
DEFPOINTS
 62
     0
100
AcDbPoint
 10
155.573656
 20
148.281154
 30
0.0
  0
POINT
  5
F7E
100
AcDbEntity
  8
DEFPOINTS
 62
     0
100
AcDbPoint
 10
163.609432
 20
148.281154
 30
0.0
  0
ENDBLK
  5
B50
100
AcDbEntity
  8
0
100
AcDbBlockEnd
  0
BLOCK
  5
B53
100
AcDbEntity
  8
0
100
AcDbBlockBegin
  2
*D1
 70
     1
 10
0.0
 20
0.0
 30
0.0
  3
*D1
  1

  0
LINE
  5
F6D
100
AcDbEntity
  8
DIM
 62
     0
100
AcDbLine
 10
109.948656
 20
148.281154
 30
0.0
 11
105.053557
 21
148.281154
 31
0.0
  0
LINE
  5
F6E
100
AcDbEntity
  8
DIM
 62
     0
100
AcDbLine
 10
112.293012
 20
138.281154
 30
0.0
 11
105.053557
 21
138.281154
 31
0.0
  0
LINE
  5
F6F
100
AcDbEntity
  8
DIM
 62
     0
100
AcDbLine
 10
106.303557
 20
145.781154
 30
0.0
 11
106.303557
 21
140.781154
 31
0.0
  0
SOLID
  5
F70
100
AcDbEntity
  8
DIM
 62
     0
100
AcDbTrace
 10
105.886891
 20
145.781154
 30
0.0
 11
106.720224
 21
145.781154
 31
0.0
 12
106.303557
 22
148.281154
 32
0.0
 13
106.303557
 23
148.281154
 33
0.0
  0
SOLID
  5
F71
100
AcDbEntity
  8
DIM
 62
     0
100
AcDbTrace
 10
105.886891
 20
140.781154
 30
0.0
 11
106.720224
 21
140.781154
 31
0.0
 12
106.303557
 22
138.281154
 32
0.0
 13
106.303557
 23
138.281154
 33
0.0
  0
MTEXT
  5
F72
100
AcDbEntity
  8
DIM
100
AcDbMText
 10
103.853557
 20
143.281154
 30
0.0
 40
2.5
 41
0.0
 71
     5
 72
     5
  1
\A1;10
  7
BIGFONT
 11
0.0
 21
1.0
 31
0.0
1001
ACAD
1000
MTEXTBEGIN
1070
    73
1070
     1
1070
    44
1040
1.0
1070
    74
1070
     0
1000
MTEXTEND
  0
POINT
  5
F73
100
AcDbEntity
  8
DEFPOINTS
 62
     0
100
AcDbPoint
 10
110.573656
 20
148.281154
 30
0.0
  0
POINT
  5
F74
100
AcDbEntity
  8
DEFPOINTS
 62
     0
100
AcDbPoint
 10
112.918012
 20
138.281154
 30
0.0
  0
POINT
  5
F75
100
AcDbEntity
  8
DEFPOINTS
 62
     0
100
AcDbPoint
 10
106.303557
 20
138.281154
 30
0.0
  0
ENDBLK
  5
B5D
100
AcDbEntity
  8
0
100
AcDbBlockEnd
  0
BLOCK
  5
B60
100
AcDbEntity
  8
0
100
AcDbBlockBegin
  2
*D2
 70
     1
 10
0.0
 20
0.0
 30
0.0
  3
*D2
  1

  0
LINE
  5
F62
100
AcDbEntity
  8
DIM
 62
     0
100
AcDbLine
 10
127.073656
 20
131.216872
 30
0.0
 11
127.073656
 21
108.613673
 31
0.0
  0
LINE
  5
F63
100
AcDbEntity
  8
DIM
 62
     0
100
AcDbLine
 10
133.073656
 20
125.156154
 30
0.0
 11
133.073656
 21
108.613673
 31
0.0
  0
LINE
  5
F64
100
AcDbEntity
  8
DIM
 62
     0
100
AcDbLine
 10
124.573656
 20
109.863673
 30
0.0
 11
122.073656
 21
109.863673
 31
0.0
  0
LINE
  5
F65
100
AcDbEntity
  8
DIM
 62
     0
100
AcDbLine
 10
135.573656
 20
109.863673
 30
0.0
 11
138.073656
 21
109.863673
 31
0.0
  0
LINE
  5
F66
100
AcDbEntity
  8
DIM
 62
     0
100
AcDbLine
 10
127.073656
 20
109.863673
 30
0.0
 11
133.073656
 21
109.863673
 31
0.0
  0
SOLID
  5
F67
100
AcDbEntity
  8
DIM
 62
     0
100
AcDbTrace
 10
124.573656
 20
110.280339
 30
0.0
 11
124.573656
 21
109.447006
 31
0.0
 12
127.073656
 22
109.863673
 32
0.0
 13
127.073656
 23
109.863673
 33
0.0
  0
SOLID
  5
F68
100
AcDbEntity
  8
DIM
 62
     0
100
AcDbTrace
 10
135.573656
 20
110.280339
 30
0.0
 11
135.573656
 21
109.447006
 31
0.0
 12
133.073656
 22
109.863673
 32
0.0
 13
133.073656
 23
109.863673
 33
0.0
  0
MTEXT
  5
F69
100
AcDbEntity
  8
DIM
100
AcDbMText
 10
130.073656
 20
112.313673
 30
0.0
 40
2.5
 41
0.0
 71
     5
 72
     5
  1
\A1;6
  7
BIGFONT
1001
ACAD
1000
MTEXTBEGIN
1070
    73
1070
     1
1070
    44
1040
1.0
1070
    74
1070
     0
1000
MTEXTEND
  0
POINT
  5
F6A
100
AcDbEntity
  8
DEFPOINTS
 62
     0
100
AcDbPoint
 10
127.073656
 20
131.841872
 30
0.0
  0
POINT
  5
F6B
100
AcDbEntity
  8
DEFPOINTS
 62
     0
100
AcDbPoint
 10
133.073656
 20
125.781154
 30
0.0
  0
POINT
  5
F6C
100
AcDbEntity
  8
DEFPOINTS
 62
     0
100
AcDbPoint
 10
133.073656
 20
109.863673
 30
0.0
  0
ENDBLK
  5
B6C
100
AcDbEntity
  8
0
100
AcDbBlockEnd
  0
BLOCK
  5
B7E
100
AcDbEntity
  8
0
100
AcDbBlockBegin
  2
*D3
 70
     1
 10
0.0
 20
0.0
 30
0.0
  3
*D3
  1

  0
LINE
  5
F57
100
AcDbEntity
  8
DIM
 62
     0
100
AcDbLine
 10
132.323656
 20
130.172233
 30
0.0
 11
132.323656
 21
115.817999
 31
0.0
  0
LINE
  5
F58
100
AcDbEntity
  8
DIM
 62
     0
100
AcDbLine
 10
133.823656
 20
130.172233
 30
0.0
 11
133.823656
 21
115.817999
 31
0.0
  0
LINE
  5
F59
100
AcDbEntity
  8
DIM
 62
     0
100
AcDbLine
 10
129.823656
 20
117.067999
 30
0.0
 11
127.323656
 21
117.067999
 31
0.0
  0
LINE
  5
F5A
100
AcDbEntity
  8
DIM
 62
     0
100
AcDbLine
 10
136.323656
 20
117.067999
 30
0.0
 11
145.390323
 21
117.067999
 31
0.0
  0
LINE
  5
F5B
100
AcDbEntity
  8
DIM
 62
     0
100
AcDbLine
 10
132.323656
 20
117.067999
 30
0.0
 11
133.823656
 21
117.067999
 31
0.0
  0
SOLID
  5
F5C
100
AcDbEntity
  8
DIM
 62
     0
100
AcDbTrace
 10
129.823656
 20
117.484666
 30
0.0
 11
129.823656
 21
116.651333
 31
0.0
 12
132.323656
 22
117.067999
 32
0.0
 13
132.323656
 23
117.067999
 33
0.0
  0
SOLID
  5
F5D
100
AcDbEntity
  8
DIM
 62
     0
100
AcDbTrace
 10
136.323656
 20
117.484666
 30
0.0
 11
136.323656
 21
116.651333
 31
0.0
 12
133.823656
 22
117.067999
 32
0.0
 13
133.823656
 23
117.067999
 33
0.0
  0
MTEXT
  5
F5E
100
AcDbEntity
  8
DIM
100
AcDbMText
 10
142.106989
 20
119.517999
 30
0.0
 40
2.5
 41
0.0
 71
     5
 72
     5
  1
\A1;1.5
  7
BIGFONT
1001
ACAD
1000
MTEXTBEGIN
1070
    73
1070
     1
1070
    44
1040
1.0
1070
    74
1070
     0
1000
MTEXTEND
  0
POINT
  5
F5F
100
AcDbEntity
  8
DEFPOINTS
 62
     0
100
AcDbPoint
 10
132.323656
 20
130.797233
 30
0.0
  0
POINT
  5
F60
100
AcDbEntity
  8
DEFPOINTS
 62
     0
100
AcDbPoint
 10
133.823656
 20
130.797233
 30
0.0
  0
POINT
  5
F61
100
AcDbEntity
  8
DEFPOINTS
 62
     0
100
AcDbPoint
 10
133.823656
 20
117.067999
 30
0.0
  0
ENDBLK
  5
B8A
100
AcDbEntity
  8
0
100
AcDbBlockEnd
  0
BLOCK
  5
BC4
100
AcDbEntity
  8
0
100
AcDbBlockBegin
  2
*D4
 70
     1
 10
0.0
 20
0.0
 30
0.0
  3
*D4
  1

  0
LINE
  5
F4C
100
AcDbEntity
  8
DIM
 62
     0
100
AcDbLine
 10
68.896055
 20
131.216872
 30
0.0
 11
68.896055
 21
115.419348
 31
0.0
  0
LINE
  5
F4D
100
AcDbEntity
  8
DIM
 62
     0
100
AcDbLine
 10
56.896055
 20
131.216872
 30
0.0
 11
56.896055
 21
115.419348
 31
0.0
  0
LINE
  5
F4E
100
AcDbEntity
  8
DIM
 62
     0
100
AcDbLine
 10
71.396055
 20
116.669348
 30
0.0
 11
73.896055
 21
116.669348
 31
0.0
  0
LINE
  5
F4F
100
AcDbEntity
  8
DIM
 62
     0
100
AcDbLine
 10
54.396055
 20
116.669348
 30
0.0
 11
51.896055
 21
116.669348
 31
0.0
  0
LINE
  5
F50
100
AcDbEntity
  8
DIM
 62
     0
100
AcDbLine
 10
68.896055
 20
116.669348
 30
0.0
 11
56.896055
 21
116.669348
 31
0.0
  0
SOLID
  5
F51
100
AcDbEntity
  8
DIM
 62
     0
100
AcDbTrace
 10
71.396055
 20
117.086015
 30
0.0
 11
71.396055
 21
116.252681
 31
0.0
 12
68.896055
 22
116.669348
 32
0.0
 13
68.896055
 23
116.669348
 33
0.0
  0
SOLID
  5
F52
100
AcDbEntity
  8
DIM
 62
     0
100
AcDbTrace
 10
54.396055
 20
117.086015
 30
0.0
 11
54.396055
 21
116.252681
 31
0.0
 12
56.896055
 22
116.669348
 32
0.0
 13
56.896055
 23
116.669348
 33
0.0
  0
MTEXT
  5
F53
100
AcDbEntity
  8
DIM
100
AcDbMText
 10
65.771445
 20
119.119348
 30
0.0
 40
2.5
 41
0.0
 71
     5
 72
     5
  1
\A1;12
  7
BIGFONT
1001
ACAD
1000
MTEXTBEGIN
1070
    73
1070
     1
1070
    44
1040
1.0
1070
    74
1070
     0
1000
MTEXTEND
  0
POINT
  5
F54
100
AcDbEntity
  8
DEFPOINTS
 62
     0
100
AcDbPoint
 10
68.896055
 20
131.841872
 30
0.0
  0
POINT
  5
F55
100
AcDbEntity
  8
DEFPOINTS
 62
     0
100
AcDbPoint
 10
56.896055
 20
131.841872
 30
0.0
  0
POINT
  5
F56
100
AcDbEntity
  8
DEFPOINTS
 62
     0
100
AcDbPoint
 10
56.896055
 20
116.669348
 30
0.0
  0
ENDBLK
  5
BCF
100
AcDbEntity
  8
0
100
AcDbBlockEnd
  0
BLOCK
  5
C5C
100
AcDbEntity
  8
0
100
AcDbBlockBegin
  2
*D5
 70
     1
 10
0.0
 20
0.0
 30
0.0
  3
*D5
  1

  0
LINE
  5
F43
100
AcDbEntity
  8
DIM
 62
     0
100
AcDbLine
 10
70.396055
 20
130.656154
 30
0.0
 11
70.396055
 21
106.812591
 31
0.0
  0
LINE
  5
F44
100
AcDbEntity
  8
DIM
 62
     0
100
AcDbLine
 10
62.896055
 20
129.218708
 30
0.0
 11
62.896055
 21
106.812591
 31
0.0
  0
LINE
  5
F45
100
AcDbEntity
  8
DIM
 62
     0
100
AcDbLine
 10
67.896055
 20
108.062591
 30
0.0
 11
65.396055
 21
108.062591
 31
0.0
  0
SOLID
  5
F46
100
AcDbEntity
  8
DIM
 62
     0
100
AcDbTrace
 10
67.896055
 20
108.479258
 30
0.0
 11
67.896055
 21
107.645924
 31
0.0
 12
70.396055
 22
108.062591
 32
0.0
 13
70.396055
 23
108.062591
 33
0.0
  0
SOLID
  5
F47
100
AcDbEntity
  8
DIM
 62
     0
100
AcDbTrace
 10
65.396055
 20
108.479258
 30
0.0
 11
65.396055
 21
107.645924
 31
0.0
 12
62.896055
 22
108.062591
 32
0.0
 13
62.896055
 23
108.062591
 33
0.0
  0
MTEXT
  5
F48
100
AcDbEntity
  8
DIM
100
AcDbMText
 10
66.646055
 20
110.512591
 30
0.0
 40
2.5
 41
0.0
 71
     5
 72
     5
  1
\A1;7.5
  7
BIGFONT
1001
ACAD
1000
MTEXTBEGIN
1070
    73
1070
     1
1070
    44
1040
1.0
1070
    74
1070
     0
1000
MTEXTEND
  0
POINT
  5
F49
100
AcDbEntity
  8
DEFPOINTS
 62
     0
100
AcDbPoint
 10
70.396055
 20
131.281154
 30
0.0
  0
POINT
  5
F4A
100
AcDbEntity
  8
DEFPOINTS
 62
     0
100
AcDbPoint
 10
62.896055
 20
129.843708
 30
0.0
  0
POINT
  5
F4B
100
AcDbEntity
  8
DEFPOINTS
 62
     0
100
AcDbPoint
 10
62.896055
 20
108.062591
 30
0.0
  0
ENDBLK
  5
C66
100
AcDbEntity
  8
0
100
AcDbBlockEnd
  0
BLOCK
  5
C51
100
AcDbEntity
  8
0
100
AcDbBlockBegin
  2
*D6
 70
     1
 10
0.0
 20
0.0
 30
0.0
  3
*D6
  1

  0
LINE
  5
F3A
100
AcDbEntity
  8
DIM
 62
     0
100
AcDbLine
 10
62.896055
 20
129.218708
 30
0.0
 11
62.896055
 21
106.812591
 31
0.0
  0
LINE
  5
F3B
100
AcDbEntity
  8
DIM
 62
     0
100
AcDbLine
 10
55.396055
 20
130.656154
 30
0.0
 11
55.396055
 21
106.812591
 31
0.0
  0
LINE
  5
F3C
100
AcDbEntity
  8
DIM
 62
     0
100
AcDbLine
 10
60.396055
 20
108.062591
 30
0.0
 11
57.896055
 21
108.062591
 31
0.0
  0
SOLID
  5
F3D
100
AcDbEntity
  8
DIM
 62
     0
100
AcDbTrace
 10
60.396055
 20
108.479258
 30
0.0
 11
60.396055
 21
107.645924
 31
0.0
 12
62.896055
 22
108.062591
 32
0.0
 13
62.896055
 23
108.062591
 33
0.0
  0
SOLID
  5
F3E
100
AcDbEntity
  8
DIM
 62
     0
100
AcDbTrace
 10
57.896055
 20
108.479258
 30
0.0
 11
57.896055
 21
107.645924
 31
0.0
 12
55.396055
 22
108.062591
 32
0.0
 13
55.396055
 23
108.062591
 33
0.0
  0
MTEXT
  5
F3F
100
AcDbEntity
  8
DIM
100
AcDbMText
 10
59.146055
 20
110.512591
 30
0.0
 40
2.5
 41
0.0
 71
     5
 72
     5
  1
\A1;7.5
  7
BIGFONT
1001
ACAD
1000
MTEXTBEGIN
1070
    73
1070
     1
1070
    44
1040
1.0
1070
    74
1070
     0
1000
MTEXTEND
  0
POINT
  5
F40
100
AcDbEntity
  8
DEFPOINTS
 62
     0
100
AcDbPoint
 10
62.896055
 20
129.843708
 30
0.0
  0
POINT
  5
F41
100
AcDbEntity
  8
DEFPOINTS
 62
     0
100
AcDbPoint
 10
55.396055
 20
131.281154
 30
0.0
  0
POINT
  5
F42
100
AcDbEntity
  8
DEFPOINTS
 62
     0
100
AcDbPoint
 10
55.396055
 20
108.062591
 30
0.0
  0
ENDBLK
  5
C5B
100
AcDbEntity
  8
0
100
AcDbBlockEnd
  0
BLOCK
  5
C46
100
AcDbEntity
  8
0
100
AcDbBlockBegin
  2
*D7
 70
     1
 10
0.0
 20
0.0
 30
0.0
  3
*D7
  1

  0
LINE
  5
F31
100
AcDbEntity
  8
DIM
 62
     0
100
AcDbLine
 10
70.396055
 20
130.656154
 30
0.0
 11
70.396055
 21
96.65701
 31
0.0
  0
LINE
  5
F32
100
AcDbEntity
  8
DIM
 62
     0
100
AcDbLine
 10
55.396055
 20
130.656154
 30
0.0
 11
55.396055
 21
96.65701
 31
0.0
  0
LINE
  5
F33
100
AcDbEntity
  8
DIM
 62
     0
100
AcDbLine
 10
67.896055
 20
97.90701
 30
0.0
 11
57.896055
 21
97.90701
 31
0.0
  0
SOLID
  5
F34
100
AcDbEntity
  8
DIM
 62
     0
100
AcDbTrace
 10
67.896055
 20
98.323676
 30
0.0
 11
67.896055
 21
97.490343
 31
0.0
 12
70.396055
 22
97.90701
 32
0.0
 13
70.396055
 23
97.90701
 33
0.0
  0
SOLID
  5
F35
100
AcDbEntity
  8
DIM
 62
     0
100
AcDbTrace
 10
57.896055
 20
98.323676
 30
0.0
 11
57.896055
 21
97.490343
 31
0.0
 12
55.396055
 22
97.90701
 32
0.0
 13
55.396055
 23
97.90701
 33
0.0
  0
MTEXT
  5
F36
100
AcDbEntity
  8
DIM
100
AcDbMText
 10
62.896055
 20
100.35701
 30
0.0
 40
2.5
 41
0.0
 71
     5
 72
     5
  1
\A1;15\H1.5;%%p0.1
  7
BIGFONT
1001
ACAD
1000
MTEXTBEGIN
1070
    73
1070
     1
1070
    44
1040
1.0
1070
    74
1070
     0
1000
MTEXTEND
  0
POINT
  5
F37
100
AcDbEntity
  8
DEFPOINTS
 62
     0
100
AcDbPoint
 10
70.396055
 20
131.281154
 30
0.0
  0
POINT
  5
F38
100
AcDbEntity
  8
DEFPOINTS
 62
     0
100
AcDbPoint
 10
55.396055
 20
131.281154
 30
0.0
  0
POINT
  5
F39
100
AcDbEntity
  8
DEFPOINTS
 62
     0
100
AcDbPoint
 10
55.396055
 20
97.90701
 30
0.0
  0
ENDBLK
  5
C50
100
AcDbEntity
  8
0
100
AcDbBlockEnd
  0
BLOCK
  5
BD1
100
AcDbEntity
  8
0
100
AcDbBlockBegin
  2
*D8
 70
     1
 10
0.0
 20
0.0
 30
0.0
  3
*D8
  1

  0
LINE
  5
F2B
100
AcDbEntity
  8
DIM
 62
     0
100
AcDbLine
 10
79.844494
 20
142.900482
 30
0.0
 11
71.096913
 21
140.516313
 31
0.0
  0
MTEXT
  5
F2C
100
AcDbEntity
  8
DIM
100
AcDbMText
 10
76.03246
 20
144.400874
 30
0.0
 40
2.5
 41
0.0
 71
     5
 72
     5
  1
\A1;R6
  7
BIGFONT
 11
0.964807
 21
0.26296
 31
0.0
1001
ACAD
1000
MTEXTBEGIN
1070
    73
1070
     1
1070
    44
1040
1.0
1070
    74
1070
     0
1000
MTEXTEND
  0
LINE
  5
F2D
100
AcDbEntity
  8
DIM
 62
     0
100
AcDbLine
 10
62.896055
 20
138.281154
 30
0.0
 11
68.684896
 21
139.858913
 31
0.0
  0
SOLID
  5
F2E
100
AcDbEntity
  8
DIM
 62
     0
100
AcDbTrace
 10
70.987346
 20
140.918316
 30
0.0
 11
71.20648
 21
140.11431
 31
0.0
 12
68.684896
 22
139.858913
 32
0.0
 13
68.684896
 23
139.858913
 33
0.0
  0
POINT
  5
F2F
100
AcDbEntity
  8
DEFPOINTS
 62
     0
100
AcDbPoint
 10
68.684896
 20
139.858913
 30
0.0
  0
POINT
  5
F30
100
AcDbEntity
  8
DEFPOINTS
 62
     0
100
AcDbPoint
 10
62.896055
 20
138.281154
 30
0.0
  0
ENDBLK
  5
BD8
100
AcDbEntity
  8
0
100
AcDbBlockEnd
  0
BLOCK
  5
BF8
100
AcDbEntity
  8
0
100
AcDbBlockBegin
  2
*D9
 70
     1
 10
0.0
 20
0.0
 30
0.0
  3
*D9
  1

  0
LINE
  5
F22
100
AcDbEntity
  8
DIM
 62
     0
100
AcDbLine
 10
55.271055
 20
165.781154
 30
0.0
 11
37.396915
 21
165.781154
 31
0.0
  0
LINE
  5
F23
100
AcDbEntity
  8
DIM
 62
     0
100
AcDbLine
 10
55.271055
 20
130.781154
 30
0.0
 11
37.396915
 21
130.781154
 31
0.0
  0
LINE
  5
F24
100
AcDbEntity
  8
DIM
 62
     0
100
AcDbLine
 10
38.646915
 20
163.281154
 30
0.0
 11
38.646915
 21
133.281154
 31
0.0
  0
SOLID
  5
F25
100
AcDbEntity
  8
DIM
 62
     0
100
AcDbTrace
 10
38.230248
 20
163.281154
 30
0.0
 11
39.063582
 21
163.281154
 31
0.0
 12
38.646915
 22
165.781154
 32
0.0
 13
38.646915
 23
165.781154
 33
0.0
  0
SOLID
  5
F26
100
AcDbEntity
  8
DIM
 62
     0
100
AcDbTrace
 10
38.230248
 20
133.281154
 30
0.0
 11
39.063582
 21
133.281154
 31
0.0
 12
38.646915
 22
130.781154
 32
0.0
 13
38.646915
 23
130.781154
 33
0.0
  0
MTEXT
  5
F27
100
AcDbEntity
  8
DIM
100
AcDbMText
 10
36.196915
 20
148.281154
 30
0.0
 40
2.5
 41
0.0
 71
     5
 72
     5
  1
\A1;%%c35\H1.5;%%p0.1
  7
BIGFONT
 11
0.0
 21
1.0
 31
0.0
1001
ACAD
1000
MTEXTBEGIN
1070
    73
1070
     1
1070
    44
1040
1.0
1070
    74
1070
     0
1000
MTEXTEND
  0
POINT
  5
F28
100
AcDbEntity
  8
DEFPOINTS
 62
     0
100
AcDbPoint
 10
55.896055
 20
165.781154
 30
0.0
  0
POINT
  5
F29
100
AcDbEntity
  8
DEFPOINTS
 62
     0
100
AcDbPoint
 10
55.896055
 20
130.781154
 30
0.0
  0
POINT
  5
F2A
100
AcDbEntity
  8
DEFPOINTS
 62
     0
100
AcDbPoint
 10
38.646915
 20
130.781154
 30
0.0
  0
ENDBLK
  5
C02
100
AcDbEntity
  8
0
100
AcDbBlockEnd
  0
BLOCK
  5
C1B
100
AcDbEntity
  8
0
100
AcDbBlockBegin
  2
*D10
 70
     1
 10
0.0
 20
0.0
 30
0.0
  3
*D10
  1

  0
LINE
  5
F18
100
AcDbEntity
  8
DIM
 62
     0
100
AcDbLine
 10
55.271055
 20
153.281154
 30
0.0
 11
42.610693
 21
153.281154
 31
0.0
  0
LINE
  5
F19
100
AcDbEntity
  8
DIM
 62
     0
100
AcDbLine
 10
55.271055
 20
143.281154
 30
0.0
 11
42.610693
 21
143.281154
 31
0.0
  0
LINE
  5
F1A
100
AcDbEntity
  8
DIM
 62
     0
100
AcDbLine
 10
43.860693
 20
145.781154
 30
0.0
 11
43.860693
 21
150.781154
 31
0.0
  0
LINE
  5
F1B
100
AcDbEntity
  8
DIM
 62
     0
100
AcDbLine
 10
43.860693
 20
153.281154
 30
0.0
 11
43.860693
 21
181.163007
 31
0.0
  0
SOLID
  5
F1C
100
AcDbEntity
  8
DIM
 62
     0
100
AcDbTrace
 10
43.444026
 20
145.781154
 30
0.0
 11
44.277359
 21
145.781154
 31
0.0
 12
43.860693
 22
143.281154
 32
0.0
 13
43.860693
 23
143.281154
 33
0.0
  0
SOLID
  5
F1D
100
AcDbEntity
  8
DIM
 62
     0
100
AcDbTrace
 10
43.444026
 20
150.781154
 30
0.0
 11
44.277359
 21
150.781154
 31
0.0
 12
43.860693
 22
153.281154
 32
0.0
 13
43.860693
 23
153.281154
 33
0.0
  0
MTEXT
  5
F1E
100
AcDbEntity
  8
DIM
100
AcDbMText
 10
40.910693
 20
174.088007
 30
0.0
 40
2.5
 41
0.0
 71
     5
 72
     5
  1
\A1;%%c10\H1.5;\S+0.05^ +0.01;
  7
BIGFONT
 11
0.0
 21
1.0
 31
0.0
1001
ACAD
1000
MTEXTBEGIN
1070
    73
1070
     1
1070
    44
1040
1.0
1070
    74
1070
     0
1000
MTEXTEND
  0
POINT
  5
F1F
100
AcDbEntity
  8
DEFPOINTS
 62
     0
100
AcDbPoint
 10
55.896055
 20
153.281154
 30
0.0
  0
POINT
  5
F20
100
AcDbEntity
  8
DEFPOINTS
 62
     0
100
AcDbPoint
 10
55.896055
 20
143.281154
 30
0.0
  0
POINT
  5
F21
100
AcDbEntity
  8
DEFPOINTS
 62
     0
100
AcDbPoint
 10
43.860693
 20
143.281154
 30
0.0
  0
ENDBLK
  5
C26
100
AcDbEntity
  8
0
100
AcDbBlockEnd
  0
BLOCK
  5
E75
100
AcDbEntity
  8
0
100
AcDbBlockBegin
  2
_OPEN30
 70
     0
 10
0.0
 20
0.0
 30
0.0
  3
_OPEN30
  1

  0
LINE
  5
E72
100
AcDbEntity
  8
0
 62
     0
100
AcDbLine
 10
-1.0
 20
0.267949
 30
0.0
 11
0.0
 21
0.0
 31
0.0
  0
LINE
  5
E73
100
AcDbEntity
  8
0
 62
     0
100
AcDbLine
 10
0.0
 20
0.0
 30
0.0
 11
-1.0
 21
-0.267949
 31
0.0
  0
LINE
  5
E74
100
AcDbEntity
  8
0
 62
     0
100
AcDbLine
 10
0.0
 20
0.0
 30
0.0
 11
-1.0
 21
0.0
 31
0.0
  0
ENDBLK
  5
E76
100
AcDbEntity
  8
0
100
AcDbBlockEnd
  0
BLOCK
  5
E79
100
AcDbEntity
  8
0
100
AcDbBlockBegin
  2
GENAXEH
 70
     0
 10
0.0
 20
0.0
 30
0.0
  3
GENAXEH
  1

  0
LINE
  5
E78
100
AcDbEntity
  8
0
100
AcDbLine
 10
-1.0
 20
0.0
 30
0.0
 11
1.0
 21
0.0
 31
0.0
  0
ENDBLK
  5
E7A
100
AcDbEntity
  8
0
100
AcDbBlockEnd
  0
ENDSEC
  0
SECTION
  2
ENTITIES
  0
TEXT
  5
3E9
100
AcDbEntity
  8
図枠部品表
 62
     3
100
AcDbText
 10
403.65269
 20
422.521663
 30
0.0
 40
2.4325
  1

 41
0.8
  7
KANJI
 72
     1
 11
403.65269
 21
423.737913
 31
0.0
100
AcDbText
 73
     2
  0
TEXT
  5
A9F
100
AcDbEntity
  8
図枠
 62
     7
100
AcDbText
 10
162.933452
 20
10.11536
 30
0.0
 40
2.6
  1

  7
KANJI
 72
     1
 11
162.933452
 21
11.41536
 31
0.0
100
AcDbText
 73
     2
  0
LINE
  5
AF3
100
AcDbEntity
  8
CENTER
100
AcDbLine
 10
110.573656
 20
148.281154
 30
0.0
 11
155.573656
 21
148.281154
 31
0.0
  0
LINE
  5
AF5
100
AcDbEntity
  8
CENTER
100
AcDbLine
 10
72.574867
 20
148.281154
 30
0.0
 11
53.217244
 21
148.281154
 31
0.0
  0
LINE
  5
AF7
100
AcDbEntity
  8
CENTER
100
AcDbLine
 10
133.073656
 20
125.292871
 30
0.0
 11
133.073656
 21
170.781154
 31
0.0
  0
ARC
  5
AF9
100
AcDbEntity
  8
0
100
AcDbCircle
 10
133.073656
 20
148.281154
 30
0.0
 40
17.5
100
AcDbArc
 50
272.456286
 51
267.543714
  0
ARC
  5
AFA
100
AcDbEntity
  8
0
100
AcDbCircle
 10
133.073656
 20
148.281154
 30
0.0
 40
5.0
100
AcDbArc
 50
98.626927
 51
261.373073
  0
ARC
  5
AFB
100
AcDbEntity
  8
0
100
AcDbCircle
 10
133.073656
 20
148.281154
 30
0.0
 40
17.0
100
AcDbArc
 50
272.528576
 51
267.471424
  0
ARC
  5
AFC
100
AcDbEntity
  8
0
100
AcDbCircle
 10
133.073656
 20
148.281154
 30
0.0
 40
5.5
100
AcDbArc
 50
97.83748
 51
262.16252
  0
LINE
  5
B00
100
AcDbEntity
  8
0
100
AcDbLine
 10
133.823656
 20
160.781154
 30
0.0
 11
133.823656
 21
153.224584
 31
0.0
  0
LINE
  5
B02
100
AcDbEntity
  8
0
100
AcDbLine
 10
132.323656
 20
130.797233
 30
0.0
 11
132.323656
 21
143.337724
 31
0.0
  0
LINE
  5
B04
100
AcDbEntity
  8
0
100
AcDbLine
 10
133.823656
 20
160.781154
 30
0.0
 11
132.323656
 21
160.781154
 31
0.0
  0
LINE
  5
B07
100
AcDbEntity
  8
CENTER
100
AcDbLine
 10
112.918012
 20
138.281154
 30
0.0
 11
153.2293
 21
138.281154
 31
0.0
  0
LINE
  5
B09
100
AcDbEntity
  8
0
100
AcDbLine
 10
133.823656
 20
143.337724
 30
0.0
 11
133.823656
 21
130.797233
 31
0.0
  0
LINE
  5
B0A
100
AcDbEntity
  8
0
100
AcDbLine
 10
132.323656
 20
153.224584
 30
0.0
 11
132.323656
 21
160.781154
 31
0.0
  0
ARC
  5
B0B
100
AcDbEntity
  8
0
100
AcDbCircle
 10
133.073656
 20
148.281154
 30
0.0
 40
5.0
100
AcDbArc
 50
278.626927
 51
81.373073
  0
ARC
  5
B0C
100
AcDbEntity
  8
0
100
AcDbCircle
 10
133.073656
 20
148.281154
 30
0.0
 40
5.5
100
AcDbArc
 50
277.83748
 51
82.16252
  0
LINE
  5
B0F
100
AcDbEntity
  8
CENTER
  6
HIDDEN
 62
     3
100
AcDbLine
 10
144.460206
 20
141.281154
 30
0.0
 11
149.112671
 21
141.281154
 31
0.0
  0
LINE
  5
B12
100
AcDbEntity
  8
CENTER
  6
HIDDEN
 62
     3
100
AcDbLine
 10
144.460206
 20
135.281154
 30
0.0
 11
144.789031
 21
135.281154
 31
0.0
  0
LINE
  5
B14
100
AcDbEntity
  8
0
  6
HIDDEN
100
AcDbLine
 10
127.073656
 20
141.781154
 30
0.0
 11
132.323656
 21
141.781154
 31
0.0
  0
LINE
  5
B15
100
AcDbEntity
  8
0
  6
HIDDEN
100
AcDbLine
 10
127.073656
 20
134.781154
 30
0.0
 11
132.323656
 21
134.781154
 31
0.0
  0
LINE
  5
B17
100
AcDbEntity
  8
0
  6
HIDDEN
100
AcDbLine
 10
127.073656
 20
131.841872
 30
0.0
 11
127.073656
 21
144.281154
 31
0.0
  0
LINE
  5
B1A
100
AcDbEntity
  8
0
  6
HIDDEN
100
AcDbLine
 10
116.036931
 20
144.281154
 30
0.0
 11
127.073656
 21
144.281154
 31
0.0
  0
LINE
  5
B1E
100
AcDbEntity
  8
CENTER
100
AcDbLine
 10
62.896055
 20
129.843708
 30
0.0
 11
62.896055
 21
146.718601
 31
0.0
  0
LINE
  5
B21
100
AcDbEntity
  8
0
100
AcDbLine
 10
69.896055
 20
165.781154
 30
0.0
 11
55.896055
 21
165.781154
 31
0.0
  0
LINE
  5
B22
100
AcDbEntity
  8
0
100
AcDbLine
 10
69.896055
 20
130.781154
 30
0.0
 11
55.896055
 21
130.781154
 31
0.0
  0
LINE
  5
B24
100
AcDbEntity
  8
0
100
AcDbLine
 10
55.396055
 20
165.281154
 30
0.0
 11
55.396055
 21
131.281154
 31
0.0
  0
LINE
  5
B26
100
AcDbEntity
  8
0
100
AcDbLine
 10
70.396055
 20
131.281154
 30
0.0
 11
70.396055
 21
165.281154
 31
0.0
  0
LINE
  5
B27
100
AcDbEntity
  8
0
100
AcDbLine
 10
69.896055
 20
165.781154
 30
0.0
 11
70.396055
 21
165.281154
 31
0.0
  0
LINE
  5
B28
100
AcDbEntity
  8
0
100
AcDbLine
 10
70.396055
 20
131.281154
 30
0.0
 11
69.896055
 21
130.781154
 31
0.0
  0
LINE
  5
B29
100
AcDbEntity
  8
0
100
AcDbLine
 10
55.896055
 20
130.781154
 30
0.0
 11
55.396055
 21
131.281154
 31
0.0
  0
LINE
  5
B2A
100
AcDbEntity
  8
0
100
AcDbLine
 10
55.396055
 20
165.281154
 30
0.0
 11
55.896055
 21
165.781154
 31
0.0
  0
LINE
  5
B2B
100
AcDbEntity
  8
0
100
AcDbLine
 10
69.896055
 20
165.781154
 30
0.0
 11
69.896055
 21
130.781154
 31
0.0
  0
LINE
  5
B2C
100
AcDbEntity
  8
0
100
AcDbLine
 10
55.896055
 20
165.781154
 30
0.0
 11
55.896055
 21
130.781154
 31
0.0
  0
LINE
  5
B2D
100
AcDbEntity
  8
0
  6
HIDDEN
100
AcDbLine
 10
70.396055
 20
160.781154
 30
0.0
 11
55.396055
 21
160.781154
 31
0.0
  0
LINE
  5
B2F
100
AcDbEntity
  8
0
  6
HIDDEN
100
AcDbLine
 10
69.896055
 20
153.281154
 30
0.0
 11
55.896055
 21
153.281154
 31
0.0
  0
LINE
  5
B31
100
AcDbEntity
  8
0
  6
HIDDEN
100
AcDbLine
 10
55.896055
 20
143.281154
 30
0.0
 11
69.896055
 21
143.281154
 31
0.0
  0
LINE
  5
B33
100
AcDbEntity
  8
CENTER
100
AcDbLine
 10
71.333502
 20
138.281154
 30
0.0
 11
54.458609
 21
138.281154
 31
0.0
  0
ARC
  5
B3D
100
AcDbEntity
  8
0
100
AcDbCircle
 10
62.896055
 20
138.281154
 30
0.0
 40
6.0
100
AcDbArc
 50
0.0
 51
180.0
  0
LINE
  5
B3E
100
AcDbEntity
  8
0
100
AcDbLine
 10
68.896055
 20
131.841872
 30
0.0
 11
56.896055
 21
131.841872
 31
0.0
  0
LINE
  5
B3F
100
AcDbEntity
  8
0
100
AcDbLine
 10
68.896055
 20
138.281154
 30
0.0
 11
68.896055
 21
131.841872
 31
0.0
  0
LINE
  5
B40
100
AcDbEntity
  8
0
100
AcDbLine
 10
56.896055
 20
138.281154
 30
0.0
 11
56.896055
 21
131.841872
 31
0.0
  0
LINE
  5
B41
100
AcDbEntity
  8
0
100
AcDbLine
 10
55.896055
 20
153.281154
 30
0.0
 11
55.396055
 21
153.781154
 31
0.0
  0
LINE
  5
B42
100
AcDbEntity
  8
0
100
AcDbLine
 10
69.896055
 20
153.281154
 30
0.0
 11
70.396055
 21
153.781154
 31
0.0
  0
LINE
  5
B43
100
AcDbEntity
  8
0
100
AcDbLine
 10
55.896055
 20
143.281154
 30
0.0
 11
55.396055
 21
142.781154
 31
0.0
  0
LINE
  5
B44
100
AcDbEntity
  8
0
100
AcDbLine
 10
69.896055
 20
143.281154
 30
0.0
 11
70.396055
 21
142.781154
 31
0.0
  0
LINE
  5
E3E
100
AcDbEntity
  8
0
100
AcDbLine
 10
23.816718
 20
131.281154
 30
0.0
 11
23.816718
 21
142.781154
 31
0.0
  0
LINE
  5
E3F
100
AcDbEntity
  8
0
100
AcDbLine
 10
8.816718
 20
165.281154
 30
0.0
 11
8.816718
 21
153.781154
 31
0.0
  0
CIRCLE
  5
E42
100
AcDbEntity
  8
0
100
AcDbCircle
 10
16.316718
 20
138.281154
 30
0.0
 40
3.5
  0
CIRCLE
  5
E43
100
AcDbEntity
  8
0
 62
     3
100
AcDbCircle
 10
16.316718
 20
138.281154
 30
0.0
 40
3.0
  0
CIRCLE
  5
E44
100
AcDbEntity
  8
0
100
AcDbCircle
 10
16.316718
 20
138.281154
 30
0.0
 40
2.4585
  0
LINE
  5
E45
100
AcDbEntity
  8
CENTER
100
AcDbLine
 10
24.754164
 20
138.281154
 30
0.0
 11
7.879271
 21
138.281154
 31
0.0
  0
LINE
  5
E46
100
AcDbEntity
  8
0
100
AcDbLine
 10
9.316718
 20
143.281154
 30
0.0
 11
23.316718
 21
143.281154
 31
0.0
  0
LINE
  5
E47
100
AcDbEntity
  8
0
100
AcDbLine
 10
23.316718
 20
130.781154
 30
0.0
 11
9.316718
 21
130.781154
 31
0.0
  0
LINE
  5
E48
100
AcDbEntity
  8
CENTER
100
AcDbLine
 10
25.995529
 20
148.281154
 30
0.0
 11
6.637906
 21
148.281154
 31
0.0
  0
LINE
  5
E4A
100
AcDbEntity
  8
0
100
AcDbLine
 10
9.316718
 20
130.781154
 30
0.0
 11
8.816718
 21
131.281154
 31
0.0
  0
LINE
  5
E4B
100
AcDbEntity
  8
0
100
AcDbLine
 10
9.316718
 20
143.281154
 30
0.0
 11
8.816718
 21
142.781154
 31
0.0
  0
LINE
  5
E4D
100
AcDbEntity
  8
CENTER
100
AcDbLine
 10
16.316718
 20
129.843708
 30
0.0
 11
16.316718
 21
146.718601
 31
0.0
  0
LINE
  5
E4E
100
AcDbEntity
  8
0
100
AcDbLine
 10
23.816718
 20
131.281154
 30
0.0
 11
23.316718
 21
130.781154
 31
0.0
  0
LINE
  5
E4F
100
AcDbEntity
  8
0
100
AcDbLine
 10
23.316718
 20
143.281154
 30
0.0
 11
23.816718
 21
142.781154
 31
0.0
  0
LINE
  5
E50
100
AcDbEntity
  8
0
100
AcDbLine
 10
23.316718
 20
153.281154
 30
0.0
 11
9.316718
 21
153.281154
 31
0.0
  0
LINE
  5
E52
100
AcDbEntity
  8
0
100
AcDbLine
 10
23.316718
 20
165.781154
 30
0.0
 11
9.316718
 21
165.781154
 31
0.0
  0
LINE
  5
E53
100
AcDbEntity
  8
0
100
AcDbLine
 10
9.316718
 20
153.281154
 30
0.0
 11
8.816718
 21
153.781154
 31
0.0
  0
LINE
  5
E54
100
AcDbEntity
  8
0
100
AcDbLine
 10
8.816718
 20
165.281154
 30
0.0
 11
9.316718
 21
165.781154
 31
0.0
  0
LINE
  5
E55
100
AcDbEntity
  8
0
100
AcDbLine
 10
23.316718
 20
153.281154
 30
0.0
 11
23.816718
 21
153.781154
 31
0.0
  0
LINE
  5
E56
100
AcDbEntity
  8
0
100
AcDbLine
 10
23.316718
 20
165.781154
 30
0.0
 11
23.816718
 21
165.281154
 31
0.0
  0
POINT
  5
EAB
100
AcDbEntity
  8
0
 60
     1
100
AcDbPoint
 10
143.149912
 20
187.597429
 30
0.0
 50
90.0
1001
GENIUS_GENOBJ-NBEHI-BHF_13
1002
{
1000
OWNER
1000
GENBEHI
1002
}
1001
GENIUS_GENOENT_13
1002
{
1000
MYREF
1005
EAB
1002
}
1002
{
1000
GRP
1005
0
1002
}
1001
GENIUS_GENOLIS_13
1002
{
1000
ENT
1005
0
1002
}
1001
GENIUS_GENBH_13
1002
{
1000
OIUMAP
1000
OIU
1002
}
1002
{
1000
FLAGS
1070
    32
1002
}
1002
{
1000
BGO
1005
EAC
1002
}
1001
GENIUS_GENODEF_13
1002
{
1000
HIER
1070
     1
1002
}
1002
{
1000
MANEDIT
1070
     1
1002
}
1002
{
1000
NOSEL
1070
     1
1002
}
1002
{
1000
BEHIND
1070
     0
1002
}
1002
{
1000
REACTOR
1002
}
  0
POINT
  5
EAC
100
AcDbEntity
  8
0
 60
     1
100
AcDbPoint
 10
143.149912
 20
187.597429
 30
0.0
 50
90.0
1001
GENIUS_GENOBJ-NBEHI-BHB_13
1002
{
1000
OWNER
1000
GENBEHI
1002
}
1001
GENIUS_GENOENT_13
1002
{
1000
MYREF
1005
EAC
1002
}
1002
{
1000
GRP
1005
0
1002
}
1001
GENIUS_GENOLIS_13
1002
{
1000
ENT
1002
}
1001
GENIUS_GENODEF_13
1002
{
1000
HIER
1070
     1
1002
}
1002
{
1000
MANEDIT
1070
     0
1002
}
1002
{
1000
NOSEL
1070
     1
1002
}
1002
{
1000
BEHIND
1070
     0
1002
}
1002
{
1000
REACTOR
1002
}
1002
{
1000
OTHER
1070
     1
1002
}
1001
GENIUS_GENBH_13
1002
{
1000
FGO
1005
EAB
1002
}
  0
POINT
  5
EAD
100
AcDbEntity
  8
0
 60
     1
100
AcDbPoint
 10
143.149912
 20
187.597429
 30
0.0
 50
90.0
1001
GENIUS_GENOBJ-NBEHI-BHF_13
1002
{
1000
OWNER
1000
GENBEHI
1002
}
1001
GENIUS_GENOENT_13
1002
{
1000
MYREF
1005
EAD
1002
}
1002
{
1000
GRP
1005
0
1002
}
1001
GENIUS_GENOLIS_13
1002
{
1000
ENT
1005
0
1002
}
1001
GENIUS_GENODEF_13
1002
{
1000
HIER
1070
     1
1002
}
1002
{
1000
MANEDIT
1070
     0
1002
}
1002
{
1000
NOSEL
1070
     1
1002
}
1002
{
1000
BEHIND
1070
     0
1002
}
1002
{
1000
REACTOR
1002
}
1001
GENIUS_GENBH_13
1002
{
1000
OIUMAP
1000
OIU
1002
}
1002
{
1000
FLAGS
1070
    32
1002
}
1002
{
1000
BGO
1005
EAE
1002
}
  0
POINT
  5
EAE
100
AcDbEntity
  8
0
 60
     1
100
AcDbPoint
 10
143.149912
 20
187.597429
 30
0.0
 50
90.0
1001
GENIUS_GENOBJ-NBEHI-BHB_13
1002
{
1000
OWNER
1000
GENBEHI
1002
}
1001
GENIUS_GENOENT_13
1002
{
1000
MYREF
1005
EAE
1002
}
1002
{
1000
GRP
1005
0
1002
}
1001
GENIUS_GENOLIS_13
1002
{
1000
ENT
1002
}
1001
GENIUS_GENODEF_13
1002
{
1000
HIER
1070
     1
1002
}
1002
{
1000
MANEDIT
1070
     0
1002
}
1002
{
1000
NOSEL
1070
     1
1002
}
1002
{
1000
BEHIND
1070
     0
1002
}
1002
{
1000
REACTOR
1002
}
1002
{
1000
OTHER
1070
     1
1002
}
1001
GENIUS_GENBH_13
1002
{
1000
FGO
1005
EAD
1002
}
  0
POINT
  5
EAF
100
AcDbEntity
  8
0
 60
     1
100
AcDbPoint
 10
143.149912
 20
187.597429
 30
0.0
 50
90.0
1001
GENIUS_GENOBJ-NBEHI-BHF_13
1002
{
1000
OWNER
1000
GENBEHI
1002
}
1001
GENIUS_GENOENT_13
1002
{
1000
MYREF
1005
EAF
1002
}
1002
{
1000
GRP
1005
0
1002
}
1001
GENIUS_GENOLIS_13
1002
{
1000
ENT
1005
0
1002
}
1001
GENIUS_GENBH_13
1002
{
1000
OIUMAP
1000
OIU
1002
}
1002
{
1000
FLAGS
1070
    32
1002
}
1002
{
1000
BGO
1005
EB0
1002
}
1001
GENIUS_GENODEF_13
1002
{
1000
HIER
1070
     1
1002
}
1002
{
1000
MANEDIT
1070
     1
1002
}
1002
{
1000
NOSEL
1070
     1
1002
}
1002
{
1000
BEHIND
1070
     0
1002
}
1002
{
1000
REACTOR
1002
}
  0
POINT
  5
EB0
100
AcDbEntity
  8
0
 60
     1
100
AcDbPoint
 10
143.149912
 20
187.597429
 30
0.0
 50
90.0
1001
GENIUS_GENOBJ-NBEHI-BHB_13
1002
{
1000
OWNER
1000
GENBEHI
1002
}
1001
GENIUS_GENOENT_13
1002
{
1000
MYREF
1005
EB0
1002
}
1002
{
1000
GRP
1005
0
1002
}
1001
GENIUS_GENOLIS_13
1002
{
1000
ENT
1002
}
1001
GENIUS_GENODEF_13
1002
{
1000
HIER
1070
     1
1002
}
1002
{
1000
MANEDIT
1070
     0
1002
}
1002
{
1000
NOSEL
1070
     1
1002
}
1002
{
1000
BEHIND
1070
     0
1002
}
1002
{
1000
REACTOR
1002
}
1002
{
1000
OTHER
1070
     1
1002
}
1001
GENIUS_GENBH_13
1002
{
1000
FGO
1005
EAF
1002
}
  0
POINT
  5
EB1
100
AcDbEntity
  8
0
 60
     1
100
AcDbPoint
 10
143.149912
 20
187.597429
 30
0.0
 50
90.0
1001
GENIUS_GENOBJ-F-SCPASSM_13
1002
{
1000
OWNER
1000
GEF
1002
}
1001
GENIUS_GENOENT_13
1002
{
1000
MYREF
1005
EB1
1002
}
1002
{
1000
GRP
1005
0
1002
}
1001
GENIUS_GENOLIS_13
1002
{
1000
ENT
1005
0
1005
0
1002
}
1001
GENIUS_GENODEF_13
1002
{
1000
HIER
1070
   200
1002
}
1002
{
1000
MANEDIT
1070
     1
1002
}
1002
{
1000
NOSEL
1070
     0
1002
}
1002
{
1000
BEHIND
1070
     0
1002
}
1002
{
1000
REACTOR
1002
}
  0
POINT
  5
EB2
100
AcDbEntity
  8
0
 60
     1
100
AcDbPoint
 10
143.149912
 20
187.597429
 30
0.0
 50
90.0
1001
GENIUS_GENOBJ-NBEHI-BHF_13
1002
{
1000
OWNER
1000
GENBEHI
1002
}
1001
GENIUS_GENOENT_13
1002
{
1000
MYREF
1005
EB2
1002
}
1002
{
1000
GRP
1005
0
1002
}
1001
GENIUS_GENOLIS_13
1002
{
1000
ENT
1005
0
1002
}
1001
GENIUS_GENODEF_13
1002
{
1000
HIER
1070
     1
1002
}
1002
{
1000
MANEDIT
1070
     0
1002
}
1002
{
1000
NOSEL
1070
     1
1002
}
1002
{
1000
BEHIND
1070
     0
1002
}
1002
{
1000
REACTOR
1002
}
1001
GENIUS_GENBH_13
1002
{
1000
OIUMAP
1000
OIU
1002
}
1002
{
1000
FLAGS
1070
    32
1002
}
1002
{
1000
BGO
1005
EB3
1002
}
  0
POINT
  5
EB3
100
AcDbEntity
  8
0
 60
     1
100
AcDbPoint
 10
143.149912
 20
187.597429
 30
0.0
 50
90.0
1001
GENIUS_GENOBJ-NBEHI-BHB_13
1002
{
1000
OWNER
1000
GENBEHI
1002
}
1001
GENIUS_GENOENT_13
1002
{
1000
MYREF
1005
EB3
1002
}
1002
{
1000
GRP
1005
0
1002
}
1001
GENIUS_GENOLIS_13
1002
{
1000
ENT
1002
}
1001
GENIUS_GENODEF_13
1002
{
1000
HIER
1070
     1
1002
}
1002
{
1000
MANEDIT
1070
     0
1002
}
1002
{
1000
NOSEL
1070
     1
1002
}
1002
{
1000
BEHIND
1070
     0
1002
}
1002
{
1000
REACTOR
1002
}
1002
{
1000
OTHER
1070
     1
1002
}
1001
GENIUS_GENBH_13
1002
{
1000
FGO
1005
EB2
1002
}
  0
POINT
  5
EB4
100
AcDbEntity
  8
0
 60
     1
100
AcDbPoint
 10
143.149912
 20
187.597429
 30
0.0
 50
90.0
1001
GENIUS_GENOBJ-NBEHI-BHF_13
1002
{
1000
OWNER
1000
GENBEHI
1002
}
1001
GENIUS_GENOENT_13
1002
{
1000
MYREF
1005
EB4
1002
}
1002
{
1000
GRP
1005
0
1002
}
1001
GENIUS_GENOLIS_13
1002
{
1000
ENT
1005
0
1002
}
1001
GENIUS_GENBH_13
1002
{
1000
OIUMAP
1000
OIU
1002
}
1002
{
1000
FLAGS
1070
    32
1002
}
1002
{
1000
BGO
1005
EB5
1002
}
1001
GENIUS_GENODEF_13
1002
{
1000
HIER
1070
     1
1002
}
1002
{
1000
MANEDIT
1070
     1
1002
}
1002
{
1000
NOSEL
1070
     1
1002
}
1002
{
1000
BEHIND
1070
     0
1002
}
1002
{
1000
REACTOR
1002
}
  0
POINT
  5
EB5
100
AcDbEntity
  8
0
 60
     1
100
AcDbPoint
 10
143.149912
 20
187.597429
 30
0.0
 50
90.0
1001
GENIUS_GENOBJ-NBEHI-BHB_13
1002
{
1000
OWNER
1000
GENBEHI
1002
}
1001
GENIUS_GENOENT_13
1002
{
1000
MYREF
1005
EB5
1002
}
1002
{
1000
GRP
1005
0
1002
}
1001
GENIUS_GENOLIS_13
1002
{
1000
ENT
1005
0
1002
}
1001
GENIUS_GENODEF_13
1002
{
1000
HIER
1070
     1
1002
}
1002
{
1000
MANEDIT
1070
     0
1002
}
1002
{
1000
NOSEL
1070
     1
1002
}
1002
{
1000
BEHIND
1070
     0
1002
}
1002
{
1000
REACTOR
1002
}
1002
{
1000
OTHER
1070
     1
1002
}
1001
GENIUS_GENBH_13
1002
{
1000
FGO
1005
EB4
1002
}
  0
POINT
  5
EB6
100
AcDbEntity
  8
0
 60
     1
100
AcDbPoint
 10
143.149912
 20
187.597429
 30
0.0
 50
90.0
1001
GENIUS_GENOBJ-F-SCPASSM_13
1002
{
1000
OWNER
1000
GEF
1002
}
1001
GENIUS_GENOENT_13
1002
{
1000
MYREF
1005
EB6
1002
}
1002
{
1000
GRP
1005
0
1002
}
1001
GENIUS_GENOLIS_13
1002
{
1000
ENT
1005
0
1005
0
1002
}
1001
GENIUS_GENODEF_13
1002
{
1000
HIER
1070
   200
1002
}
1002
{
1000
MANEDIT
1070
     1
1002
}
1002
{
1000
NOSEL
1070
     0
1002
}
1002
{
1000
BEHIND
1070
     0
1002
}
1002
{
1000
REACTOR
1002
}
  0
POINT
  5
EB7
100
AcDbEntity
  8
0
 60
     1
100
AcDbPoint
 10
143.149912
 20
187.597429
 30
0.0
 50
90.0
1001
GENIUS_GENOBJ-NBEHI-BHF_13
1002
{
1000
OWNER
1000
GENBEHI
1002
}
1001
GENIUS_GENOENT_13
1002
{
1000
MYREF
1005
EB7
1002
}
1002
{
1000
GRP
1005
0
1002
}
1001
GENIUS_GENOLIS_13
1002
{
1000
ENT
1005
0
1002
}
1001
GENIUS_GENODEF_13
1002
{
1000
HIER
1070
     1
1002
}
1002
{
1000
MANEDIT
1070
     0
1002
}
1002
{
1000
NOSEL
1070
     1
1002
}
1002
{
1000
BEHIND
1070
     0
1002
}
1002
{
1000
REACTOR
1002
}
1001
GENIUS_GENBH_13
1002
{
1000
OIUMAP
1000
OIU
1002
}
1002
{
1000
FLAGS
1070
    32
1002
}
1002
{
1000
BGO
1005
EB8
1002
}
  0
POINT
  5
EB8
100
AcDbEntity
  8
0
 60
     1
100
AcDbPoint
 10
143.149912
 20
187.597429
 30
0.0
 50
90.0
1001
GENIUS_GENOBJ-NBEHI-BHB_13
1002
{
1000
OWNER
1000
GENBEHI
1002
}
1001
GENIUS_GENOENT_13
1002
{
1000
MYREF
1005
EB8
1002
}
1002
{
1000
GRP
1005
0
1002
}
1001
GENIUS_GENOLIS_13
1002
{
1000
ENT
1002
}
1001
GENIUS_GENODEF_13
1002
{
1000
HIER
1070
     1
1002
}
1002
{
1000
MANEDIT
1070
     0
1002
}
1002
{
1000
NOSEL
1070
     1
1002
}
1002
{
1000
BEHIND
1070
     0
1002
}
1002
{
1000
REACTOR
1002
}
1002
{
1000
OTHER
1070
     1
1002
}
1001
GENIUS_GENBH_13
1002
{
1000
FGO
1005
EB7
1002
}
  0
POINT
  5
EB9
100
AcDbEntity
  8
0
 60
     1
100
AcDbPoint
 10
143.149912
 20
187.597429
 30
0.0
 50
90.0
1001
GENIUS_GENOBJ-NBEHI-BHF_13
1002
{
1000
OWNER
1000
GENBEHI
1002
}
1001
GENIUS_GENOENT_13
1002
{
1000
MYREF
1005
EB9
1002
}
1002
{
1000
GRP
1005
0
1002
}
1001
GENIUS_GENOLIS_13
1002
{
1000
ENT
1005
0
1002
}
1001
GENIUS_GENBH_13
1002
{
1000
OIUMAP
1000
OIU
1002
}
1002
{
1000
FLAGS
1070
    32
1002
}
1002
{
1000
BGO
1005
EBA
1002
}
1001
GENIUS_GENODEF_13
1002
{
1000
HIER
1070
     1
1002
}
1002
{
1000
MANEDIT
1070
     1
1002
}
1002
{
1000
NOSEL
1070
     1
1002
}
1002
{
1000
BEHIND
1070
     0
1002
}
1002
{
1000
REACTOR
1002
}
  0
POINT
  5
EBA
100
AcDbEntity
  8
0
 60
     1
100
AcDbPoint
 10
143.149912
 20
187.597429
 30
0.0
 50
90.0
1001
GENIUS_GENOBJ-NBEHI-BHB_13
1002
{
1000
OWNER
1000
GENBEHI
1002
}
1001
GENIUS_GENOENT_13
1002
{
1000
MYREF
1005
EBA
1002
}
1002
{
1000
GRP
1005
0
1002
}
1001
GENIUS_GENOLIS_13
1002
{
1000
ENT
1005
0
1002
}
1001
GENIUS_GENODEF_13
1002
{
1000
HIER
1070
     1
1002
}
1002
{
1000
MANEDIT
1070
     0
1002
}
1002
{
1000
NOSEL
1070
     1
1002
}
1002
{
1000
BEHIND
1070
     0
1002
}
1002
{
1000
REACTOR
1002
}
1002
{
1000
OTHER
1070
     1
1002
}
1001
GENIUS_GENBH_13
1002
{
1000
FGO
1005
EB9
1002
}
  0
POINT
  5
EBB
100
AcDbEntity
  8
0
 60
     1
100
AcDbPoint
 10
143.149912
 20
187.597429
 30
0.0
 50
90.0
1001
GENIUS_GENOBJ-F-SCPASSM_13
1002
{
1000
OWNER
1000
GEF
1002
}
1001
GENIUS_GENOENT_13
1002
{
1000
MYREF
1005
EBB
1002
}
1002
{
1000
GRP
1005
0
1002
}
1001
GENIUS_GENOLIS_13
1002
{
1000
ENT
1005
0
1005
0
1002
}
1001
GENIUS_GENODEF_13
1002
{
1000
HIER
1070
   200
1002
}
1002
{
1000
MANEDIT
1070
     1
1002
}
1002
{
1000
NOSEL
1070
     0
1002
}
1002
{
1000
BEHIND
1070
     0
1002
}
1002
{
1000
REACTOR
1002
}
  0
POINT
  5
EBC
100
AcDbEntity
  8
0
 60
     1
100
AcDbPoint
 10
143.149912
 20
187.597429
 30
0.0
 50
90.0
1001
GENIUS_GENOBJ-NBEHI-BHF_13
1002
{
1000
OWNER
1000
GENBEHI
1002
}
1001
GENIUS_GENOENT_13
1002
{
1000
MYREF
1005
EBC
1002
}
1002
{
1000
GRP
1005
0
1002
}
1001
GENIUS_GENOLIS_13
1002
{
1000
ENT
1005
0
1002
}
1001
GENIUS_GENODEF_13
1002
{
1000
HIER
1070
     1
1002
}
1002
{
1000
MANEDIT
1070
     0
1002
}
1002
{
1000
NOSEL
1070
     1
1002
}
1002
{
1000
BEHIND
1070
     0
1002
}
1002
{
1000
REACTOR
1002
}
1001
GENIUS_GENBH_13
1002
{
1000
OIUMAP
1000
OIU
1002
}
1002
{
1000
FLAGS
1070
    32
1002
}
1002
{
1000
BGO
1005
EBD
1002
}
  0
POINT
  5
EBD
100
AcDbEntity
  8
0
 60
     1
100
AcDbPoint
 10
143.149912
 20
187.597429
 30
0.0
 50
90.0
1001
GENIUS_GENOBJ-NBEHI-BHB_13
1002
{
1000
OWNER
1000
GENBEHI
1002
}
1001
GENIUS_GENOENT_13
1002
{
1000
MYREF
1005
EBD
1002
}
1002
{
1000
GRP
1005
0
1002
}
1001
GENIUS_GENOLIS_13
1002
{
1000
ENT
1002
}
1001
GENIUS_GENODEF_13
1002
{
1000
HIER
1070
     1
1002
}
1002
{
1000
MANEDIT
1070
     0
1002
}
1002
{
1000
NOSEL
1070
     1
1002
}
1002
{
1000
BEHIND
1070
     0
1002
}
1002
{
1000
REACTOR
1002
}
1002
{
1000
OTHER
1070
     1
1002
}
1001
GENIUS_GENBH_13
1002
{
1000
FGO
1005
EBC
1002
}
  0
POINT
  5
EBE
100
AcDbEntity
  8
0
 60
     1
100
AcDbPoint
 10
143.149912
 20
187.597429
 30
0.0
 50
90.0
1001
GENIUS_GENOBJ-NBEHI-BHF_13
1002
{
1000
OWNER
1000
GENBEHI
1002
}
1001
GENIUS_GENOENT_13
1002
{
1000
MYREF
1005
EBE
1002
}
1002
{
1000
GRP
1005
0
1002
}
1001
GENIUS_GENOLIS_13
1002
{
1000
ENT
1005
0
1002
}
1001
GENIUS_GENBH_13
1002
{
1000
OIUMAP
1000
OIU
1002
}
1002
{
1000
FLAGS
1070
    32
1002
}
1002
{
1000
BGO
1005
EBF
1002
}
1001
GENIUS_GENODEF_13
1002
{
1000
HIER
1070
     1
1002
}
1002
{
1000
MANEDIT
1070
     1
1002
}
1002
{
1000
NOSEL
1070
     1
1002
}
1002
{
1000
BEHIND
1070
     0
1002
}
1002
{
1000
REACTOR
1002
}
  0
POINT
  5
EBF
100
AcDbEntity
  8
0
 60
     1
100
AcDbPoint
 10
143.149912
 20
187.597429
 30
0.0
 50
90.0
1001
GENIUS_GENOBJ-NBEHI-BHB_13
1002
{
1000
OWNER
1000
GENBEHI
1002
}
1001
GENIUS_GENOENT_13
1002
{
1000
MYREF
1005
EBF
1002
}
1002
{
1000
GRP
1005
0
1002
}
1001
GENIUS_GENOLIS_13
1002
{
1000
ENT
1005
0
1002
}
1001
GENIUS_GENODEF_13
1002
{
1000
HIER
1070
     1
1002
}
1002
{
1000
MANEDIT
1070
     0
1002
}
1002
{
1000
NOSEL
1070
     1
1002
}
1002
{
1000
BEHIND
1070
     0
1002
}
1002
{
1000
REACTOR
1002
}
1002
{
1000
OTHER
1070
     1
1002
}
1001
GENIUS_GENBH_13
1002
{
1000
FGO
1005
EBE
1002
}
  0
POINT
  5
EC0
100
AcDbEntity
  8
0
 60
     1
100
AcDbPoint
 10
143.149912
 20
187.597429
 30
0.0
 50
90.0
1001
GENIUS_GENOBJ-F-SCPASSM_13
1002
{
1000
OWNER
1000
GEF
1002
}
1001
GENIUS_GENOENT_13
1002
{
1000
MYREF
1005
EC0
1002
}
1002
{
1000
GRP
1005
0
1002
}
1001
GENIUS_GENOLIS_13
1002
{
1000
ENT
1005
0
1005
0
1002
}
1001
GENIUS_GENODEF_13
1002
{
1000
HIER
1070
   200
1002
}
1002
{
1000
MANEDIT
1070
     1
1002
}
1002
{
1000
NOSEL
1070
     0
1002
}
1002
{
1000
BEHIND
1070
     0
1002
}
1002
{
1000
REACTOR
1002
}
  0
POINT
  5
EC1
100
AcDbEntity
  8
0
 60
     1
100
AcDbPoint
 10
143.149912
 20
187.597429
 30
0.0
 50
90.0
1001
GENIUS_GENOBJ-NBEHI-BHB_13
1002
{
1000
OWNER
1000
GENBEHI
1002
}
1001
GENIUS_GENOENT_13
1002
{
1000
MYREF
1005
EC1
1002
}
1002
{
1000
GRP
1005
0
1002
}
1001
GENIUS_GENOLIS_13
1002
{
1000
ENT
1002
}
1001
GENIUS_GENODEF_13
1002
{
1000
HIER
1070
     1
1002
}
1002
{
1000
MANEDIT
1070
     0
1002
}
1002
{
1000
NOSEL
1070
     1
1002
}
1002
{
1000
BEHIND
1070
     0
1002
}
1002
{
1000
REACTOR
1002
}
1002
{
1000
OTHER
1070
     1
1002
}
1001
GENIUS_GENBH_13
1002
{
1000
FGO
1005
0
1002
}
  0
POINT
  5
EC2
100
AcDbEntity
  8
0
 60
     1
100
AcDbPoint
 10
143.149912
 20
187.597429
 30
0.0
 50
90.0
1001
GENIUS_GENOBJ-NBEHI-BHF_13
1002
{
1000
OWNER
1000
GENBEHI
1002
}
1001
GENIUS_GENOENT_13
1002
{
1000
MYREF
1005
EC2
1002
}
1002
{
1000
GRP
1005
0
1002
}
1001
GENIUS_GENOLIS_13
1002
{
1000
ENT
1005
0
1002
}
1001
GENIUS_GENBH_13
1002
{
1000
OIUMAP
1000
OIU
1002
}
1002
{
1000
FLAGS
1070
    32
1002
}
1002
{
1000
BGO
1005
0
1002
}
1001
GENIUS_GENODEF_13
1002
{
1000
HIER
1070
     1
1002
}
1002
{
1000
MANEDIT
1070
     1
1002
}
1002
{
1000
NOSEL
1070
     1
1002
}
1002
{
1000
BEHIND
1070
     0
1002
}
1002
{
1000
REACTOR
1002
}
  0
POINT
  5
EC3
100
AcDbEntity
  8
0
 60
     1
100
AcDbPoint
 10
143.149912
 20
187.597429
 30
0.0
 50
90.0
1001
GENIUS_GENOBJ-NBEHI-BHF_13
1002
{
1000
OWNER
1000
GENBEHI
1002
}
1001
GENIUS_GENOENT_13
1002
{
1000
MYREF
1005
EC3
1002
}
1002
{
1000
GRP
1005
0
1002
}
1001
GENIUS_GENOLIS_13
1002
{
1000
ENT
1005
0
1002
}
1001
GENIUS_GENODEF_13
1002
{
1000
HIER
1070
     1
1002
}
1002
{
1000
MANEDIT
1070
     0
1002
}
1002
{
1000
NOSEL
1070
     1
1002
}
1002
{
1000
BEHIND
1070
     0
1002
}
1002
{
1000
REACTOR
1002
}
1001
GENIUS_GENBH_13
1002
{
1000
OIUMAP
1000
OIU
1002
}
1002
{
1000
FLAGS
1070
    32
1002
}
1002
{
1000
BGO
1005
EC4
1002
}
  0
POINT
  5
EC4
100
AcDbEntity
  8
0
 60
     1
100
AcDbPoint
 10
143.149912
 20
187.597429
 30
0.0
 50
90.0
1001
GENIUS_GENOBJ-NBEHI-BHB_13
1002
{
1000
OWNER
1000
GENBEHI
1002
}
1001
GENIUS_GENOENT_13
1002
{
1000
MYREF
1005
EC4
1002
}
1002
{
1000
GRP
1005
0
1002
}
1001
GENIUS_GENOLIS_13
1002
{
1000
ENT
1002
}
1001
GENIUS_GENODEF_13
1002
{
1000
HIER
1070
     1
1002
}
1002
{
1000
MANEDIT
1070
     0
1002
}
1002
{
1000
NOSEL
1070
     1
1002
}
1002
{
1000
BEHIND
1070
     0
1002
}
1002
{
1000
REACTOR
1002
}
1002
{
1000
OTHER
1070
     1
1002
}
1001
GENIUS_GENBH_13
1002
{
1000
FGO
1005
EC3
1002
}
  0
POINT
  5
EC5
100
AcDbEntity
  8
0
 60
     1
100
AcDbPoint
 10
143.149912
 20
187.597429
 30
0.0
 50
90.0
1001
GENIUS_GENOBJ-NBEHI-BHF_13
1002
{
1000
OWNER
1000
GENBEHI
1002
}
1001
GENIUS_GENOENT_13
1002
{
1000
MYREF
1005
EC5
1002
}
1002
{
1000
GRP
1005
0
1002
}
1001
GENIUS_GENOLIS_13
1002
{
1000
ENT
1005
0
1002
}
1001
GENIUS_GENBH_13
1002
{
1000
OIUMAP
1000
OIU
1002
}
1002
{
1000
FLAGS
1070
    32
1002
}
1002
{
1000
BGO
1005
EC6
1002
}
1001
GENIUS_GENODEF_13
1002
{
1000
HIER
1070
     1
1002
}
1002
{
1000
MANEDIT
1070
     1
1002
}
1002
{
1000
NOSEL
1070
     1
1002
}
1002
{
1000
BEHIND
1070
     0
1002
}
1002
{
1000
REACTOR
1002
}
  0
POINT
  5
EC6
100
AcDbEntity
  8
0
 60
     1
100
AcDbPoint
 10
143.149912
 20
187.597429
 30
0.0
 50
90.0
1001
GENIUS_GENOBJ-NBEHI-BHB_13
1002
{
1000
OWNER
1000
GENBEHI
1002
}
1001
GENIUS_GENOENT_13
1002
{
1000
MYREF
1005
EC6
1002
}
1002
{
1000
GRP
1005
0
1002
}
1001
GENIUS_GENOLIS_13
1002
{
1000
ENT
1005
0
1002
}
1001
GENIUS_GENODEF_13
1002
{
1000
HIER
1070
     1
1002
}
1002
{
1000
MANEDIT
1070
     0
1002
}
1002
{
1000
NOSEL
1070
     1
1002
}
1002
{
1000
BEHIND
1070
     0
1002
}
1002
{
1000
REACTOR
1002
}
1002
{
1000
OTHER
1070
     1
1002
}
1001
GENIUS_GENBH_13
1002
{
1000
FGO
1005
EC5
1002
}
  0
POINT
  5
EC7
100
AcDbEntity
  8
0
 60
     1
100
AcDbPoint
 10
143.149912
 20
187.597429
 30
0.0
 50
90.0
1001
GENIUS_GENOBJ-F-SCPASSM_13
1002
{
1000
OWNER
1000
GEF
1002
}
1001
GENIUS_GENOENT_13
1002
{
1000
MYREF
1005
EC7
1002
}
1002
{
1000
GRP
1005
0
1002
}
1001
GENIUS_GENOLIS_13
1002
{
1000
ENT
1005
0
1005
0
1002
}
1001
GENIUS_GENODEF_13
1002
{
1000
HIER
1070
   200
1002
}
1002
{
1000
MANEDIT
1070
     1
1002
}
1002
{
1000
NOSEL
1070
     0
1002
}
1002
{
1000
BEHIND
1070
     0
1002
}
1002
{
1000
REACTOR
1002
}
  0
LINE
  5
EC8
100
AcDbEntity
  8
0
  6
HIDDEN
100
AcDbLine
 10
121.673656
 20
143.281154
 30
0.0
 11
127.073656
 21
143.281154
 31
0.0
1001
GENIUS_GENOREF_13
1005
EC5
1005
EC7
  0
LINE
  5
EC9
100
AcDbEntity
  8
0
  6
HIDDEN
100
AcDbLine
 10
121.673656
 20
133.281154
 30
0.0
 11
127.073656
 21
133.281154
 31
0.0
1001
GENIUS_GENOREF_13
1005
EC5
1005
EC7
  0
LINE
  5
ECA
100
AcDbEntity
  8
0
  6
HIDDEN
100
AcDbLine
 10
121.073656
 20
133.881154
 30
0.0
 11
121.073656
 21
142.681154
 31
0.0
1001
GENIUS_GENOREF_13
1005
EC5
1005
EC7
  0
ARC
  5
ECB
100
AcDbEntity
  8
0
100
AcDbCircle
 10
121.673656
 20
133.881154
 30
0.0
 40
0.6
100
AcDbArc
 50
180.0
 51
270.0
1001
GENIUS_GENOREF_13
1005
EC5
1005
EC7
  0
ARC
  5
ECC
100
AcDbEntity
  8
0
100
AcDbCircle
 10
121.673656
 20
142.681154
 30
0.0
 40
0.6
100
AcDbArc
 50
90.0
 51
180.0
1001
GENIUS_GENOREF_13
1005
EC5
1005
EC7
  0
LINE
  5
ECD
100
AcDbEntity
  8
0
  6
HIDDEN
100
AcDbLine
 10
145.073656
 20
135.894604
 30
0.0
 11
133.823656
 21
135.894604
 31
0.0
1001
GENIUS_GENOREF_13
1005
EC5
1005
EC7
  0
LINE
  5
ECE
100
AcDbEntity
  8
0
  6
HIDDEN
100
AcDbLine
 10
148.83073
 20
140.667704
 30
0.0
 11
133.823656
 21
140.667704
 31
0.0
1001
GENIUS_GENOREF_13
1005
EC5
1005
EC7
  0
LINE
  5
ECF
100
AcDbEntity
  8
0
100
AcDbLine
 10
144.460206
 20
135.281154
 30
0.0
 11
145.073656
 21
135.894604
 31
0.0
1001
GENIUS_GENOREF_13
1005
EC5
1005
EC7
  0
LINE
  5
ED0
100
AcDbEntity
  8
0
100
AcDbLine
 10
144.460206
 20
141.281154
 30
0.0
 11
145.073656
 21
140.667704
 31
0.0
1001
GENIUS_GENOREF_13
1005
EC5
1005
EC7
  0
LINE
  5
ED1
100
AcDbEntity
  8
0
  6
HIDDEN
100
AcDbLine
 10
127.073656
 20
135.281154
 30
0.0
 11
132.323656
 21
135.281154
 31
0.0
1001
GENIUS_GENOREF_13
1005
EC5
1005
EC7
  0
LINE
  5
ED2
100
AcDbEntity
  8
0
  6
HIDDEN
100
AcDbLine
 10
127.073656
 20
141.281154
 30
0.0
 11
132.323656
 21
141.281154
 31
0.0
1001
GENIUS_GENOREF_13
1005
EC5
1005
EC7
  0
LINE
  5
ED4
100
AcDbEntity
  8
0
  6
HIDDEN
100
AcDbLine
 10
129.573656
 20
141.281154
 30
0.0
 11
129.573656
 21
135.281154
 31
0.0
1001
GENIUS_GENOREF_13
1005
EC5
1005
EC7
  0
LINE
  5
ED5
100
AcDbEntity
  8
0
100
AcDbLine
 10
129.573656
 20
135.894604
 30
0.0
 11
128.960206
 21
135.281154
 31
0.0
1001
GENIUS_GENOREF_13
1005
EC5
1005
EC7
  0
LINE
  5
ED6
100
AcDbEntity
  8
0
100
AcDbLine
 10
129.573656
 20
140.667704
 30
0.0
 11
128.960206
 21
141.281154
 31
0.0
1001
GENIUS_GENOREF_13
1005
EC5
1005
EC7
  0
LINE
  5
ED7
100
AcDbEntity
  8
0
  6
HIDDEN
100
AcDbLine
 10
144.460206
 20
141.281154
 30
0.0
 11
144.460206
 21
135.281154
 31
0.0
1001
GENIUS_GENOREF_13
1005
EC5
1005
EC7
  0
LINE
  5
ED8
100
AcDbEntity
  8
0
  6
HIDDEN
100
AcDbLine
 10
145.073656
 20
140.667704
 30
0.0
 11
145.073656
 21
135.894604
 31
0.0
1001
GENIUS_GENOREF_13
1005
EC5
1005
EC7
  0
POINT
  5
ED9
100
AcDbEntity
  8
0
 60
     1
100
AcDbPoint
 10
143.149912
 20
187.597429
 30
0.0
 50
90.0
1001
GENIUS_GENOBJ-NBEHI-BHF_13
1002
{
1000
OWNER
1000
GENBEHI
1002
}
1001
GENIUS_GENOENT_13
1002
{
1000
MYREF
1005
ED9
1002
}
1002
{
1000
GRP
1005
0
1002
}
1001
GENIUS_GENOLIS_13
1002
{
1000
ENT
1005
0
1002
}
1001
GENIUS_GENODEF_13
1002
{
1000
HIER
1070
     1
1002
}
1002
{
1000
MANEDIT
1070
     0
1002
}
1002
{
1000
NOSEL
1070
     1
1002
}
1002
{
1000
BEHIND
1070
     0
1002
}
1002
{
1000
REACTOR
1002
}
1001
GENIUS_GENBH_13
1002
{
1000
OIUMAP
1000
OIU
1002
}
1002
{
1000
FLAGS
1070
    32
1002
}
1002
{
1000
BGO
1005
EDA
1002
}
  0
POINT
  5
EDA
100
AcDbEntity
  8
0
 60
     1
100
AcDbPoint
 10
143.149912
 20
187.597429
 30
0.0
 50
90.0
1001
GENIUS_GENOBJ-NBEHI-BHB_13
1002
{
1000
OWNER
1000
GENBEHI
1002
}
1001
GENIUS_GENOENT_13
1002
{
1000
MYREF
1005
EDA
1002
}
1002
{
1000
GRP
1005
0
1002
}
1001
GENIUS_GENOLIS_13
1002
{
1000
ENT
1002
}
1001
GENIUS_GENODEF_13
1002
{
1000
HIER
1070
     1
1002
}
1002
{
1000
MANEDIT
1070
     0
1002
}
1002
{
1000
NOSEL
1070
     1
1002
}
1002
{
1000
BEHIND
1070
     0
1002
}
1002
{
1000
REACTOR
1002
}
1002
{
1000
OTHER
1070
     1
1002
}
1001
GENIUS_GENBH_13
1002
{
1000
FGO
1005
ED9
1002
}
  0
POINT
  5
EDB
100
AcDbEntity
  8
0
 60
     1
100
AcDbPoint
 10
143.149912
 20
187.597429
 30
0.0
 50
90.0
1001
GENIUS_GENOBJ-NBEHI-BHF_13
1002
{
1000
OWNER
1000
GENBEHI
1002
}
1001
GENIUS_GENOENT_13
1002
{
1000
MYREF
1005
EDB
1002
}
1002
{
1000
GRP
1005
0
1002
}
1001
GENIUS_GENOLIS_13
1002
{
1000
ENT
1005
0
1002
}
1001
GENIUS_GENBH_13
1002
{
1000
OIUMAP
1000
OIU
1002
}
1002
{
1000
FLAGS
1070
    32
1002
}
1002
{
1000
BGO
1005
EDC
1002
}
1001
GENIUS_GENODEF_13
1002
{
1000
HIER
1070
     1
1002
}
1002
{
1000
MANEDIT
1070
     1
1002
}
1002
{
1000
NOSEL
1070
     1
1002
}
1002
{
1000
BEHIND
1070
     0
1002
}
1002
{
1000
REACTOR
1002
}
  0
POINT
  5
EDC
100
AcDbEntity
  8
0
 60
     1
100
AcDbPoint
 10
143.149912
 20
187.597429
 30
0.0
 50
90.0
1001
GENIUS_GENOBJ-NBEHI-BHB_13
1002
{
1000
OWNER
1000
GENBEHI
1002
}
1001
GENIUS_GENOENT_13
1002
{
1000
MYREF
1005
EDC
1002
}
1002
{
1000
GRP
1005
0
1002
}
1001
GENIUS_GENOLIS_13
1002
{
1000
ENT
1005
0
1002
}
1001
GENIUS_GENODEF_13
1002
{
1000
HIER
1070
     1
1002
}
1002
{
1000
MANEDIT
1070
     0
1002
}
1002
{
1000
NOSEL
1070
     1
1002
}
1002
{
1000
BEHIND
1070
     0
1002
}
1002
{
1000
REACTOR
1002
}
1002
{
1000
OTHER
1070
     1
1002
}
1001
GENIUS_GENBH_13
1002
{
1000
FGO
1005
EDB
1002
}
  0
POINT
  5
EDD
100
AcDbEntity
  8
0
 60
     1
100
AcDbPoint
 10
143.149912
 20
187.597429
 30
0.0
 50
90.0
1001
GENIUS_GENOBJ-F-SCPASSM_13
1002
{
1000
OWNER
1000
GEF
1002
}
1001
GENIUS_GENOENT_13
1002
{
1000
MYREF
1005
EDD
1002
}
1002
{
1000
GRP
1005
0
1002
}
1001
GENIUS_GENOLIS_13
1002
{
1000
ENT
1005
0
1005
0
1002
}
1001
GENIUS_GENODEF_13
1002
{
1000
HIER
1070
   200
1002
}
1002
{
1000
MANEDIT
1070
     1
1002
}
1002
{
1000
NOSEL
1070
     0
1002
}
1002
{
1000
BEHIND
1070
     0
1002
}
1002
{
1000
REACTOR
1002
}
  0
CIRCLE
  5
EDE
100
AcDbEntity
  8
0
100
AcDbCircle
 10
62.896055
 20
138.281154
 30
0.0
 40
5.0
1001
GENIUS_GENOREF_13
1005
EDB
1005
EDD
  0
LINE
  5
EDF
100
AcDbEntity
  8
0
100
AcDbLine
 10
65.396055
 20
139.72453
 30
0.0
 11
62.896055
 21
141.167906
 31
0.0
1001
GENIUS_GENOREF_13
1005
EDB
1005
EDD
  0
LINE
  5
EE0
100
AcDbEntity
  8
0
100
AcDbLine
 10
62.896055
 20
135.394403
 30
0.0
 11
65.396055
 21
136.837779
 31
0.0
1001
GENIUS_GENOREF_13
1005
EDB
1005
EDD
  0
LINE
  5
EE1
100
AcDbEntity
  8
0
100
AcDbLine
 10
65.396055
 20
136.837779
 30
0.0
 11
65.396055
 21
139.72453
 31
0.0
1001
GENIUS_GENOREF_13
1005
EDB
1005
EDD
  0
LINE
  5
EE2
100
AcDbEntity
  8
0
100
AcDbLine
 10
60.396055
 20
139.72453
 30
0.0
 11
60.396055
 21
136.837779
 31
0.0
1001
GENIUS_GENOREF_13
1005
EDB
1005
EDD
  0
LINE
  5
EE3
100
AcDbEntity
  8
0
100
AcDbLine
 10
60.396055
 20
136.837779
 30
0.0
 11
62.896055
 21
135.394403
 31
0.0
1001
GENIUS_GENOREF_13
1005
EDB
1005
EDD
  0
LINE
  5
EE4
100
AcDbEntity
  8
0
100
AcDbLine
 10
62.896055
 20
141.167906
 30
0.0
 11
60.396055
 21
139.72453
 31
0.0
1001
GENIUS_GENOREF_13
1005
EDB
1005
EDD
  0
LINE
  5
EE8
100
AcDbEntity
  8
0
100
AcDbLine
 10
8.816718
 20
142.781154
 30
0.0
 11
8.816718
 21
131.281154
 31
0.0
  0
LINE
  5
EEB
100
AcDbEntity
  8
0
100
AcDbLine
 10
23.816718
 20
153.781154
 30
0.0
 11
23.816718
 21
165.281154
 31
0.0
  0
CIRCLE
  5
EEC
100
AcDbEntity
  8
0
  6
HIDDEN
100
AcDbCircle
 10
16.316718
 20
138.281154
 30
0.0
 40
5.0
1001
GENIUS_GENOREF_13
1005
EDB
1005
EDD
  0
LINE
  5
EF6
100
AcDbEntity
  8
0
  6
HIDDEN
100
AcDbLine
 10
133.823656
 20
141.281154
 30
0.0
 11
144.460206
 21
141.281154
 31
0.0
1001
GENIUS_GENOREF_13
1005
EC5
1005
EC7
  0
LINE
  5
EF7
100
AcDbEntity
  8
0
  6
HIDDEN
100
AcDbLine
 10
132.323656
 20
140.667704
 30
0.0
 11
129.573656
 21
140.667704
 31
0.0
1001
GENIUS_GENOREF_13
1005
EC5
1005
EC7
  0
LINE
  5
EF8
100
AcDbEntity
  8
0
  6
HIDDEN
100
AcDbLine
 10
132.323656
 20
135.894604
 30
0.0
 11
129.573656
 21
135.894604
 31
0.0
1001
GENIUS_GENOREF_13
1005
EC5
1005
EC7
  0
LINE
  5
EF9
100
AcDbEntity
  8
0
  6
HIDDEN
100
AcDbLine
 10
133.823656
 20
135.281154
 30
0.0
 11
144.460206
 21
135.281154
 31
0.0
1001
GENIUS_GENOREF_13
1005
EC5
1005
EC7
  0
LINE
  5
EFA
100
AcDbEntity
  8
0
100
AcDbLine
 10
132.323656
 20
141.281154
 30
0.0
 11
133.823656
 21
141.281154
 31
0.0
  0
LINE
  5
EFB
100
AcDbEntity
  8
0
100
AcDbLine
 10
132.323656
 20
140.667704
 30
0.0
 11
133.823656
 21
140.667704
 31
0.0
  0
LINE
  5
EFC
100
AcDbEntity
  8
0
100
AcDbLine
 10
132.323656
 20
135.894604
 30
0.0
 11
133.823656
 21
135.894604
 31
0.0
  0
LINE
  5
EFD
100
AcDbEntity
  8
0
100
AcDbLine
 10
132.323656
 20
135.281154
 30
0.0
 11
133.823656
 21
135.281154
 31
0.0
  0
LINE
  5
F0F
100
AcDbEntity
  8
0
100
AcDbLine
 10
23.816718
 20
160.781154
 30
0.0
 11
8.816718
 21
160.781154
 31
0.0
  0
ENDSEC
  0
SECTION
  2
OBJECTS
  0
DICTIONARY
  5
C
100
AcDbDictionary
  3
ACAD_GROUP
350
D
  3
ACAD_LAYOUT
350
C7B
  3
ACAD_MLINESTYLE
350
1B
  3
ACAD_PLOTSETTINGS
350
C7C
  3
ADE_QUERY_LIBRARY
350
F88
  3
CONTENTDICTIONARY
350
23
1001
ADE
1000
ADE02C004
1000
[Query]
1000
CaseSensitiveMatch=0
1000
SaveCurrQueryInSession=1
1000
MkSelSetWithQryObj=0
1000
ShowBlockAsInsPt=0
1000
CreateAssociativeHatchObjects=0
1000
ReferenceBoundaryForAreaLocation=1
1000
ShowImageAsBoundary=1
1000
DefaultJoinOperator=2
1000
ColorForAdd=red
1000
ColorForRemove=red
1000
BlockLocnForQuery=1
1000
TextLocnForQuery=1
1000
[Save Back]
1000
RedefineBlockDefinitions=1
1000
RedefineLayerDefinitions=1
1000
RedefineTextStyleDefinitions=1
1000
RemoveUnusedGroups=1
1000
EraseSavedBackObjects=1
1000
RemoveLockAfterSave=1
1000
CreateHistoryFileOfChanges=0
1000
CreateBackupFileOfSourceDwg=1
1000
DontAddObjectsToSaveSet=0
1000
MarkObjectsForEditingWithoutPrompting=0
1000
[Coordinate Transformation]
1000
RestoreLastActiveDwgsOnStartup=1
1000
ActivateDwgsOnAttach=1
1000
AdjustSizesAndScalesForChangesInUnits=1
1000
AdjustRotationsForMapDistortions=1
1000
AdjustSizesAndScalesForMapDistortions=1
1000
AdjustElevations=1
1000
AdjustZeroRotationObjects=1
1000
ReconnectDbOnWSOpen=1
1000
NoOfSQLConditionsInHistory=10
1001
ACAD
1000
TREAT_AS_HARD
1070
     0
  0
DICTIONARY
  5
F8C
100
AcDbDictionary
  3
ACAD_LAYOUTSELFREF
350
F8D
  0
DICTIONARY
  5
F8A
100
AcDbDictionary
  3
ACAD_LAYOUTSELFREF
350
F8B
  0
DICTIONARY
  5
D
102
{ACAD_REACTORS
330
C
102
}
100
AcDbDictionary
1001
ACAD
1000
TREAT_AS_HARD
1070
     0
  0
DICTIONARY
  5
C7B
102
{ACAD_REACTORS
330
C
102
}
100
AcDbDictionary
1001
ACAD
1000
TREAT_AS_HARD
1070
     0
  0
DICTIONARY
  5
1B
102
{ACAD_REACTORS
330
C
102
}
100
AcDbDictionary
  3
STANDARD
350
1C
1001
ACAD
1000
TREAT_AS_HARD
1070
     0
  0
DICTIONARY
  5
C7C
102
{ACAD_REACTORS
330
C
102
}
100
AcDbDictionary
1001
ACAD
1000
TREAT_AS_HARD
1070
     0
  0
DICTIONARY
  5
F88
102
{ACAD_REACTORS
330
C
102
}
100
AcDbDictionary
  3
_CURRQRY
350
F89
1001
ACAD
1000
TREAT_AS_HARD
1070
     0
  0
DICTIONARY
  5
23
102
{ACAD_REACTORS
330
C
102
}
100
AcDbDictionary
1001
ACAD
1000
TREAT_AS_HARD
1070
     0
  0
XRECORD
  5
F8D
102
{ACAD_REACTORS
330
F8C
102
}
100
AcDbXrecord
340
18
  0
XRECORD
  5
F8B
102
{ACAD_REACTORS
330
F8A
102
}
100
AcDbXrecord
340
15
  0
MLINESTYLE
  5
1C
102
{ACAD_REACTORS
330
1B
102
}
100
AcDbMlineStyle
  2
STANDARD
 70
     0
  3

 62
   256
 51
90.0
 52
90.0
 71
     2
 49
0.5
 62
   256
  6
BYLAYER
 49
-0.5
 62
   256
  6
BYLAYER
  0
XRECORD
  5
F89
102
{ACAD_REACTORS
330
F88
102
}
100
AcDbXrecord
1000
ADE02C001
1070
     1
1070
     0
1002
{
1002
}
1002
{
1002
}
1002
{
1002
}
1000

  0
ENDSEC
  0
EOF
