  0
SECTION
  2
HEADER
  9
$ACADVER
  1
AC1014
  9
$ACADMAINTVER
 70
     0
  9
$DWGCODEPAGE
  3
ANSI_932
  9
$INSBASE
 10
0.0
 20
0.0
 30
0.0
  9
$EXTMIN
 10
6.284098
 20
129.753237
 30
0.0
  9
$EXTMAX
 10
158.188773
 20
182.048366
 30
0.0
  9
$LIMMIN
 10
0.0
 20
0.0
  9
$LIMMAX
 10
420.0
 20
297.0
  9
$ORTHOMODE
 70
     1
  9
$REGENMODE
 70
     1
  9
$FILLMODE
 70
     1
  9
$QTEXTMODE
 70
     0
  9
$MIRRTEXT
 70
     1
  9
$DRAGMODE
 70
     2
  9
$LTSCALE
 40
0.2
  9
$OSMODE
 70
    37
  9
$ATTMODE
 70
     1
  9
$TEXTSIZE
 40
10.0
  9
$TRACEWID
 40
1.0
  9
$TEXTSTYLE
  7
BIGFONT
  9
$CLAYER
  8
CENTER
  9
$CELTYPE
  6
BYLAYER
  9
$CECOLOR
 62
   256
  9
$CELTSCALE
 40
1.0
  9
$DELOBJ
 70
     1
  9
$DISPSILH
 70
     0
  9
$DIMSCALE
 40
1.0
  9
$DIMASZ
 40
2.5
  9
$DIMEXO
 40
0.625
  9
$DIMDLI
 40
3.75
  9
$DIMRND
 40
0.0
  9
$DIMDLE
 40
0.0
  9
$DIMEXE
 40
1.25
  9
$DIMTP
 40
0.0
  9
$DIMTM
 40
0.0
  9
$DIMTXT
 40
2.5
  9
$DIMCEN
 40
0.5
  9
$DIMTSZ
 40
0.0
  9
$DIMTOL
 70
     0
  9
$DIMLIM
 70
     0
  9
$DIMTIH
 70
     0
  9
$DIMTOH
 70
     0
  9
$DIMSE1
 70
     0
  9
$DIMSE2
 70
     0
  9
$DIMTAD
 70
     3
  9
$DIMZIN
 70
     8
  9
$DIMBLK
  1

  9
$DIMASO
 70
     1
  9
$DIMSHO
 70
     1
  9
$DIMPOST
  1

  9
$DIMAPOST
  1

  9
$DIMALT
 70
     0
  9
$DIMALTD
 70
     4
  9
$DIMALTF
 40
0.0394
  9
$DIMLFAC
 40
1.0
  9
$DIMTOFL
 70
     1
  9
$DIMTVP
 40
0.0
  9
$DIMTIX
 70
     0
  9
$DIMSOXD
 70
     0
  9
$DIMSAH
 70
     0
  9
$DIMBLK1
  1

  9
$DIMBLK2
  1

  9
$DIMSTYLE
  2
STANDARD_WS
  9
$DIMCLRD
 70
     0
  9
$DIMCLRE
 70
     0
  9
$DIMCLRT
 70
   256
  9
$DIMTFAC
 40
1.0
  9
$DIMGAP
 40
1.2
  9
$DIMJUST
 70
     0
  9
$DIMSD1
 70
     0
  9
$DIMSD2
 70
     0
  9
$DIMTOLJ
 70
     1
  9
$DIMTZIN
 70
     0
  9
$DIMALTZ
 70
     0
  9
$DIMALTTZ
 70
     0
  9
$DIMFIT
 70
     3
  9
$DIMUPT
 70
     0
  9
$DIMUNIT
 70
     2
  9
$DIMDEC
 70
     4
  9
$DIMTDEC
 70
     4
  9
$DIMALTU
 70
     8
  9
$DIMALTTD
 70
     4
  9
$DIMTXSTY
  7
BIGFONT
  9
$DIMAUNIT
 70
     0
  9
$LUNITS
 70
     2
  9
$LUPREC
 70
     4
  9
$SKETCHINC
 40
1.0
  9
$FILLETRAD
 40
0.0
  9
$AUNITS
 70
     0
  9
$AUPREC
 70
     0
  9
$MENU
  1
acad
  9
$ELEVATION
 40
0.0
  9
$PELEVATION
 40
0.0
  9
$THICKNESS
 40
0.0
  9
$LIMCHECK
 70
     0
  9
$BLIPMODE
 70
     0
  9
$CHAMFERA
 40
0.5
  9
$CHAMFERB
 40
0.5
  9
$CHAMFERC
 40
20.0
  9
$CHAMFERD
 40
0.0
  9
$SKPOLY
 70
     0
  9
$TDCREATE
 40
2451225.415346065
  9
$TDUPDATE
 40
2453594.449314409
  9
$TDINDWG
 40
0.3259442477
  9
$TDUSRTIMER
 40
0.3259442477
  9
$USRTIMER
 70
     1
  9
$ANGBASE
 50
0.0
  9
$ANGDIR
 70
     0
  9
$PDMODE
 70
     0
  9
$PDSIZE
 40
0.0
  9
$PLINEWID
 40
0.0
  9
$COORDS
 70
     1
  9
$SPLFRAME
 70
     0
  9
$SPLINETYPE
 70
     6
  9
$SPLINESEGS
 70
     8
  9
$ATTDIA
 70
     0
  9
$ATTREQ
 70
     1
  9
$HANDLING
 70
     1
  9
$HANDSEED
  5
1121
  9
$SURFTAB1
 70
     6
  9
$SURFTAB2
 70
     6
  9
$SURFTYPE
 70
     6
  9
$SURFU
 70
     6
  9
$SURFV
 70
     6
  9
$UCSNAME
  2

  9
$UCSORG
 10
0.0
 20
0.0
 30
0.0
  9
$UCSXDIR
 10
1.0
 20
0.0
 30
0.0
  9
$UCSYDIR
 10
0.0
 20
1.0
 30
0.0
  9
$PUCSNAME
  2

  9
$PUCSORG
 10
0.0
 20
0.0
 30
0.0
  9
$PUCSXDIR
 10
1.0
 20
0.0
 30
0.0
  9
$PUCSYDIR
 10
0.0
 20
1.0
 30
0.0
  9
$USERI1
 70
     0
  9
$USERI2
 70
     0
  9
$USERI3
 70
     0
  9
$USERI4
 70
     0
  9
$USERI5
 70
     0
  9
$USERR1
 40
0.0
  9
$USERR2
 40
0.0
  9
$USERR3
 40
0.0
  9
$USERR4
 40
0.0
  9
$USERR5
 40
0.0
  9
$WORLDVIEW
 70
     1
  9
$SHADEDGE
 70
     3
  9
$SHADEDIF
 70
    70
  9
$TILEMODE
 70
     1
  9
$MAXACTVP
 70
    48
  9
$PINSBASE
 10
0.0
 20
0.0
 30
0.0
  9
$PLIMCHECK
 70
     0
  9
$PEXTMIN
 10
1.000000E+20
 20
1.000000E+20
 30
1.000000E+20
  9
$PEXTMAX
 10
-1.000000E+20
 20
-1.000000E+20
 30
-1.000000E+20
  9
$PLIMMIN
 10
0.0
 20
0.0
  9
$PLIMMAX
 10
420.0
 20
297.0
  9
$UNITMODE
 70
     0
  9
$VISRETAIN
 70
     1
  9
$PLINEGEN
 70
     0
  9
$PSLTSCALE
 70
     0
  9
$TREEDEPTH
 70
  3020
  9
$PICKSTYLE
 70
     1
  9
$CMLSTYLE
  2
STANDARD
  9
$CMLJUST
 70
     0
  9
$CMLSCALE
 40
20.0
  9
$PROXYGRAPHICS
 70
     1
  9
$MEASUREMENT
 70
     0
  0
ENDSEC
  0
SECTION
  2
CLASSES
  0
CLASS
  1
DICTIONARYVAR
  2
AcDbDictionaryVar
  3
"AutoCAD"
 90
        0
280
     0
281
     0
  0
CLASS
  1
HATCH
  2
AcDbHatch
  3
"ACAD_SEDONA"
 90
        0
280
     0
281
     1
  0
CLASS
  1
LWPOLYLINE
  2
AcDbPolyline
  3
"AutoCAD"
 90
        0
280
     0
281
     1
  0
CLASS
  1
ACDBDICTIONARYWDFLT
  2
AcDbDictionaryWithDefault
  3
AutoCAD 2000
 90
        0
280
     0
281
     0
  0
CLASS
  1
ACDBPLACEHOLDER
  2
AcDbPlaceHolder
  3
AutoCAD 2000
 90
        0
280
     0
281
     0
  0
CLASS
  1
LAYOUT
  2
AcDbLayout
  3
AutoCAD 2000
 90
        0
280
     0
281
     0
  0
CLASS
  1
LONG_TRANSACTION
  2
AcDbLongTransaction
  3
AutoCAD 2000
 90
        0
280
     0
281
     0
  0
CLASS
  1
LWPOLYLINE
  2
AcDbPolyline
  3
"AutoCAD"
 90
        0
280
     0
281
     1
  0
CLASS
  1
HATCH
  2
AcDbHatch
  3
"ACAD_SEDONA"
 90
        0
280
     0
281
     1
  0
CLASS
  1
XRECORD
  2
AcDbXrecord
  3
"<Built In>"
 90
        0
280
     0
281
     0
  0
ENDSEC
  0
SECTION
  2
TABLES
  0
TABLE
  2
VPORT
  5
8
100
AcDbSymbolTable
 70
     2
  0
VPORT
  5
1120
100
AcDbSymbolTableRecord
100
AcDbViewportTableRecord
  2
*ACTIVE
 70
     0
 10
0.0
 20
0.0
 11
1.0
 21
1.0
 12
104.981832
 22
140.229579
 13
0.0
 23
0.0
 14
10.0
 24
10.0
 15
10.0
 25
10.0
 16
0.0
 26
0.0
 36
1.0
 17
0.0
 27
0.0
 37
0.0
 40
139.915445
 41
1.434944
 42
50.0
 43
0.0
 44
0.0
 50
0.0
 51
0.0
 71
     0
 72
   100
 73
     1
 74
     0
 75
     0
 76
     0
 77
     0
 78
     0
  0
ENDTAB
  0
TABLE
  2
LTYPE
  5
5
100
AcDbSymbolTable
 70
     3
  0
LTYPE
  5
12
100
AcDbSymbolTableRecord
100
AcDbLinetypeTableRecord
  2
BYBLOCK
 70
     0
  3

 72
    65
 73
     0
 40
0.0
  0
LTYPE
  5
13
100
AcDbSymbolTableRecord
100
AcDbLinetypeTableRecord
  2
BYLAYER
 70
     0
  3

 72
    65
 73
     0
 40
0.0
  0
LTYPE
  5
14
100
AcDbSymbolTableRecord
100
AcDbLinetypeTableRecord
  2
CONTINUOUS
 70
     0
  3
Solid line
 72
    65
 73
     0
 40
0.0
  0
LTYPE
  5
11A
100
AcDbSymbolTableRecord
100
AcDbLinetypeTableRecord
  2
CENTER
 70
     0
  3
Center ____ _ ____ _ ____ _ ____ _ ____ _ ____
 72
    65
 73
     4
 40
50.8
 49
31.75
 74
     0
 49
-6.35
 74
     0
 49
6.35
 74
     0
 49
-6.35
 74
     0
  0
LTYPE
  5
11B
100
AcDbSymbolTableRecord
100
AcDbLinetypeTableRecord
  2
HIDDEN
 70
     0
  3
Hidden __ __ __ __ __ __ __ __ __ __ __ __ __ _
 72
    65
 73
     2
 40
9.525
 49
6.35
 74
     0
 49
-3.175
 74
     0
  0
ENDTAB
  0
TABLE
  2
LAYER
  5
2
100
AcDbSymbolTable
 70
     7
  0
LAYER
  5
E
100
AcDbSymbolTableRecord
100
AcDbLayerTableRecord
  2
0
 70
     0
 62
     7
  6
CONTINUOUS
  0
LAYER
  5
37
100
AcDbSymbolTableRecord
100
AcDbLayerTableRecord
  2
図枠
 70
     0
 62
     7
  6
CONTINUOUS
  0
LAYER
  5
38
100
AcDbSymbolTableRecord
100
AcDbLayerTableRecord
  2
図枠部品表
 70
     0
 62
     7
  6
CONTINUOUS
  0
LAYER
  5
215
100
AcDbSymbolTableRecord
100
AcDbLayerTableRecord
  2
CENTER
 70
     0
 62
     2
  6
CENTER
  0
LAYER
  5
216
100
AcDbSymbolTableRecord
100
AcDbLayerTableRecord
  2
DIM
 70
     0
 62
     4
  6
CONTINUOUS
  0
LAYER
  5
21F
100
AcDbSymbolTableRecord
100
AcDbLayerTableRecord
  2
DEFPOINTS
 70
     0
 62
     7
  6
CONTINUOUS
  0
LAYER
  5
910
100
AcDbSymbolTableRecord
100
AcDbLayerTableRecord
  2
仕上記号
 70
     0
 62
     1
  6
CONTINUOUS
  0
ENDTAB
  0
TABLE
  2
STYLE
  5
3
100
AcDbSymbolTable
 70
     4
  0
STYLE
  5
F
100
AcDbSymbolTableRecord
100
AcDbTextStyleTableRecord
  2
STANDARD
 70
     0
 40
0.0
 41
1.0
 50
0.0
 71
     0
 42
2.5
  3
txt
  4

  0
STYLE
  5
39
100
AcDbSymbolTableRecord
100
AcDbTextStyleTableRecord
  2
BIGFONT
 70
     0
 40
0.0
 41
1.0
 50
0.0
 71
     0
 42
10.0
  3
txt.shx
  4
bigfont.shx
  0
STYLE
  5
3B
100
AcDbSymbolTableRecord
100
AcDbTextStyleTableRecord
  2
KANJI
 70
     0
 40
0.0
 41
1.0
 50
0.0
 71
     0
 42
3.0
  3
TXT
  4
BIGFONT
  0
STYLE
  5
FFA
100
AcDbSymbolTableRecord
100
AcDbTextStyleTableRecord
  2

 70
     1
 40
0.0
 41
1.0
 50
0.0
 71
     0
 42
2.5
  3
ltypeshp.shx
  4

  0
ENDTAB
  0
TABLE
  2
VIEW
  5
6
100
AcDbSymbolTable
 70
     0
  0
ENDTAB
  0
TABLE
  2
UCS
  5
7
100
AcDbSymbolTable
 70
     0
  0
ENDTAB
  0
TABLE
  2
APPID
  5
9
100
AcDbSymbolTable
 70
    34
  0
APPID
  5
10
100
AcDbSymbolTableRecord
100
AcDbRegAppTableRecord
  2
ACAD
 70
     0
  0
APPID
  5
24
100
AcDbSymbolTableRecord
100
AcDbRegAppTableRecord
  2
CONTENTTABDATA
 70
     0
  0
APPID
  5
25
100
AcDbSymbolTableRecord
100
AcDbRegAppTableRecord
  2
CONTENTCURRENTTAB
 70
     0
  0
APPID
  5
422
100
AcDbSymbolTableRecord
100
AcDbRegAppTableRecord
  2
CONTENTBLOCKDESCRIPTION
 70
     0
  0
APPID
  5
1004
100
AcDbSymbolTableRecord
100
AcDbRegAppTableRecord
  2
MCAD_NO_VIS
 70
     0
  0
APPID
  5
1005
100
AcDbSymbolTableRecord
100
AcDbRegAppTableRecord
  2
ACAD_TEMP_GRAPHIC
 70
     0
  0
APPID
  5
1006
100
AcDbSymbolTableRecord
100
AcDbRegAppTableRecord
  2
GEVID966397200
 70
     0
  0
APPID
  5
1007
100
AcDbSymbolTableRecord
100
AcDbRegAppTableRecord
  2
GEVDC
 70
     0
  0
APPID
  5
1008
100
AcDbSymbolTableRecord
100
AcDbRegAppTableRecord
  2
GEVCON
 70
     0
  0
APPID
  5
1009
100
AcDbSymbolTableRecord
100
AcDbRegAppTableRecord
  2
GEVID966397201
 70
     0
  0
APPID
  5
100A
100
AcDbSymbolTableRecord
100
AcDbRegAppTableRecord
  2
GEVID966397202
 70
     0
  0
APPID
  5
100B
100
AcDbSymbolTableRecord
100
AcDbRegAppTableRecord
  2
GEVID966397203
 70
     0
  0
APPID
  5
100C
100
AcDbSymbolTableRecord
100
AcDbRegAppTableRecord
  2
GEVID966397204
 70
     0
  0
APPID
  5
100D
100
AcDbSymbolTableRecord
100
AcDbRegAppTableRecord
  2
GEVID966397205
 70
     0
  0
APPID
  5
100E
100
AcDbSymbolTableRecord
100
AcDbRegAppTableRecord
  2
GEVID966397206
 70
     0
  0
APPID
  5
100F
100
AcDbSymbolTableRecord
100
AcDbRegAppTableRecord
  2
GENIUS_GENBH_13
 70
     0
  0
APPID
  5
1010
100
AcDbSymbolTableRecord
100
AcDbRegAppTableRecord
  2
GENIUS_GENODEF_13
 70
     0
  0
APPID
  5
1011
100
AcDbSymbolTableRecord
100
AcDbRegAppTableRecord
  2
GENIUS_GENOBJ-NBEHI-BHF_13
 70
     0
  0
APPID
  5
1012
100
AcDbSymbolTableRecord
100
AcDbRegAppTableRecord
  2
GENIUS_GENOENT_13
 70
     0
  0
APPID
  5
1013
100
AcDbSymbolTableRecord
100
AcDbRegAppTableRecord
  2
GENIUS_GENOREF_13
 70
     0
  0
APPID
  5
1014
100
AcDbSymbolTableRecord
100
AcDbRegAppTableRecord
  2
GENIUS_GENOLIS_13
 70
     0
  0
APPID
  5
1015
100
AcDbSymbolTableRecord
100
AcDbRegAppTableRecord
  2
GENIUS_GENOBJ-NBEHI-BHB_13
 70
     0
  0
APPID
  5
1016
100
AcDbSymbolTableRecord
100
AcDbRegAppTableRecord
  2
GEVID966397207
 70
     0
  0
APPID
  5
1017
100
AcDbSymbolTableRecord
100
AcDbRegAppTableRecord
  2
GENIUS_GENOBJ-F-SCPASSM_13
 70
     0
  0
APPID
  5
1018
100
AcDbSymbolTableRecord
100
AcDbRegAppTableRecord
  2
GENIUS_GENDTOL_13
 70
     0
  0
APPID
  5
1019
100
AcDbSymbolTableRecord
100
AcDbRegAppTableRecord
  2
GEVID966521051
 70
     0
  0
APPID
  5
101A
100
AcDbSymbolTableRecord
100
AcDbRegAppTableRecord
  2
GEVID966521052
 70
     0
  0
APPID
  5
101B
100
AcDbSymbolTableRecord
100
AcDbRegAppTableRecord
  2
GEVID966521054
 70
     0
  0
APPID
  5
101C
100
AcDbSymbolTableRecord
100
AcDbRegAppTableRecord
  2
GEVID966521055
 70
     0
  0
APPID
  5
101D
100
AcDbSymbolTableRecord
100
AcDbRegAppTableRecord
  2
GEVID966521056
 70
     0
  0
APPID
  5
101E
100
AcDbSymbolTableRecord
100
AcDbRegAppTableRecord
  2
GEVID966521057
 70
     0
  0
APPID
  5
101F
100
AcDbSymbolTableRecord
100
AcDbRegAppTableRecord
  2
GEVID966521058
 70
     0
  0
APPID
  5
1020
100
AcDbSymbolTableRecord
100
AcDbRegAppTableRecord
  2
GEVID966521059
 70
     0
  0
APPID
  5
1105
100
AcDbSymbolTableRecord
100
AcDbRegAppTableRecord
  2
ADE
 70
     0
  0
ENDTAB
  0
TABLE
  2
DIMSTYLE
  5
A
100
AcDbSymbolTable
 70
     2
  0
DIMSTYLE
105
35
100
AcDbSymbolTableRecord
100
AcDbDimStyleTableRecord
  2
STANDARD_WS
 70
     0
  3

  4

  5

  6

  7

 40
1.0
 41
2.5
 42
0.625
 43
3.75
 44
1.25
 45
0.0
 46
0.0
 47
0.0
 48
0.0
140
2.5
141
2.5
142
0.0
143
0.0394
144
1.0
145
0.0
146
1.0
147
0.625
 71
     0
 72
     0
 73
     0
 74
     0
 75
     0
 76
     0
 77
     1
 78
     8
170
     0
171
     4
172
     1
173
     0
174
     0
175
     0
176
     0
177
     0
178
     0
270
     2
271
     4
272
     4
273
     8
274
     4
340
F
275
     0
280
     0
281
     0
282
     0
283
     1
284
     0
285
     0
286
     0
287
     3
288
     0
  0
DIMSTYLE
105
FFD
100
AcDbSymbolTableRecord
100
AcDbDimStyleTableRecord
  2
AM_JIS
 70
     0
  3

  4
"
  5
OPEN30
  6
OPEN30
  7
OPEN30
 40
1.0
 41
2.5
 42
1.0
 43
10.0
 44
1.0
 45
0.0
 46
0.0
 47
0.1
 48
0.1
140
3.5
141
0.0
142
0.0
143
0.03937
144
1.0
145
0.0
146
0.71
147
1.5
 71
     0
 72
     0
 73
     0
 74
     0
 75
     0
 76
     0
 77
     3
 78
     8
170
     0
171
     2
172
     1
173
     0
174
     0
175
     0
176
   256
177
   256
178
     2
270
     2
271
     2
272
     3
273
     2
274
     4
340
F
275
     0
280
     0
281
     0
282
     0
283
     0
284
     0
285
     0
286
     0
287
     3
288
     0
  0
ENDTAB
  0
TABLE
  2
BLOCK_RECORD
  5
1
100
AcDbSymbolTable
 70
    13
  0
BLOCK_RECORD
  5
18
102
{ACAD_XDICTIONARY
360
110A
102
}
100
AcDbSymbolTableRecord
100
AcDbBlockTableRecord
  2
*MODEL_SPACE
  0
BLOCK_RECORD
  5
15
102
{ACAD_XDICTIONARY
360
1108
102
}
100
AcDbSymbolTableRecord
100
AcDbBlockTableRecord
  2
*PAPER_SPACE
  0
BLOCK_RECORD
  5
FE7
100
AcDbSymbolTableRecord
100
AcDbBlockTableRecord
  2
_OPEN30
  0
BLOCK_RECORD
  5
FED
100
AcDbSymbolTableRecord
100
AcDbBlockTableRecord
  2
GENAXEH
  0
ENDTAB
  0
ENDSEC
  0
SECTION
  2
BLOCKS
  0
BLOCK
  5
19
100
AcDbEntity
  8
0
100
AcDbBlockBegin
  2
*MODEL_SPACE
 70
     2
 10
0.0
 20
0.0
 30
0.0
  3
*MODEL_SPACE
  1

  0
ENDBLK
  5
1A
100
AcDbEntity
  8
0
100
AcDbBlockEnd
  0
BLOCK
  5
16
100
AcDbEntity
 67
     1
  8
0
100
AcDbBlockBegin
  2
*PAPER_SPACE
 70
     0
 10
0.0
 20
0.0
 30
0.0
  3
*PAPER_SPACE
  1

  0
ENDBLK
  5
17
100
AcDbEntity
 67
     1
  8
0
100
AcDbBlockEnd
  0
BLOCK
  5
FEB
100
AcDbEntity
  8
0
100
AcDbBlockBegin
  2
_OPEN30
 70
     0
 10
0.0
 20
0.0
 30
0.0
  3
_OPEN30
  1

  0
LINE
  5
FE8
100
AcDbEntity
  8
0
 62
     0
100
AcDbLine
 10
-1.0
 20
0.267949
 30
0.0
 11
0.0
 21
0.0
 31
0.0
  0
LINE
  5
FE9
100
AcDbEntity
  8
0
 62
     0
100
AcDbLine
 10
0.0
 20
0.0
 30
0.0
 11
-1.0
 21
-0.267949
 31
0.0
  0
LINE
  5
FEA
100
AcDbEntity
  8
0
 62
     0
100
AcDbLine
 10
0.0
 20
0.0
 30
0.0
 11
-1.0
 21
0.0
 31
0.0
  0
ENDBLK
  5
FEC
100
AcDbEntity
  8
0
100
AcDbBlockEnd
  0
BLOCK
  5
FEF
100
AcDbEntity
  8
0
100
AcDbBlockBegin
  2
GENAXEH
 70
     0
 10
0.0
 20
0.0
 30
0.0
  3
GENAXEH
  1

  0
LINE
  5
FEE
100
AcDbEntity
  8
0
100
AcDbLine
 10
-1.0
 20
0.0
 30
0.0
 11
1.0
 21
0.0
 31
0.0
  0
ENDBLK
  5
FF0
100
AcDbEntity
  8
0
100
AcDbBlockEnd
  0
ENDSEC
  0
SECTION
  2
ENTITIES
  0
TEXT
  5
3E9
100
AcDbEntity
  8
図枠部品表
 62
     3
100
AcDbText
 10
403.65269
 20
422.521663
 30
0.0
 40
2.4325
  1

 41
0.8
  7
KANJI
 72
     1
 11
403.65269
 21
423.737913
 31
0.0
100
AcDbText
 73
     2
  0
TEXT
  5
A9F
100
AcDbEntity
  8
図枠
 62
     7
100
AcDbText
 10
162.933452
 20
10.11536
 30
0.0
 40
2.6
  1

  7
KANJI
 72
     1
 11
162.933452
 21
11.41536
 31
0.0
100
AcDbText
 73
     2
  0
TEXT
  5
AA9
100
AcDbEntity
  8
図枠部品表
 62
     3
100
AcDbText
 10
185.239249
 20
272.83363
 30
0.0
 40
2.3
  1

 41
0.8
  7
KANJI
 72
     1
 11
185.239249
 21
273.98363
 31
0.0
100
AcDbText
 73
     2
  0
LINE
  5
AEF
100
AcDbEntity
  8
CENTER
100
AcDbLine
 10
118.188773
 20
156.54819
 30
0.0
 11
158.188773
 21
156.54819
 31
0.0
  0
ARC
  5
AF2
100
AcDbEntity
  8
0
100
AcDbCircle
 10
138.188773
 20
156.54819
 30
0.0
 40
15.0
100
AcDbArc
 50
272.865984
 51
267.134016
  0
ARC
  5
AF3
100
AcDbEntity
  8
0
100
AcDbCircle
 10
138.188773
 20
156.54819
 30
0.0
 40
4.0
100
AcDbArc
 50
100.806923
 51
259.193077
  0
ARC
  5
AF4
100
AcDbEntity
  8
0
100
AcDbCircle
 10
138.188773
 20
156.54819
 30
0.0
 40
14.5
100
AcDbArc
 50
272.964898
 51
267.035102
  0
ARC
  5
AF5
100
AcDbEntity
  8
0
100
AcDbCircle
 10
138.188773
 20
156.54819
 30
0.0
 40
4.5
100
AcDbArc
 50
99.594068
 51
260.405932
  0
LINE
  5
AF7
100
AcDbEntity
  8
0
100
AcDbLine
 10
138.938773
 20
141.566952
 30
0.0
 11
138.938773
 21
152.619132
 31
0.0
  0
ARC
  5
AFC
100
AcDbEntity
  8
0
100
AcDbCircle
 10
138.188773
 20
156.54819
 30
0.0
 40
4.0
100
AcDbArc
 50
280.806923
 51
79.193077
  0
ARC
  5
AFD
100
AcDbEntity
  8
0
100
AcDbCircle
 10
138.188773
 20
156.54819
 30
0.0
 40
4.5
100
AcDbArc
 50
279.594068
 51
80.405932
  0
LINE
  5
AFE
100
AcDbEntity
  8
0
100
AcDbLine
 10
138.938773
 20
166.54819
 30
0.0
 11
137.438773
 21
166.54819
 31
0.0
  0
LINE
  5
B01
100
AcDbEntity
  8
0
100
AcDbLine
 10
137.438773
 20
166.54819
 30
0.0
 11
137.438773
 21
160.477248
 31
0.0
  0
LINE
  5
B06
100
AcDbEntity
  8
CENTER
100
AcDbLine
 10
123.188773
 20
147.54819
 30
0.0
 11
153.188773
 21
147.54819
 31
0.0
  0
LINE
  5
B0E
100
AcDbEntity
  8
CENTER
  6
HIDDEN
 62
     3
100
AcDbLine
 10
151.9365
 20
150.54819
 30
0.0
 11
147.575323
 21
150.54819
 31
0.0
  0
LINE
  5
B10
100
AcDbEntity
  8
0
  6
HIDDEN
100
AcDbLine
 10
133.188773
 20
142.406054
 30
0.0
 11
133.188773
 21
153.54819
 31
0.0
  0
LINE
  5
B11
100
AcDbEntity
  8
0
100
AcDbLine
 10
70.462731
 20
171.54819
 30
0.0
 11
56.462731
 21
171.54819
 31
0.0
  0
LINE
  5
B13
100
AcDbEntity
  8
0
100
AcDbLine
 10
70.462731
 20
141.54819
 30
0.0
 11
56.462731
 21
141.54819
 31
0.0
  0
LINE
  5
B18
100
AcDbEntity
  8
CENTER
100
AcDbLine
 10
63.462731
 20
155.604628
 30
0.0
 11
63.462731
 21
139.491752
 31
0.0
  0
LINE
  5
B1D
100
AcDbEntity
  8
0
100
AcDbLine
 10
55.962731
 20
142.04819
 30
0.0
 11
55.962731
 21
171.04819
 31
0.0
  0
LINE
  5
B1F
100
AcDbEntity
  8
0
100
AcDbLine
 10
70.962731
 20
171.04819
 30
0.0
 11
70.962731
 21
142.04819
 31
0.0
  0
LINE
  5
B20
100
AcDbEntity
  8
0
100
AcDbLine
 10
70.462731
 20
171.54819
 30
0.0
 11
70.962731
 21
171.04819
 31
0.0
  0
LINE
  5
B21
100
AcDbEntity
  8
0
100
AcDbLine
 10
56.462731
 20
171.54819
 30
0.0
 11
55.962731
 21
171.04819
 31
0.0
  0
LINE
  5
B22
100
AcDbEntity
  8
0
100
AcDbLine
 10
70.462731
 20
141.54819
 30
0.0
 11
70.962731
 21
142.04819
 31
0.0
  0
LINE
  5
B23
100
AcDbEntity
  8
0
100
AcDbLine
 10
56.462731
 20
141.54819
 30
0.0
 11
55.962731
 21
142.04819
 31
0.0
  0
LINE
  5
B24
100
AcDbEntity
  8
0
100
AcDbLine
 10
70.462731
 20
171.54819
 30
0.0
 11
70.462731
 21
141.54819
 31
0.0
  0
LINE
  5
B25
100
AcDbEntity
  8
0
100
AcDbLine
 10
56.462731
 20
171.54819
 30
0.0
 11
56.462731
 21
141.54819
 31
0.0
  0
LINE
  5
B2A
100
AcDbEntity
  8
CENTER
100
AcDbLine
 10
73.462731
 20
156.54819
 30
0.0
 11
53.462731
 21
156.54819
 31
0.0
  0
LINE
  5
B2C
100
AcDbEntity
  8
0
  6
HIDDEN
100
AcDbLine
 10
70.962731
 20
166.54819
 30
0.0
 11
55.962731
 21
166.54819
 31
0.0
  0
LINE
  5
B2E
100
AcDbEntity
  8
0
  6
HIDDEN
100
AcDbLine
 10
70.462731
 20
160.54819
 30
0.0
 11
56.462731
 21
160.54819
 31
0.0
  0
LINE
  5
B30
100
AcDbEntity
  8
0
  6
HIDDEN
100
AcDbLine
 10
56.462731
 20
152.54819
 30
0.0
 11
70.462731
 21
152.54819
 31
0.0
  0
LINE
  5
B31
100
AcDbEntity
  8
CENTER
100
AcDbLine
 10
71.519169
 20
147.54819
 30
0.0
 11
55.406294
 21
147.54819
 31
0.0
  0
LINE
  5
B3B
100
AcDbEntity
  8
0
100
AcDbLine
 10
69.462731
 20
142.406054
 30
0.0
 11
57.462731
 21
142.406054
 31
0.0
  0
ARC
  5
B3D
100
AcDbEntity
  8
0
100
AcDbCircle
 10
63.462731
 20
147.54819
 30
0.0
 40
6.0
100
AcDbArc
 50
0.0
 51
180.0
  0
LINE
  5
B3E
100
AcDbEntity
  8
0
100
AcDbLine
 10
69.462731
 20
147.54819
 30
0.0
 11
69.462731
 21
142.406054
 31
0.0
  0
LINE
  5
B3F
100
AcDbEntity
  8
0
100
AcDbLine
 10
57.462731
 20
147.54819
 30
0.0
 11
57.462731
 21
142.406054
 31
0.0
  0
LINE
  5
B49
100
AcDbEntity
  8
0
  6
HIDDEN
100
AcDbLine
 10
133.188773
 20
151.04819
 30
0.0
 11
137.438773
 21
151.04819
 31
0.0
  0
LINE
  5
B4A
100
AcDbEntity
  8
0
  6
HIDDEN
100
AcDbLine
 10
133.188773
 20
144.04819
 30
0.0
 11
137.438773
 21
144.04819
 31
0.0
  0
LINE
  5
B4C
100
AcDbEntity
  8
0
  6
HIDDEN
100
AcDbLine
 10
123.491834
 20
153.54819
 30
0.0
 11
133.188773
 21
153.54819
 31
0.0
  0
LINE
  5
B4D
100
AcDbEntity
  8
0
100
AcDbLine
 10
137.438773
 20
152.619132
 30
0.0
 11
137.438773
 21
141.566952
 31
0.0
  0
LINE
  5
B4E
100
AcDbEntity
  8
0
100
AcDbLine
 10
138.938773
 20
160.477248
 30
0.0
 11
138.938773
 21
166.54819
 31
0.0
  0
LINE
  5
C73
100
AcDbEntity
  8
0
100
AcDbLine
 10
70.462731
 20
160.54819
 30
0.0
 11
70.962731
 21
161.04819
 31
0.0
  0
LINE
  5
C75
100
AcDbEntity
  8
0
100
AcDbLine
 10
56.462731
 20
160.54819
 30
0.0
 11
55.962731
 21
161.04819
 31
0.0
  0
LINE
  5
C76
100
AcDbEntity
  8
0
100
AcDbLine
 10
56.462731
 20
152.54819
 30
0.0
 11
55.962731
 21
152.04819
 31
0.0
  0
LINE
  5
C77
100
AcDbEntity
  8
0
100
AcDbLine
 10
70.462731
 20
152.54819
 30
0.0
 11
70.962731
 21
152.04819
 31
0.0
  0
CIRCLE
  5
FB2
100
AcDbEntity
  8
0
 62
     3
100
AcDbCircle
 10
16.284098
 20
147.54819
 30
0.0
 40
2.4585
  0
CIRCLE
  5
FB3
100
AcDbEntity
  8
0
100
AcDbCircle
 10
16.284098
 20
147.54819
 30
0.0
 40
3.0
  0
CIRCLE
  5
FB4
100
AcDbEntity
  8
0
100
AcDbCircle
 10
16.284098
 20
147.54819
 30
0.0
 40
3.5
  0
LINE
  5
FB8
100
AcDbEntity
  8
0
100
AcDbLine
 10
23.784098
 20
171.04819
 30
0.0
 11
23.784098
 21
161.04819
 31
0.0
  0
LINE
  5
FB9
100
AcDbEntity
  8
0
100
AcDbLine
 10
8.784098
 20
142.04819
 30
0.0
 11
8.784098
 21
152.04819
 31
0.0
  0
LINE
  5
FBA
100
AcDbEntity
  8
CENTER
100
AcDbLine
 10
16.284098
 20
155.604628
 30
0.0
 11
16.284098
 21
139.491752
 31
0.0
  0
LINE
  5
FBC
100
AcDbEntity
  8
CENTER
100
AcDbLine
 10
24.340535
 20
147.54819
 30
0.0
 11
8.22766
 21
147.54819
 31
0.0
  0
LINE
  5
FBD
100
AcDbEntity
  8
0
100
AcDbLine
 10
23.284098
 20
141.54819
 30
0.0
 11
9.284098
 21
141.54819
 31
0.0
  0
LINE
  5
FBF
100
AcDbEntity
  8
0
100
AcDbLine
 10
9.284098
 20
141.54819
 30
0.0
 11
8.784098
 21
142.04819
 31
0.0
  0
LINE
  5
FC0
100
AcDbEntity
  8
0
100
AcDbLine
 10
23.284098
 20
141.54819
 30
0.0
 11
23.784098
 21
142.04819
 31
0.0
  0
LINE
  5
FC2
100
AcDbEntity
  8
0
100
AcDbLine
 10
9.284098
 20
152.54819
 30
0.0
 11
23.284098
 21
152.54819
 31
0.0
  0
LINE
  5
FC3
100
AcDbEntity
  8
0
100
AcDbLine
 10
23.284098
 20
160.54819
 30
0.0
 11
9.284098
 21
160.54819
 31
0.0
  0
LINE
  5
FC5
100
AcDbEntity
  8
CENTER
100
AcDbLine
 10
26.284098
 20
156.54819
 30
0.0
 11
6.284098
 21
156.54819
 31
0.0
  0
LINE
  5
FC6
100
AcDbEntity
  8
0
100
AcDbLine
 10
23.284098
 20
171.54819
 30
0.0
 11
9.284098
 21
171.54819
 31
0.0
  0
LINE
  5
FC7
100
AcDbEntity
  8
0
100
AcDbLine
 10
9.284098
 20
152.54819
 30
0.0
 11
8.784098
 21
152.04819
 31
0.0
  0
LINE
  5
FC8
100
AcDbEntity
  8
0
100
AcDbLine
 10
9.284098
 20
160.54819
 30
0.0
 11
8.784098
 21
161.04819
 31
0.0
  0
LINE
  5
FC9
100
AcDbEntity
  8
0
100
AcDbLine
 10
9.284098
 20
171.54819
 30
0.0
 11
8.784098
 21
171.04819
 31
0.0
  0
LINE
  5
FCA
100
AcDbEntity
  8
0
100
AcDbLine
 10
23.284098
 20
152.54819
 30
0.0
 11
23.784098
 21
152.04819
 31
0.0
  0
LINE
  5
FCB
100
AcDbEntity
  8
0
100
AcDbLine
 10
23.284098
 20
160.54819
 30
0.0
 11
23.784098
 21
161.04819
 31
0.0
  0
LINE
  5
FCC
100
AcDbEntity
  8
0
100
AcDbLine
 10
23.284098
 20
171.54819
 30
0.0
 11
23.784098
 21
171.04819
 31
0.0
  0
POINT
  5
1021
100
AcDbEntity
  8
0
 60
     1
100
AcDbPoint
 10
160.379473
 20
182.322442
 30
0.0
 50
90.0
1001
GENIUS_GENOBJ-NBEHI-BHF_13
1002
{
1000
OWNER
1000
GENBEHI
1002
}
1001
GENIUS_GENOENT_13
1002
{
1000
MYREF
1005
1021
1002
}
1002
{
1000
GRP
1005
0
1002
}
1001
GENIUS_GENOLIS_13
1002
{
1000
ENT
1005
0
1002
}
1001
GENIUS_GENBH_13
1002
{
1000
OIUMAP
1000
OIU
1002
}
1002
{
1000
FLAGS
1070
    32
1002
}
1002
{
1000
BGO
1005
1022
1002
}
1001
GENIUS_GENODEF_13
1002
{
1000
HIER
1070
     1
1002
}
1002
{
1000
MANEDIT
1070
     1
1002
}
1002
{
1000
NOSEL
1070
     1
1002
}
1002
{
1000
BEHIND
1070
     0
1002
}
1002
{
1000
REACTOR
1002
}
  0
POINT
  5
1022
100
AcDbEntity
  8
0
 60
     1
100
AcDbPoint
 10
160.379473
 20
182.322442
 30
0.0
 50
90.0
1001
GENIUS_GENOBJ-NBEHI-BHB_13
1002
{
1000
OWNER
1000
GENBEHI
1002
}
1001
GENIUS_GENOENT_13
1002
{
1000
MYREF
1005
1022
1002
}
1002
{
1000
GRP
1005
0
1002
}
1001
GENIUS_GENOLIS_13
1002
{
1000
ENT
1002
}
1001
GENIUS_GENODEF_13
1002
{
1000
HIER
1070
     1
1002
}
1002
{
1000
MANEDIT
1070
     0
1002
}
1002
{
1000
NOSEL
1070
     1
1002
}
1002
{
1000
BEHIND
1070
     0
1002
}
1002
{
1000
REACTOR
1002
}
1002
{
1000
OTHER
1070
     1
1002
}
1001
GENIUS_GENBH_13
1002
{
1000
FGO
1005
1021
1002
}
  0
POINT
  5
1023
100
AcDbEntity
  8
0
 60
     1
100
AcDbPoint
 10
160.379473
 20
182.322442
 30
0.0
 50
90.0
1001
GENIUS_GENOBJ-NBEHI-BHF_13
1002
{
1000
OWNER
1000
GENBEHI
1002
}
1001
GENIUS_GENOENT_13
1002
{
1000
MYREF
1005
1023
1002
}
1002
{
1000
GRP
1005
0
1002
}
1001
GENIUS_GENOLIS_13
1002
{
1000
ENT
1005
0
1002
}
1001
GENIUS_GENODEF_13
1002
{
1000
HIER
1070
     1
1002
}
1002
{
1000
MANEDIT
1070
     0
1002
}
1002
{
1000
NOSEL
1070
     1
1002
}
1002
{
1000
BEHIND
1070
     0
1002
}
1002
{
1000
REACTOR
1002
}
1001
GENIUS_GENBH_13
1002
{
1000
OIUMAP
1000
OIU
1002
}
1002
{
1000
FLAGS
1070
    32
1002
}
1002
{
1000
BGO
1005
1024
1002
}
  0
POINT
  5
1024
100
AcDbEntity
  8
0
 60
     1
100
AcDbPoint
 10
160.379473
 20
182.322442
 30
0.0
 50
90.0
1001
GENIUS_GENOBJ-NBEHI-BHB_13
1002
{
1000
OWNER
1000
GENBEHI
1002
}
1001
GENIUS_GENOENT_13
1002
{
1000
MYREF
1005
1024
1002
}
1002
{
1000
GRP
1005
0
1002
}
1001
GENIUS_GENOLIS_13
1002
{
1000
ENT
1002
}
1001
GENIUS_GENODEF_13
1002
{
1000
HIER
1070
     1
1002
}
1002
{
1000
MANEDIT
1070
     0
1002
}
1002
{
1000
NOSEL
1070
     1
1002
}
1002
{
1000
BEHIND
1070
     0
1002
}
1002
{
1000
REACTOR
1002
}
1002
{
1000
OTHER
1070
     1
1002
}
1001
GENIUS_GENBH_13
1002
{
1000
FGO
1005
1023
1002
}
  0
POINT
  5
1025
100
AcDbEntity
  8
0
 60
     1
100
AcDbPoint
 10
160.379473
 20
182.322442
 30
0.0
 50
90.0
1001
GENIUS_GENOBJ-NBEHI-BHF_13
1002
{
1000
OWNER
1000
GENBEHI
1002
}
1001
GENIUS_GENOENT_13
1002
{
1000
MYREF
1005
1025
1002
}
1002
{
1000
GRP
1005
0
1002
}
1001
GENIUS_GENOLIS_13
1002
{
1000
ENT
1005
0
1002
}
1001
GENIUS_GENBH_13
1002
{
1000
OIUMAP
1000
OIU
1002
}
1002
{
1000
FLAGS
1070
    32
1002
}
1002
{
1000
BGO
1005
1026
1002
}
1001
GENIUS_GENODEF_13
1002
{
1000
HIER
1070
     1
1002
}
1002
{
1000
MANEDIT
1070
     1
1002
}
1002
{
1000
NOSEL
1070
     1
1002
}
1002
{
1000
BEHIND
1070
     0
1002
}
1002
{
1000
REACTOR
1002
}
  0
POINT
  5
1026
100
AcDbEntity
  8
0
 60
     1
100
AcDbPoint
 10
160.379473
 20
182.322442
 30
0.0
 50
90.0
1001
GENIUS_GENOBJ-NBEHI-BHB_13
1002
{
1000
OWNER
1000
GENBEHI
1002
}
1001
GENIUS_GENOENT_13
1002
{
1000
MYREF
1005
1026
1002
}
1002
{
1000
GRP
1005
0
1002
}
1001
GENIUS_GENOLIS_13
1002
{
1000
ENT
1002
}
1001
GENIUS_GENODEF_13
1002
{
1000
HIER
1070
     1
1002
}
1002
{
1000
MANEDIT
1070
     0
1002
}
1002
{
1000
NOSEL
1070
     1
1002
}
1002
{
1000
BEHIND
1070
     0
1002
}
1002
{
1000
REACTOR
1002
}
1002
{
1000
OTHER
1070
     1
1002
}
1001
GENIUS_GENBH_13
1002
{
1000
FGO
1005
1025
1002
}
  0
POINT
  5
1027
100
AcDbEntity
  8
0
 60
     1
100
AcDbPoint
 10
160.379473
 20
182.322442
 30
0.0
 50
90.0
1001
GENIUS_GENOBJ-F-SCPASSM_13
1002
{
1000
OWNER
1000
GEF
1002
}
1001
GENIUS_GENOENT_13
1002
{
1000
MYREF
1005
1027
1002
}
1002
{
1000
GRP
1005
0
1002
}
1001
GENIUS_GENOLIS_13
1002
{
1000
ENT
1005
0
1005
0
1002
}
1001
GENIUS_GENODEF_13
1002
{
1000
HIER
1070
   200
1002
}
1002
{
1000
MANEDIT
1070
     1
1002
}
1002
{
1000
NOSEL
1070
     0
1002
}
1002
{
1000
BEHIND
1070
     0
1002
}
1002
{
1000
REACTOR
1002
}
  0
POINT
  5
1028
100
AcDbEntity
  8
0
 60
     1
100
AcDbPoint
 10
160.379473
 20
182.322442
 30
0.0
 50
90.0
1001
GENIUS_GENOBJ-NBEHI-BHF_13
1002
{
1000
OWNER
1000
GENBEHI
1002
}
1001
GENIUS_GENOENT_13
1002
{
1000
MYREF
1005
1028
1002
}
1002
{
1000
GRP
1005
0
1002
}
1001
GENIUS_GENOLIS_13
1002
{
1000
ENT
1005
0
1002
}
1001
GENIUS_GENODEF_13
1002
{
1000
HIER
1070
     1
1002
}
1002
{
1000
MANEDIT
1070
     0
1002
}
1002
{
1000
NOSEL
1070
     1
1002
}
1002
{
1000
BEHIND
1070
     0
1002
}
1002
{
1000
REACTOR
1002
}
1001
GENIUS_GENBH_13
1002
{
1000
OIUMAP
1000
OIU
1002
}
1002
{
1000
FLAGS
1070
    32
1002
}
1002
{
1000
BGO
1005
1029
1002
}
  0
POINT
  5
1029
100
AcDbEntity
  8
0
 60
     1
100
AcDbPoint
 10
160.379473
 20
182.322442
 30
0.0
 50
90.0
1001
GENIUS_GENOBJ-NBEHI-BHB_13
1002
{
1000
OWNER
1000
GENBEHI
1002
}
1001
GENIUS_GENOENT_13
1002
{
1000
MYREF
1005
1029
1002
}
1002
{
1000
GRP
1005
0
1002
}
1001
GENIUS_GENOLIS_13
1002
{
1000
ENT
1002
}
1001
GENIUS_GENODEF_13
1002
{
1000
HIER
1070
     1
1002
}
1002
{
1000
MANEDIT
1070
     0
1002
}
1002
{
1000
NOSEL
1070
     1
1002
}
1002
{
1000
BEHIND
1070
     0
1002
}
1002
{
1000
REACTOR
1002
}
1002
{
1000
OTHER
1070
     1
1002
}
1001
GENIUS_GENBH_13
1002
{
1000
FGO
1005
1028
1002
}
  0
POINT
  5
102A
100
AcDbEntity
  8
0
 60
     1
100
AcDbPoint
 10
160.379473
 20
182.322442
 30
0.0
 50
90.0
1001
GENIUS_GENOBJ-NBEHI-BHF_13
1002
{
1000
OWNER
1000
GENBEHI
1002
}
1001
GENIUS_GENOENT_13
1002
{
1000
MYREF
1005
102A
1002
}
1002
{
1000
GRP
1005
0
1002
}
1001
GENIUS_GENOLIS_13
1002
{
1000
ENT
1005
0
1002
}
1001
GENIUS_GENBH_13
1002
{
1000
OIUMAP
1000
OIU
1002
}
1002
{
1000
FLAGS
1070
    32
1002
}
1002
{
1000
BGO
1005
102B
1002
}
1001
GENIUS_GENODEF_13
1002
{
1000
HIER
1070
     1
1002
}
1002
{
1000
MANEDIT
1070
     1
1002
}
1002
{
1000
NOSEL
1070
     1
1002
}
1002
{
1000
BEHIND
1070
     0
1002
}
1002
{
1000
REACTOR
1002
}
  0
POINT
  5
102B
100
AcDbEntity
  8
0
 60
     1
100
AcDbPoint
 10
160.379473
 20
182.322442
 30
0.0
 50
90.0
1001
GENIUS_GENOBJ-NBEHI-BHB_13
1002
{
1000
OWNER
1000
GENBEHI
1002
}
1001
GENIUS_GENOENT_13
1002
{
1000
MYREF
1005
102B
1002
}
1002
{
1000
GRP
1005
0
1002
}
1001
GENIUS_GENOLIS_13
1002
{
1000
ENT
1005
0
1002
}
1001
GENIUS_GENODEF_13
1002
{
1000
HIER
1070
     1
1002
}
1002
{
1000
MANEDIT
1070
     0
1002
}
1002
{
1000
NOSEL
1070
     1
1002
}
1002
{
1000
BEHIND
1070
     0
1002
}
1002
{
1000
REACTOR
1002
}
1002
{
1000
OTHER
1070
     1
1002
}
1001
GENIUS_GENBH_13
1002
{
1000
FGO
1005
102A
1002
}
  0
POINT
  5
102C
100
AcDbEntity
  8
0
 60
     1
100
AcDbPoint
 10
160.379473
 20
182.322442
 30
0.0
 50
90.0
1001
GENIUS_GENOBJ-F-SCPASSM_13
1002
{
1000
OWNER
1000
GEF
1002
}
1001
GENIUS_GENOENT_13
1002
{
1000
MYREF
1005
102C
1002
}
1002
{
1000
GRP
1005
0
1002
}
1001
GENIUS_GENOLIS_13
1002
{
1000
ENT
1005
0
1005
0
1002
}
1001
GENIUS_GENODEF_13
1002
{
1000
HIER
1070
   200
1002
}
1002
{
1000
MANEDIT
1070
     1
1002
}
1002
{
1000
NOSEL
1070
     0
1002
}
1002
{
1000
BEHIND
1070
     0
1002
}
1002
{
1000
REACTOR
1002
}
  0
POINT
  5
102D
100
AcDbEntity
  8
0
 60
     1
100
AcDbPoint
 10
160.379473
 20
182.322442
 30
0.0
 50
90.0
1001
GENIUS_GENOBJ-NBEHI-BHF_13
1002
{
1000
OWNER
1000
GENBEHI
1002
}
1001
GENIUS_GENOENT_13
1002
{
1000
MYREF
1005
102D
1002
}
1002
{
1000
GRP
1005
0
1002
}
1001
GENIUS_GENOLIS_13
1002
{
1000
ENT
1005
0
1002
}
1001
GENIUS_GENODEF_13
1002
{
1000
HIER
1070
     1
1002
}
1002
{
1000
MANEDIT
1070
     0
1002
}
1002
{
1000
NOSEL
1070
     1
1002
}
1002
{
1000
BEHIND
1070
     0
1002
}
1002
{
1000
REACTOR
1002
}
1001
GENIUS_GENBH_13
1002
{
1000
OIUMAP
1000
OIU
1002
}
1002
{
1000
FLAGS
1070
    32
1002
}
1002
{
1000
BGO
1005
102E
1002
}
  0
POINT
  5
102E
100
AcDbEntity
  8
0
 60
     1
100
AcDbPoint
 10
160.379473
 20
182.322442
 30
0.0
 50
90.0
1001
GENIUS_GENOBJ-NBEHI-BHB_13
1002
{
1000
OWNER
1000
GENBEHI
1002
}
1001
GENIUS_GENOENT_13
1002
{
1000
MYREF
1005
102E
1002
}
1002
{
1000
GRP
1005
0
1002
}
1001
GENIUS_GENOLIS_13
1002
{
1000
ENT
1002
}
1001
GENIUS_GENODEF_13
1002
{
1000
HIER
1070
     1
1002
}
1002
{
1000
MANEDIT
1070
     0
1002
}
1002
{
1000
NOSEL
1070
     1
1002
}
1002
{
1000
BEHIND
1070
     0
1002
}
1002
{
1000
REACTOR
1002
}
1002
{
1000
OTHER
1070
     1
1002
}
1001
GENIUS_GENBH_13
1002
{
1000
FGO
1005
102D
1002
}
  0
POINT
  5
102F
100
AcDbEntity
  8
0
 60
     1
100
AcDbPoint
 10
160.379473
 20
182.322442
 30
0.0
 50
90.0
1001
GENIUS_GENOBJ-NBEHI-BHF_13
1002
{
1000
OWNER
1000
GENBEHI
1002
}
1001
GENIUS_GENOENT_13
1002
{
1000
MYREF
1005
102F
1002
}
1002
{
1000
GRP
1005
0
1002
}
1001
GENIUS_GENOLIS_13
1002
{
1000
ENT
1005
0
1002
}
1001
GENIUS_GENBH_13
1002
{
1000
OIUMAP
1000
OIU
1002
}
1002
{
1000
FLAGS
1070
    32
1002
}
1002
{
1000
BGO
1005
1030
1002
}
1001
GENIUS_GENODEF_13
1002
{
1000
HIER
1070
     1
1002
}
1002
{
1000
MANEDIT
1070
     1
1002
}
1002
{
1000
NOSEL
1070
     1
1002
}
1002
{
1000
BEHIND
1070
     0
1002
}
1002
{
1000
REACTOR
1002
}
  0
POINT
  5
1030
100
AcDbEntity
  8
0
 60
     1
100
AcDbPoint
 10
160.379473
 20
182.322442
 30
0.0
 50
90.0
1001
GENIUS_GENOBJ-NBEHI-BHB_13
1002
{
1000
OWNER
1000
GENBEHI
1002
}
1001
GENIUS_GENOENT_13
1002
{
1000
MYREF
1005
1030
1002
}
1002
{
1000
GRP
1005
0
1002
}
1001
GENIUS_GENOLIS_13
1002
{
1000
ENT
1005
0
1002
}
1001
GENIUS_GENODEF_13
1002
{
1000
HIER
1070
     1
1002
}
1002
{
1000
MANEDIT
1070
     0
1002
}
1002
{
1000
NOSEL
1070
     1
1002
}
1002
{
1000
BEHIND
1070
     0
1002
}
1002
{
1000
REACTOR
1002
}
1002
{
1000
OTHER
1070
     1
1002
}
1001
GENIUS_GENBH_13
1002
{
1000
FGO
1005
102F
1002
}
  0
POINT
  5
1031
100
AcDbEntity
  8
0
 60
     1
100
AcDbPoint
 10
160.379473
 20
182.322442
 30
0.0
 50
90.0
1001
GENIUS_GENOBJ-F-SCPASSM_13
1002
{
1000
OWNER
1000
GEF
1002
}
1001
GENIUS_GENOENT_13
1002
{
1000
MYREF
1005
1031
1002
}
1002
{
1000
GRP
1005
0
1002
}
1001
GENIUS_GENOLIS_13
1002
{
1000
ENT
1005
0
1005
0
1002
}
1001
GENIUS_GENODEF_13
1002
{
1000
HIER
1070
   200
1002
}
1002
{
1000
MANEDIT
1070
     1
1002
}
1002
{
1000
NOSEL
1070
     0
1002
}
1002
{
1000
BEHIND
1070
     0
1002
}
1002
{
1000
REACTOR
1002
}
  0
POINT
  5
1032
100
AcDbEntity
  8
0
 60
     1
100
AcDbPoint
 10
160.379473
 20
182.322442
 30
0.0
 50
90.0
1001
GENIUS_GENOBJ-NBEHI-BHF_13
1002
{
1000
OWNER
1000
GENBEHI
1002
}
1001
GENIUS_GENOENT_13
1002
{
1000
MYREF
1005
1032
1002
}
1002
{
1000
GRP
1005
0
1002
}
1001
GENIUS_GENOLIS_13
1002
{
1000
ENT
1005
0
1002
}
1001
GENIUS_GENODEF_13
1002
{
1000
HIER
1070
     1
1002
}
1002
{
1000
MANEDIT
1070
     0
1002
}
1002
{
1000
NOSEL
1070
     1
1002
}
1002
{
1000
BEHIND
1070
     0
1002
}
1002
{
1000
REACTOR
1002
}
1001
GENIUS_GENBH_13
1002
{
1000
OIUMAP
1000
OIU
1002
}
1002
{
1000
FLAGS
1070
    32
1002
}
1002
{
1000
BGO
1005
1033
1002
}
  0
POINT
  5
1033
100
AcDbEntity
  8
0
 60
     1
100
AcDbPoint
 10
160.379473
 20
182.322442
 30
0.0
 50
90.0
1001
GENIUS_GENOBJ-NBEHI-BHB_13
1002
{
1000
OWNER
1000
GENBEHI
1002
}
1001
GENIUS_GENOENT_13
1002
{
1000
MYREF
1005
1033
1002
}
1002
{
1000
GRP
1005
0
1002
}
1001
GENIUS_GENOLIS_13
1002
{
1000
ENT
1002
}
1001
GENIUS_GENODEF_13
1002
{
1000
HIER
1070
     1
1002
}
1002
{
1000
MANEDIT
1070
     0
1002
}
1002
{
1000
NOSEL
1070
     1
1002
}
1002
{
1000
BEHIND
1070
     0
1002
}
1002
{
1000
REACTOR
1002
}
1002
{
1000
OTHER
1070
     1
1002
}
1001
GENIUS_GENBH_13
1002
{
1000
FGO
1005
1032
1002
}
  0
POINT
  5
1034
100
AcDbEntity
  8
0
 60
     1
100
AcDbPoint
 10
160.379473
 20
182.322442
 30
0.0
 50
90.0
1001
GENIUS_GENOBJ-NBEHI-BHF_13
1002
{
1000
OWNER
1000
GENBEHI
1002
}
1001
GENIUS_GENOENT_13
1002
{
1000
MYREF
1005
1034
1002
}
1002
{
1000
GRP
1005
0
1002
}
1001
GENIUS_GENOLIS_13
1002
{
1000
ENT
1005
0
1002
}
1001
GENIUS_GENBH_13
1002
{
1000
OIUMAP
1000
OIU
1002
}
1002
{
1000
FLAGS
1070
    32
1002
}
1002
{
1000
BGO
1005
1035
1002
}
1001
GENIUS_GENODEF_13
1002
{
1000
HIER
1070
     1
1002
}
1002
{
1000
MANEDIT
1070
     1
1002
}
1002
{
1000
NOSEL
1070
     1
1002
}
1002
{
1000
BEHIND
1070
     0
1002
}
1002
{
1000
REACTOR
1002
}
  0
POINT
  5
1035
100
AcDbEntity
  8
0
 60
     1
100
AcDbPoint
 10
160.379473
 20
182.322442
 30
0.0
 50
90.0
1001
GENIUS_GENOBJ-NBEHI-BHB_13
1002
{
1000
OWNER
1000
GENBEHI
1002
}
1001
GENIUS_GENOENT_13
1002
{
1000
MYREF
1005
1035
1002
}
1002
{
1000
GRP
1005
0
1002
}
1001
GENIUS_GENOLIS_13
1002
{
1000
ENT
1005
0
1002
}
1001
GENIUS_GENODEF_13
1002
{
1000
HIER
1070
     1
1002
}
1002
{
1000
MANEDIT
1070
     0
1002
}
1002
{
1000
NOSEL
1070
     1
1002
}
1002
{
1000
BEHIND
1070
     0
1002
}
1002
{
1000
REACTOR
1002
}
1002
{
1000
OTHER
1070
     1
1002
}
1001
GENIUS_GENBH_13
1002
{
1000
FGO
1005
1034
1002
}
  0
POINT
  5
1036
100
AcDbEntity
  8
0
 60
     1
100
AcDbPoint
 10
160.379473
 20
182.322442
 30
0.0
 50
90.0
1001
GENIUS_GENOBJ-F-SCPASSM_13
1002
{
1000
OWNER
1000
GEF
1002
}
1001
GENIUS_GENOENT_13
1002
{
1000
MYREF
1005
1036
1002
}
1002
{
1000
GRP
1005
0
1002
}
1001
GENIUS_GENOLIS_13
1002
{
1000
ENT
1005
0
1005
0
1002
}
1001
GENIUS_GENODEF_13
1002
{
1000
HIER
1070
   200
1002
}
1002
{
1000
MANEDIT
1070
     1
1002
}
1002
{
1000
NOSEL
1070
     0
1002
}
1002
{
1000
BEHIND
1070
     0
1002
}
1002
{
1000
REACTOR
1002
}
  0
POINT
  5
1037
100
AcDbEntity
  8
0
 60
     1
100
AcDbPoint
 10
160.379473
 20
182.322442
 30
0.0
 50
90.0
1001
GENIUS_GENOBJ-NBEHI-BHB_13
1002
{
1000
OWNER
1000
GENBEHI
1002
}
1001
GENIUS_GENOENT_13
1002
{
1000
MYREF
1005
1037
1002
}
1002
{
1000
GRP
1005
0
1002
}
1001
GENIUS_GENOLIS_13
1002
{
1000
ENT
1002
}
1001
GENIUS_GENODEF_13
1002
{
1000
HIER
1070
     1
1002
}
1002
{
1000
MANEDIT
1070
     0
1002
}
1002
{
1000
NOSEL
1070
     1
1002
}
1002
{
1000
BEHIND
1070
     0
1002
}
1002
{
1000
REACTOR
1002
}
1002
{
1000
OTHER
1070
     1
1002
}
1001
GENIUS_GENBH_13
1002
{
1000
FGO
1005
0
1002
}
  0
POINT
  5
1038
100
AcDbEntity
  8
0
 60
     1
100
AcDbPoint
 10
160.379473
 20
182.322442
 30
0.0
 50
90.0
1001
GENIUS_GENOBJ-NBEHI-BHF_13
1002
{
1000
OWNER
1000
GENBEHI
1002
}
1001
GENIUS_GENOENT_13
1002
{
1000
MYREF
1005
1038
1002
}
1002
{
1000
GRP
1005
0
1002
}
1001
GENIUS_GENOLIS_13
1002
{
1000
ENT
1005
0
1002
}
1001
GENIUS_GENBH_13
1002
{
1000
OIUMAP
1000
OIU
1002
}
1002
{
1000
FLAGS
1070
    32
1002
}
1002
{
1000
BGO
1005
0
1002
}
1001
GENIUS_GENODEF_13
1002
{
1000
HIER
1070
     1
1002
}
1002
{
1000
MANEDIT
1070
     1
1002
}
1002
{
1000
NOSEL
1070
     1
1002
}
1002
{
1000
BEHIND
1070
     0
1002
}
1002
{
1000
REACTOR
1002
}
  0
POINT
  5
1039
100
AcDbEntity
  8
0
 60
     1
100
AcDbPoint
 10
160.379473
 20
182.322442
 30
0.0
 50
90.0
1001
GENIUS_GENOBJ-NBEHI-BHF_13
1002
{
1000
OWNER
1000
GENBEHI
1002
}
1001
GENIUS_GENOENT_13
1002
{
1000
MYREF
1005
1039
1002
}
1002
{
1000
GRP
1005
0
1002
}
1001
GENIUS_GENOLIS_13
1002
{
1000
ENT
1005
0
1002
}
1001
GENIUS_GENODEF_13
1002
{
1000
HIER
1070
     1
1002
}
1002
{
1000
MANEDIT
1070
     0
1002
}
1002
{
1000
NOSEL
1070
     1
1002
}
1002
{
1000
BEHIND
1070
     0
1002
}
1002
{
1000
REACTOR
1002
}
1001
GENIUS_GENBH_13
1002
{
1000
OIUMAP
1000
OIU
1002
}
1002
{
1000
FLAGS
1070
    32
1002
}
1002
{
1000
BGO
1005
103A
1002
}
  0
POINT
  5
103A
100
AcDbEntity
  8
0
 60
     1
100
AcDbPoint
 10
160.379473
 20
182.322442
 30
0.0
 50
90.0
1001
GENIUS_GENOBJ-NBEHI-BHB_13
1002
{
1000
OWNER
1000
GENBEHI
1002
}
1001
GENIUS_GENOENT_13
1002
{
1000
MYREF
1005
103A
1002
}
1002
{
1000
GRP
1005
0
1002
}
1001
GENIUS_GENOLIS_13
1002
{
1000
ENT
1002
}
1001
GENIUS_GENODEF_13
1002
{
1000
HIER
1070
     1
1002
}
1002
{
1000
MANEDIT
1070
     0
1002
}
1002
{
1000
NOSEL
1070
     1
1002
}
1002
{
1000
BEHIND
1070
     0
1002
}
1002
{
1000
REACTOR
1002
}
1002
{
1000
OTHER
1070
     1
1002
}
1001
GENIUS_GENBH_13
1002
{
1000
FGO
1005
1039
1002
}
  0
POINT
  5
103B
100
AcDbEntity
  8
0
 60
     1
100
AcDbPoint
 10
160.379473
 20
182.322442
 30
0.0
 50
90.0
1001
GENIUS_GENOBJ-NBEHI-BHF_13
1002
{
1000
OWNER
1000
GENBEHI
1002
}
1001
GENIUS_GENOENT_13
1002
{
1000
MYREF
1005
103B
1002
}
1002
{
1000
GRP
1005
0
1002
}
1001
GENIUS_GENOLIS_13
1002
{
1000
ENT
1005
0
1002
}
1001
GENIUS_GENBH_13
1002
{
1000
OIUMAP
1000
OIU
1002
}
1002
{
1000
FLAGS
1070
    32
1002
}
1002
{
1000
BGO
1005
103C
1002
}
1001
GENIUS_GENODEF_13
1002
{
1000
HIER
1070
     1
1002
}
1002
{
1000
MANEDIT
1070
     1
1002
}
1002
{
1000
NOSEL
1070
     1
1002
}
1002
{
1000
BEHIND
1070
     0
1002
}
1002
{
1000
REACTOR
1002
}
  0
POINT
  5
103C
100
AcDbEntity
  8
0
 60
     1
100
AcDbPoint
 10
160.379473
 20
182.322442
 30
0.0
 50
90.0
1001
GENIUS_GENOBJ-NBEHI-BHB_13
1002
{
1000
OWNER
1000
GENBEHI
1002
}
1001
GENIUS_GENOENT_13
1002
{
1000
MYREF
1005
103C
1002
}
1002
{
1000
GRP
1005
0
1002
}
1001
GENIUS_GENOLIS_13
1002
{
1000
ENT
1005
0
1002
}
1001
GENIUS_GENODEF_13
1002
{
1000
HIER
1070
     1
1002
}
1002
{
1000
MANEDIT
1070
     0
1002
}
1002
{
1000
NOSEL
1070
     1
1002
}
1002
{
1000
BEHIND
1070
     0
1002
}
1002
{
1000
REACTOR
1002
}
1002
{
1000
OTHER
1070
     1
1002
}
1001
GENIUS_GENBH_13
1002
{
1000
FGO
1005
103B
1002
}
  0
POINT
  5
103D
100
AcDbEntity
  8
0
 60
     1
100
AcDbPoint
 10
160.379473
 20
182.322442
 30
0.0
 50
90.0
1001
GENIUS_GENOBJ-F-SCPASSM_13
1002
{
1000
OWNER
1000
GEF
1002
}
1001
GENIUS_GENOENT_13
1002
{
1000
MYREF
1005
103D
1002
}
1002
{
1000
GRP
1005
0
1002
}
1001
GENIUS_GENOLIS_13
1002
{
1000
ENT
1005
0
1005
0
1002
}
1001
GENIUS_GENODEF_13
1002
{
1000
HIER
1070
   200
1002
}
1002
{
1000
MANEDIT
1070
     1
1002
}
1002
{
1000
NOSEL
1070
     0
1002
}
1002
{
1000
BEHIND
1070
     0
1002
}
1002
{
1000
REACTOR
1002
}
  0
LINE
  5
103E
100
AcDbEntity
  8
0
  6
HIDDEN
100
AcDbLine
 10
127.788773
 20
152.54819
 30
0.0
 11
133.188773
 21
152.54819
 31
0.0
1001
GENIUS_GENOREF_13
1005
103B
1005
103D
  0
LINE
  5
103F
100
AcDbEntity
  8
0
  6
HIDDEN
100
AcDbLine
 10
132.803608
 20
142.54819
 30
0.0
 11
133.188773
 21
142.54819
 31
0.0
1001
GENIUS_GENOREF_13
1005
103B
1005
103D
  0
LINE
  5
1040
100
AcDbEntity
  8
0
  6
HIDDEN
100
AcDbLine
 10
127.188773
 20
146.350151
 30
0.0
 11
127.188773
 21
151.94819
 31
0.0
1001
GENIUS_GENOREF_13
1005
103B
1005
103D
  0
ARC
  5
1041
100
AcDbEntity
  8
0
100
AcDbCircle
 10
127.788773
 20
143.14819
 30
0.0
 40
0.6
100
AcDbArc
 50
180.0
 51
270.0
1001
GENIUS_GENOREF_13
1005
103B
1005
103D
  0
ARC
  5
1042
100
AcDbEntity
  8
0
100
AcDbCircle
 10
127.788773
 20
151.94819
 30
0.0
 40
0.6
100
AcDbArc
 50
90.0
 51
180.0
1001
GENIUS_GENOREF_13
1005
103B
1005
103D
  0
LINE
  5
1043
100
AcDbEntity
  8
0
  6
HIDDEN
100
AcDbLine
 10
148.188773
 20
145.16164
 30
0.0
 11
138.938773
 21
145.16164
 31
0.0
1001
GENIUS_GENOREF_13
1005
103B
1005
103D
  0
LINE
  5
1044
100
AcDbEntity
  8
0
  6
HIDDEN
100
AcDbLine
 10
151.652141
 20
149.93474
 30
0.0
 11
138.938773
 21
149.93474
 31
0.0
1001
GENIUS_GENOREF_13
1005
103B
1005
103D
  0
LINE
  5
1045
100
AcDbEntity
  8
0
100
AcDbLine
 10
147.575323
 20
144.54819
 30
0.0
 11
148.188773
 21
145.16164
 31
0.0
1001
GENIUS_GENOREF_13
1005
103B
1005
103D
  0
LINE
  5
1046
100
AcDbEntity
  8
0
100
AcDbLine
 10
147.575323
 20
150.54819
 30
0.0
 11
148.188773
 21
149.93474
 31
0.0
1001
GENIUS_GENOREF_13
1005
103B
1005
103D
  0
LINE
  5
1047
100
AcDbEntity
  8
0
  6
HIDDEN
100
AcDbLine
 10
133.188773
 20
144.54819
 30
0.0
 11
137.438773
 21
144.54819
 31
0.0
1001
GENIUS_GENOREF_13
1005
103B
1005
103D
  0
LINE
  5
1048
100
AcDbEntity
  8
0
  6
HIDDEN
100
AcDbLine
 10
133.188773
 20
150.54819
 30
0.0
 11
137.438773
 21
150.54819
 31
0.0
1001
GENIUS_GENOREF_13
1005
103B
1005
103D
  0
LINE
  5
104A
100
AcDbEntity
  8
0
  6
HIDDEN
100
AcDbLine
 10
135.688773
 20
150.54819
 30
0.0
 11
135.688773
 21
144.54819
 31
0.0
1001
GENIUS_GENOREF_13
1005
103B
1005
103D
  0
LINE
  5
104B
100
AcDbEntity
  8
0
100
AcDbLine
 10
135.688773
 20
145.16164
 30
0.0
 11
135.075323
 21
144.54819
 31
0.0
1001
GENIUS_GENOREF_13
1005
103B
1005
103D
  0
LINE
  5
104C
100
AcDbEntity
  8
0
100
AcDbLine
 10
135.688773
 20
149.93474
 30
0.0
 11
135.075323
 21
150.54819
 31
0.0
1001
GENIUS_GENOREF_13
1005
103B
1005
103D
  0
LINE
  5
104D
100
AcDbEntity
  8
0
  6
HIDDEN
100
AcDbLine
 10
147.575323
 20
150.54819
 30
0.0
 11
147.575323
 21
144.54819
 31
0.0
1001
GENIUS_GENOREF_13
1005
103B
1005
103D
  0
LINE
  5
104E
100
AcDbEntity
  8
0
  6
HIDDEN
100
AcDbLine
 10
148.188773
 20
149.93474
 30
0.0
 11
148.188773
 21
145.16164
 31
0.0
1001
GENIUS_GENOREF_13
1005
103B
1005
103D
  0
POINT
  5
104F
100
AcDbEntity
  8
0
 60
     1
100
AcDbPoint
 10
160.379473
 20
182.322442
 30
0.0
 50
90.0
1001
GENIUS_GENOBJ-NBEHI-BHF_13
1002
{
1000
OWNER
1000
GENBEHI
1002
}
1001
GENIUS_GENOENT_13
1002
{
1000
MYREF
1005
104F
1002
}
1002
{
1000
GRP
1005
0
1002
}
1001
GENIUS_GENOLIS_13
1002
{
1000
ENT
1005
0
1002
}
1001
GENIUS_GENODEF_13
1002
{
1000
HIER
1070
     1
1002
}
1002
{
1000
MANEDIT
1070
     0
1002
}
1002
{
1000
NOSEL
1070
     1
1002
}
1002
{
1000
BEHIND
1070
     0
1002
}
1002
{
1000
REACTOR
1002
}
1001
GENIUS_GENBH_13
1002
{
1000
OIUMAP
1000
OIU
1002
}
1002
{
1000
FLAGS
1070
    32
1002
}
1002
{
1000
BGO
1005
1050
1002
}
  0
POINT
  5
1050
100
AcDbEntity
  8
0
 60
     1
100
AcDbPoint
 10
160.379473
 20
182.322442
 30
0.0
 50
90.0
1001
GENIUS_GENOBJ-NBEHI-BHB_13
1002
{
1000
OWNER
1000
GENBEHI
1002
}
1001
GENIUS_GENOENT_13
1002
{
1000
MYREF
1005
1050
1002
}
1002
{
1000
GRP
1005
0
1002
}
1001
GENIUS_GENOLIS_13
1002
{
1000
ENT
1002
}
1001
GENIUS_GENODEF_13
1002
{
1000
HIER
1070
     1
1002
}
1002
{
1000
MANEDIT
1070
     0
1002
}
1002
{
1000
NOSEL
1070
     1
1002
}
1002
{
1000
BEHIND
1070
     0
1002
}
1002
{
1000
REACTOR
1002
}
1002
{
1000
OTHER
1070
     1
1002
}
1001
GENIUS_GENBH_13
1002
{
1000
FGO
1005
104F
1002
}
  0
POINT
  5
1051
100
AcDbEntity
  8
0
 60
     1
100
AcDbPoint
 10
160.379473
 20
182.322442
 30
0.0
 50
90.0
1001
GENIUS_GENOBJ-NBEHI-BHF_13
1002
{
1000
OWNER
1000
GENBEHI
1002
}
1001
GENIUS_GENOENT_13
1002
{
1000
MYREF
1005
1051
1002
}
1002
{
1000
GRP
1005
0
1002
}
1001
GENIUS_GENOLIS_13
1002
{
1000
ENT
1005
0
1002
}
1001
GENIUS_GENBH_13
1002
{
1000
OIUMAP
1000
OIU
1002
}
1002
{
1000
FLAGS
1070
    32
1002
}
1002
{
1000
BGO
1005
1052
1002
}
1001
GENIUS_GENODEF_13
1002
{
1000
HIER
1070
     1
1002
}
1002
{
1000
MANEDIT
1070
     1
1002
}
1002
{
1000
NOSEL
1070
     1
1002
}
1002
{
1000
BEHIND
1070
     0
1002
}
1002
{
1000
REACTOR
1002
}
  0
POINT
  5
1052
100
AcDbEntity
  8
0
 60
     1
100
AcDbPoint
 10
160.379473
 20
182.322442
 30
0.0
 50
90.0
1001
GENIUS_GENOBJ-NBEHI-BHB_13
1002
{
1000
OWNER
1000
GENBEHI
1002
}
1001
GENIUS_GENOENT_13
1002
{
1000
MYREF
1005
1052
1002
}
1002
{
1000
GRP
1005
0
1002
}
1001
GENIUS_GENOLIS_13
1002
{
1000
ENT
1005
0
1002
}
1001
GENIUS_GENODEF_13
1002
{
1000
HIER
1070
     1
1002
}
1002
{
1000
MANEDIT
1070
     0
1002
}
1002
{
1000
NOSEL
1070
     1
1002
}
1002
{
1000
BEHIND
1070
     0
1002
}
1002
{
1000
REACTOR
1002
}
1002
{
1000
OTHER
1070
     1
1002
}
1001
GENIUS_GENBH_13
1002
{
1000
FGO
1005
1051
1002
}
  0
POINT
  5
1053
100
AcDbEntity
  8
0
 60
     1
100
AcDbPoint
 10
160.379473
 20
182.322442
 30
0.0
 50
90.0
1001
GENIUS_GENOBJ-F-SCPASSM_13
1002
{
1000
OWNER
1000
GEF
1002
}
1001
GENIUS_GENOENT_13
1002
{
1000
MYREF
1005
1053
1002
}
1002
{
1000
GRP
1005
0
1002
}
1001
GENIUS_GENOLIS_13
1002
{
1000
ENT
1005
0
1005
0
1002
}
1001
GENIUS_GENODEF_13
1002
{
1000
HIER
1070
   200
1002
}
1002
{
1000
MANEDIT
1070
     1
1002
}
1002
{
1000
NOSEL
1070
     0
1002
}
1002
{
1000
BEHIND
1070
     0
1002
}
1002
{
1000
REACTOR
1002
}
  0
CIRCLE
  5
1054
100
AcDbEntity
  8
0
100
AcDbCircle
 10
63.462731
 20
147.54819
 30
0.0
 40
5.0
1001
GENIUS_GENOREF_13
1005
1051
1005
1053
  0
LINE
  5
1055
100
AcDbEntity
  8
0
100
AcDbLine
 10
65.962731
 20
148.991566
 30
0.0
 11
63.462731
 21
150.434941
 31
0.0
1001
GENIUS_GENOREF_13
1005
1051
1005
1053
  0
LINE
  5
1056
100
AcDbEntity
  8
0
100
AcDbLine
 10
63.462731
 20
144.661439
 30
0.0
 11
65.962731
 21
146.104814
 31
0.0
1001
GENIUS_GENOREF_13
1005
1051
1005
1053
  0
LINE
  5
1057
100
AcDbEntity
  8
0
100
AcDbLine
 10
65.962731
 20
146.104814
 30
0.0
 11
65.962731
 21
148.991566
 31
0.0
1001
GENIUS_GENOREF_13
1005
1051
1005
1053
  0
LINE
  5
1058
100
AcDbEntity
  8
0
100
AcDbLine
 10
60.962731
 20
148.991566
 30
0.0
 11
60.962731
 21
146.104814
 31
0.0
1001
GENIUS_GENOREF_13
1005
1051
1005
1053
  0
LINE
  5
1059
100
AcDbEntity
  8
0
100
AcDbLine
 10
60.962731
 20
146.104814
 30
0.0
 11
63.462731
 21
144.661439
 31
0.0
1001
GENIUS_GENOREF_13
1005
1051
1005
1053
  0
LINE
  5
105A
100
AcDbEntity
  8
0
100
AcDbLine
 10
63.462731
 20
150.434941
 30
0.0
 11
60.962731
 21
148.991566
 31
0.0
1001
GENIUS_GENOREF_13
1005
1051
1005
1053
  0
LINE
  5
105E
100
AcDbEntity
  8
0
100
AcDbLine
 10
127.188773
 20
143.14819
 30
0.0
 11
127.188773
 21
146.350151
 31
0.0
  0
LINE
  5
105F
100
AcDbEntity
  8
0
100
AcDbLine
 10
127.788773
 20
142.54819
 30
0.0
 11
132.803608
 21
142.54819
 31
0.0
  0
LINE
  5
1060
100
AcDbEntity
  8
0
100
AcDbLine
 10
8.784098
 20
161.04819
 30
0.0
 11
8.784098
 21
171.04819
 31
0.0
  0
LINE
  5
1063
100
AcDbEntity
  8
0
100
AcDbLine
 10
23.784098
 20
152.04819
 30
0.0
 11
23.784098
 21
142.04819
 31
0.0
  0
CIRCLE
  5
1064
100
AcDbEntity
  8
0
  6
HIDDEN
100
AcDbCircle
 10
16.284098
 20
147.54819
 30
0.0
 40
5.0
1001
GENIUS_GENOREF_13
1005
1051
1005
1053
  0
LINE
  5
1066
100
AcDbEntity
  8
0
  6
HIDDEN
100
AcDbLine
 10
138.938773
 20
150.54819
 30
0.0
 11
147.575323
 21
150.54819
 31
0.0
1001
GENIUS_GENOREF_13
1005
103B
1005
103D
  0
LINE
  5
1067
100
AcDbEntity
  8
0
  6
HIDDEN
100
AcDbLine
 10
137.438773
 20
149.93474
 30
0.0
 11
135.688773
 21
149.93474
 31
0.0
1001
GENIUS_GENOREF_13
1005
103B
1005
103D
  0
LINE
  5
1068
100
AcDbEntity
  8
0
  6
HIDDEN
100
AcDbLine
 10
137.438773
 20
145.16164
 30
0.0
 11
135.688773
 21
145.16164
 31
0.0
1001
GENIUS_GENOREF_13
1005
103B
1005
103D
  0
LINE
  5
1069
100
AcDbEntity
  8
0
  6
HIDDEN
100
AcDbLine
 10
138.938773
 20
144.54819
 30
0.0
 11
147.575323
 21
144.54819
 31
0.0
1001
GENIUS_GENOREF_13
1005
103B
1005
103D
  0
LINE
  5
106A
100
AcDbEntity
  8
0
100
AcDbLine
 10
137.438773
 20
150.54819
 30
0.0
 11
138.938773
 21
150.54819
 31
0.0
  0
LINE
  5
106B
100
AcDbEntity
  8
0
100
AcDbLine
 10
137.438773
 20
149.93474
 30
0.0
 11
138.938773
 21
149.93474
 31
0.0
  0
LINE
  5
106C
100
AcDbEntity
  8
0
100
AcDbLine
 10
137.438773
 20
145.16164
 30
0.0
 11
138.938773
 21
145.16164
 31
0.0
  0
LINE
  5
106D
100
AcDbEntity
  8
0
100
AcDbLine
 10
137.438773
 20
144.54819
 30
0.0
 11
138.938773
 21
144.54819
 31
0.0
  0
LINE
  5
1080
100
AcDbEntity
  8
0
100
AcDbLine
 10
23.784098
 20
166.54819
 30
0.0
 11
8.784098
 21
166.54819
 31
0.0
  0
LINE
  5
1118
100
AcDbEntity
  8
CENTER
100
AcDbLine
 10
138.188773
 20
156.54819
 30
0.0
 11
138.188773
 21
182.048366
 31
0.0
  0
LINE
  5
1119
100
AcDbEntity
  8
CENTER
100
AcDbLine
 10
138.188773
 20
156.54819
 30
0.0
 11
138.188773
 21
129.753237
 31
0.0
  0
ENDSEC
  0
SECTION
  2
OBJECTS
  0
DICTIONARY
  5
C
100
AcDbDictionary
  3
ACAD_GROUP
350
D
  3
ACAD_LAYOUT
350
DBF
  3
ACAD_MLINESTYLE
350
1B
  3
ACAD_PLOTSETTINGS
350
DC0
  3
ADE_QUERY_LIBRARY
350
1106
  3
CONTENTDICTIONARY
350
23
1001
ADE
1000
ADE02C004
1000
[Query]
1000
CaseSensitiveMatch=0
1000
SaveCurrQueryInSession=1
1000
MkSelSetWithQryObj=0
1000
ShowBlockAsInsPt=0
1000
CreateAssociativeHatchObjects=0
1000
ReferenceBoundaryForAreaLocation=1
1000
ShowImageAsBoundary=1
1000
DefaultJoinOperator=2
1000
ColorForAdd=red
1000
ColorForRemove=red
1000
BlockLocnForQuery=1
1000
TextLocnForQuery=1
1000
[Save Back]
1000
RedefineBlockDefinitions=1
1000
RedefineLayerDefinitions=1
1000
RedefineTextStyleDefinitions=1
1000
RemoveUnusedGroups=1
1000
EraseSavedBackObjects=1
1000
RemoveLockAfterSave=1
1000
CreateHistoryFileOfChanges=0
1000
CreateBackupFileOfSourceDwg=1
1000
DontAddObjectsToSaveSet=0
1000
MarkObjectsForEditingWithoutPrompting=0
1000
[Coordinate Transformation]
1000
RestoreLastActiveDwgsOnStartup=1
1000
ActivateDwgsOnAttach=1
1000
AdjustSizesAndScalesForChangesInUnits=1
1000
AdjustRotationsForMapDistortions=1
1000
AdjustSizesAndScalesForMapDistortions=1
1000
AdjustElevations=1
1000
AdjustZeroRotationObjects=1
1000
ReconnectDbOnWSOpen=1
1000
NoOfSQLConditionsInHistory=10
1001
ACAD
1000
TREAT_AS_HARD
1070
     0
  0
DICTIONARY
  5
110A
100
AcDbDictionary
280
     1
  3
ACAD_LAYOUTSELFREF
360
110B
  0
DICTIONARY
  5
1108
100
AcDbDictionary
280
     1
  3
ACAD_LAYOUTSELFREF
360
1109
  0
DICTIONARY
  5
D
102
{ACAD_REACTORS
330
C
102
}
100
AcDbDictionary
1001
ACAD
1000
TREAT_AS_HARD
1070
     0
  0
DICTIONARY
  5
DBF
102
{ACAD_REACTORS
330
C
102
}
100
AcDbDictionary
1001
ACAD
1000
TREAT_AS_HARD
1070
     0
  0
DICTIONARY
  5
1B
102
{ACAD_REACTORS
330
C
102
}
100
AcDbDictionary
  3
STANDARD
350
1C
1001
ACAD
1000
TREAT_AS_HARD
1070
     0
  0
DICTIONARY
  5
DC0
102
{ACAD_REACTORS
330
C
102
}
100
AcDbDictionary
1001
ACAD
1000
TREAT_AS_HARD
1070
     0
  0
DICTIONARY
  5
1106
102
{ACAD_REACTORS
330
C
102
}
100
AcDbDictionary
  3
_CURRQRY
350
1107
1001
ACAD
1000
TREAT_AS_HARD
1070
     0
  0
DICTIONARY
  5
23
102
{ACAD_REACTORS
330
C
102
}
100
AcDbDictionary
1001
ACAD
1000
TREAT_AS_HARD
1070
     0
  0
XRECORD
  5
110B
102
{ACAD_REACTORS
330
110A
102
}
100
AcDbXrecord
340
18
  0
XRECORD
  5
1109
102
{ACAD_REACTORS
330
1108
102
}
100
AcDbXrecord
340
15
  0
MLINESTYLE
  5
1C
102
{ACAD_REACTORS
330
1B
102
}
100
AcDbMlineStyle
  2
STANDARD
 70
     0
  3

 62
   256
 51
90.0
 52
90.0
 71
     2
 49
0.5
 62
   256
  6
BYLAYER
 49
-0.5
 62
   256
  6
BYLAYER
  0
XRECORD
  5
1107
102
{ACAD_REACTORS
330
1106
102
}
100
AcDbXrecord
1000
ADE02C001
1070
     1
1070
     0
1002
{
1002
}
1002
{
1002
}
1002
{
1002
}
1000

  0
ENDSEC
  0
EOF
