  0
SECTION
  2
HEADER
  9
$ACADVER
  1
AC1009
  9
$INSBASE
 10
0.0
 20
0.0
 30
0.0
  9
$EXTMIN
 10
0.0
 20
0.0
 30
0.0
  9
$EXTMAX
 10
375.0
 20
270.0
 30
0.0
  9
$LIMMIN
 10
0.0
 20
0.0
  9
$LIMMAX
 10
375.0
 20
270.0
  9
$ORTHOMODE
 70
     0
  9
$REGENMODE
 70
     1
  9
$FILLMODE
 70
     1
  9
$QTEXTMODE
 70
     0
  9
$MIRRTEXT
 70
     1
  9
$DRAGMODE
 70
     1
  9
$LTSCALE
 40
10.0
  9
$OSMODE
 70
     0
  9
$ATTMODE
 70
     1
  9
$TEXTSIZE
 40
6.0
  9
$TRACEWID
 40
0.05
  9
$TEXTSTYLE
  7
BIGFONT
  9
$CLAYER
  8
0
  9
$CELTYPE
  6
BYLAYER
  9
$CECOLOR
 62
   256
  9
$DIMSCALE
 40
1.0
  9
$DIMASZ
 40
3.0
  9
$DIMEXO
 40
2.0
  9
$DIMDLI
 40
0.38
  9
$DIMRND
 40
0.0
  9
$DIMDLE
 40
0.0
  9
$DIMEXE
 40
2.0
  9
$DIMTP
 40
0.0
  9
$DIMTM
 40
0.0
  9
$DIMTXT
 40
3.2
  9
$DIMCEN
 40
0.0
  9
$DIMTSZ
 40
0.0
  9
$DIMTOL
 70
     0
  9
$DIMLIM
 70
     0
  9
$DIMTIH
 70
     0
  9
$DIMTOH
 70
     0
  9
$DIMSE1
 70
     0
  9
$DIMSE2
 70
     0
  9
$DIMTAD
 70
     1
  9
$DIMZIN
 70
     0
  9
$DIMBLK
  1

  9
$DIMASO
 70
     0
  9
$DIMSHO
 70
     0
  9
$DIMPOST
  1

  9
$DIMAPOST
  1

  9
$DIMALT
 70
     0
  9
$DIMALTD
 70
     2
  9
$DIMALTF
 40
25.4
  9
$DIMLFAC
 40
1.0
  9
$DIMTOFL
 70
     1
  9
$DIMTVP
 40
1.6
  9
$DIMTIX
 70
     1
  9
$DIMSOXD
 70
     0
  9
$DIMSAH
 70
     0
  9
$DIMBLK1
  1

  9
$DIMBLK2
  1

  9
$DIMSTYLE
  2
STANDARD
  9
$DIMCLRD
 70
     0
  9
$DIMCLRE
 70
     0
  9
$DIMCLRT
 70
     0
  9
$DIMTFAC
 40
1.0
  9
$DIMGAP
 40
0.09
  9
$LUNITS
 70
     2
  9
$LUPREC
 70
     4
  9
$SKETCHINC
 40
0.1
  9
$FILLETRAD
 40
0.0
  9
$AUNITS
 70
     0
  9
$AUPREC
 70
     4
  9
$MENU
  1
ACAD
  9
$ELEVATION
 40
0.0
  9
$PELEVATION
 40
0.0
  9
$THICKNESS
 40
0.0
  9
$LIMCHECK
 70
     0
  9
$BLIPMODE
 70
     0
  9
$CHAMFERA
 40
0.0
  9
$CHAMFERB
 40
0.0
  9
$SKPOLY
 70
     0
  9
$TDCREATE
 40
2450683.599757
  9
$TDUPDATE
 40
2450683.599757
  9
$TDINDWG
 40
0.0
  9
$TDUSRTIMER
 40
0.0
  9
$USRTIMER
 70
     1
  9
$ANGBASE
 50
0.0
  9
$ANGDIR
 70
     0
  9
$PDMODE
 70
     0
  9
$PDSIZE
 40
0.0
  9
$PLINEWID
 40
0.0
  9
$COORDS
 70
     2
  9
$SPLFRAME
 70
     0
  9
$SPLINETYPE
 70
     6
  9
$SPLINESEGS
 70
     8
  9
$ATTDIA
 70
     0
  9
$ATTREQ
 70
     1
  9
$HANDLING
 70
     1
  9
$HANDSEED
  5
13B
  9
$SURFTAB1
 70
     6
  9
$SURFTAB2
 70
     6
  9
$SURFTYPE
 70
     6
  9
$SURFU
 70
     6
  9
$SURFV
 70
     6
  9
$UCSNAME
  2

  9
$UCSORG
 10
0.0
 20
0.0
 30
0.0
  9
$UCSXDIR
 10
1.0
 20
0.0
 30
0.0
  9
$UCSYDIR
 10
0.0
 20
1.0
 30
0.0
  9
$PUCSNAME
  2

  9
$PUCSORG
 10
0.0
 20
0.0
 30
0.0
  9
$PUCSXDIR
 10
1.0
 20
0.0
 30
0.0
  9
$PUCSYDIR
 10
0.0
 20
1.0
 30
0.0
  9
$USERI1
 70
     0
  9
$USERI2
 70
     0
  9
$USERI3
 70
     0
  9
$USERI4
 70
     0
  9
$USERI5
 70
     0
  9
$USERR1
 40
0.0
  9
$USERR2
 40
0.0
  9
$USERR3
 40
0.0
  9
$USERR4
 40
0.0
  9
$USERR5
 40
0.0
  9
$WORLDVIEW
 70
     1
  9
$SHADEDGE
 70
     3
  9
$SHADEDIF
 70
    70
  9
$TILEMODE
 70
     1
  9
$MAXACTVP
 70
    16
  9
$PLIMCHECK
 70
     0
  9
$PEXTMIN
 10
1.000000E+020
 20
1.000000E+020
 30
1.000000E+020
  9
$PEXTMAX
 10
-1.000000E+020
 20
-1.000000E+020
 30
-1.000000E+020
  9
$PLIMMIN
 10
0.0
 20
0.0
  9
$PLIMMAX
 10
12.0
 20
9.0
  9
$UNITMODE
 70
     0
  9
$VISRETAIN
 70
     0
  9
$PLINEGEN
 70
   163
  9
$PSLTSCALE
 70
     0
  0
ENDSEC
  0
SECTION
  2
TABLES
  0
TABLE
  2
VPORT
 70
     3
  0
VPORT
  2
*ACTIVE
 70
     0
 10
0.0
 20
0.0
 11
1.0
 21
1.0
 12
229.111675
 22
169.264562
 13
0.0
 23
0.0
 14
0.5
 24
0.5
 15
1.0
 25
1.0
 16
0.0
 26
0.0
 36
1.0
 17
0.0
 27
0.0
 37
0.0
 40
338.529124
 41
1.353571
 42
50.0
 43
0.0
 44
0.0
 50
0.0
 51
0.0
 71
     0
 72
   500
 73
     1
 74
     1
 75
     0
 76
     0
 77
     0
 78
     2
  0
ENDTAB
  0
TABLE
  2
LTYPE
 70
     3
  0
LTYPE
  2
CONTINUOUS
 70
     0
  3
実線
 72
    65
 73
     0
 40
0.0
  0
LTYPE
  2
CENTER
 70
     0
  3
____ _ ____ _ ____ _ ____ _ ____ _ ____ _ ____
 72
    65
 73
     4
 40
2.0
 49
1.25
 49
-0.25
 49
0.25
 49
-0.25
  0
LTYPE
  2
HIDDEN
 70
     0
  3
_ _ _ _ _ _ _ _ _ _ _ _ _ _ _ _ _ _ _ _ _ _ _
 72
    65
 73
     2
 40
0.375
 49
0.25
 49
-0.125
  0
ENDTAB
  0
TABLE
  2
LAYER
 70
     5
  0
LAYER
  2
0
 70
     0
 62
     7
  6
CONTINUOUS
  0
LAYER
  2
1
 70
     0
 62
     1
  6
CENTER
  0
LAYER
  2
2
 70
     0
 62
     2
  6
HIDDEN
  0
LAYER
  2
10
 70
     0
 62
     7
  6
CONTINUOUS
  0
LAYER
  2
11
 70
     0
 62
     3
  6
CONTINUOUS
  0
ENDTAB
  0
TABLE
  2
STYLE
 70
     3
  0
STYLE
  2
STANDARD
 70
     0
 40
0.0
 41
1.0
 50
0.0
 71
     0
 42
0.2
  3
TXT
  4
BIGFONT
  0
STYLE
  2
07500
 70
     0
 40
0.0
 41
0.75
 50
0.0
 71
     0
 42
0.2
  3
TXT
  4
BIGFONT
  0
STYLE
  2
BIGFONT
 70
     0
 40
6.0
 41
0.8
 50
0.0
 71
     0
 42
6.0
  3

  4
bigfont
  0
ENDTAB
  0
TABLE
  2
VIEW
 70
     1
  0
VIEW
  2
ALL
 70
     0
 40
270.0
 10
220.991597
 20
135.0
 41
0.0
 11
0.0
 21
0.0
 31
1.0
 12
0.0
 22
0.0
 32
0.0
 42
0.0
 43
0.0
 44
0.0
 50
0.0
 71
     0
  0
ENDTAB
  0
TABLE
  2
UCS
 70
     0
  0
ENDTAB
  0
TABLE
  2
APPID
 70
     1
  0
APPID
  2
ACAD
 70
     0
  0
ENDTAB
  0
TABLE
  2
DIMSTYLE
 70
     1
  0
DIMSTYLE
  2
STANDARD
 70
     0
  3

  4

  5

  6

  7

 40
1.0
 41
0.18
 42
0.0625
 43
0.38
 44
0.18
 45
0.0
 46
0.0
 47
0.0
 48
0.0
140
0.18
141
0.09
142
0.0
143
25.4
144
1.0
145
0.0
146
1.0
147
0.09
 71
     0
 72
     0
 73
     1
 74
     1
 75
     0
 76
     0
 77
     0
 78
     0
170
     0
171
     2
172
     0
173
     0
174
     0
175
     0
176
     0
177
     0
178
     0
  0
ENDTAB
  0
ENDSEC
  0
SECTION
  2
BLOCKS
  0
BLOCK
  8
0
  2
$MODEL_SPACE
 70
     0
 10
0.0
 20
0.0
 30
0.0
  3
$MODEL_SPACE
  1

  0
ENDBLK
  5
10E
  8
0
  0
BLOCK
 67
     1
  8
0
  2
$PAPER_SPACE
 70
     0
 10
0.0
 20
0.0
 30
0.0
  3
$PAPER_SPACE
  1

  0
ENDBLK
  5
10C
 67
     1
  8
0
  0
BLOCK
  8
0
  2
QQ
 70
     0
 10
270.0
 20
0.0
 30
0.0
  3
QQ
  1

  0
LINE
  5
2D
  8
11
 10
173.0
 20
36.0
 30
0.0
 11
270.0
 21
36.0
 31
0.0
  0
TEXT
  5
2E
  8
11
 10
175.0
 20
32.5
 30
0.0
 40
2.5
  1
部品名称
  0
LINE
  5
2F
  8
11
 10
173.0
 20
36.0
 30
0.0
 11
173.0
 21
0.0
 31
0.0
  0
LINE
  5
30
  8
11
 10
173.0
 20
24.0
 30
0.0
 11
270.0
 21
24.0
 31
0.0
  0
TEXT
  5
31
  8
11
 10
175.0
 20
20.5
 30
0.0
 40
2.5
  1
品番
  0
LINE
  5
32
  8
11
 10
173.0
 20
12.0
 30
0.0
 11
270.0
 21
12.0
 31
0.0
  0
TEXT
  5
33
  8
11
 10
175.0
 20
8.5
 30
0.0
 40
2.5
  1
尺度
  0
TEXT
  5
34
  8
11
 10
200.0
 20
8.5
 30
0.0
 40
2.5
  1
図番
  0
LINE
  5
35
  8
11
 10
198.0
 20
0.0
 30
0.0
 11
198.0
 21
12.0
 31
0.0
  0
ENDBLK
  5
36
  8
0
  0
ENDSEC
  0
SECTION
  2
ENTITIES
  0
LINE
  5
37
  8
1
 10
155.5
 20
237.5
 30
0.0
 11
155.5
 21
222.5
 31
0.0
  0
LINE
  5
38
  8
1
 10
327.5
 20
159.721254
 30
0.0
 11
292.5
 21
159.721254
 31
0.0
  0
LINE
  5
39
  8
1
 10
87.5
 20
159.721254
 30
0.0
 11
52.5
 21
159.721254
 31
0.0
  0
LINE
  5
3A
  8
0
 10
305.0
 20
145.0
 30
0.0
 11
301.198436
 21
145.0
 31
0.0
  0
LINE
  5
3B
  8
0
 10
315.0
 20
148.264815
 30
0.0
 11
315.0
 21
136.990325
 31
0.0
  0
LINE
  5
3C
  8
0
 10
305.0
 20
148.264815
 30
0.0
 11
305.0
 21
136.990325
 31
0.0
  0
LINE
  5
3D
  8
0
 10
75.0
 20
155.802921
 30
0.0
 11
75.0
 21
145.0
 31
0.0
  0
LINE
  5
3E
  8
0
 10
65.0
 20
155.802921
 30
0.0
 11
65.0
 21
145.0
 31
0.0
  0
CIRCLE
  5
3F
  8
0
 10
310.0
 20
159.721254
 30
0.0
 40
12.5
  0
ARC
  5
40
  8
0
 10
70.0
 20
159.721254
 30
0.0
 40
12.5
 50
293.578178
 51
246.421822
  0
LINE
  5
41
  8
0
 10
325.0
 20
130.0
 30
0.0
 11
325.0
 21
100.5
 31
0.0
  0
LINE
  5
42
  8
0
 10
300.25956
 20
144.344255
 30
0.0
 11
295.0
 21
130.0
 31
0.0
  0
LINE
  5
43
  8
0
 10
295.0
 20
130.0
 30
0.0
 11
295.0
 21
100.5
 31
0.0
  0
LINE
  5
44
  8
0
 10
295.5
 20
100.0
 30
0.0
 11
324.5
 21
100.0
 31
0.0
  0
LINE
  5
45
  8
1
 10
310.0
 20
177.221254
 30
0.0
 11
310.0
 21
95.0
 31
0.0
  0
LINE
  5
46
  8
0
 10
324.5
 20
100.0
 30
0.0
 11
325.0
 21
100.5
 31
0.0
  0
LINE
  5
47
  8
0
 10
295.0
 20
100.5
 30
0.0
 11
295.5
 21
100.0
 31
0.0
  0
LINE
  5
48
  8
0
 10
318.801564
 20
145.0
 30
0.0
 11
315.0
 21
145.0
 31
0.0
  0
LINE
  5
49
  8
0
 10
319.74044
 20
144.344255
 30
0.0
 11
325.0
 21
130.0
 31
0.0
  0
ARC
  5
4A
  8
0
 10
301.198436
 20
144.0
 30
0.0
 40
1.0
 50
90.0
 51
159.863697
  0
ARC
  5
4B
  8
0
 10
318.801564
 20
144.0
 30
0.0
 40
1.0
 50
20.136303
 51
90.0
  0
LINE
  5
4C
  8
0
 10
295.0
 20
130.0
 30
0.0
 11
325.0
 21
130.0
 31
0.0
  0
LINE
  5
4D
  8
0
 10
85.0
 20
130.0
 30
0.0
 11
85.0
 21
100.5
 31
0.0
  0
LINE
  5
4E
  8
0
 10
60.25956
 20
144.344255
 30
0.0
 11
55.0
 21
130.0
 31
0.0
  0
LINE
  5
4F
  8
0
 10
55.0
 20
130.0
 30
0.0
 11
55.0
 21
100.5
 31
0.0
  0
LINE
  5
50
  8
0
 10
55.5
 20
100.0
 30
0.0
 11
84.5
 21
100.0
 31
0.0
  0
LINE
  5
51
  8
1
 10
70.0
 20
177.221254
 30
0.0
 11
70.0
 21
95.0
 31
0.0
  0
LINE
  5
52
  8
0
 10
84.5
 20
100.0
 30
0.0
 11
85.0
 21
100.5
 31
0.0
  0
LINE
  5
53
  8
0
 10
55.0
 20
100.5
 30
0.0
 11
55.5
 21
100.0
 31
0.0
  0
LINE
  5
54
  8
2
 10
67.5
 20
100.5
 30
0.0
 11
72.5
 21
100.5
 31
0.0
  0
LINE
  5
55
  8
0
 10
78.801564
 20
145.0
 30
0.0
 11
61.198436
 21
145.0
 31
0.0
  0
LINE
  5
56
  8
0
 10
79.74044
 20
144.344255
 30
0.0
 11
85.0
 21
130.0
 31
0.0
  0
ARC
  5
57
  8
0
 10
61.198436
 20
144.0
 30
0.0
 40
1.0
 50
90.0
 51
159.863697
  0
ARC
  5
58
  8
0
 10
78.801564
 20
144.0
 30
0.0
 40
1.0
 50
20.136303
 51
90.0
  0
LINE
  5
59
  8
0
 10
55.0
 20
130.0
 30
0.0
 11
85.0
 21
130.0
 31
0.0
  0
LINE
  5
5A
  8
1
 10
224.889596
 20
247.5
 30
0.0
 11
224.889596
 21
212.5
 31
0.0
  0
LINE
  5
5B
  8
0
 10
213.433156
 20
225.0
 30
0.0
 11
162.436881
 21
225.0
 31
0.0
  0
LINE
  5
5C
  8
0
 10
213.433156
 20
235.0
 30
0.0
 11
162.436881
 21
235.0
 31
0.0
  0
LINE
  5
5D
  8
1
 10
150.0
 20
250.0
 30
0.0
 11
150.0
 21
210.0
 31
0.0
  0
LINE
  5
5E
  8
1
 10
242.389596
 20
230.0
 30
0.0
 11
130.0
 21
230.0
 31
0.0
  0
ARC
  5
5F
  8
0
 10
150.0
 20
230.0
 30
0.0
 40
15.0
 50
19.471221
 51
340.528779
  0
LINE
  5
60
  8
1
 10
224.889596
 20
57.5
 30
0.0
 11
224.889596
 21
22.5
 31
0.0
  0
LINE
  5
61
  8
0
 10
214.124064
 20
35.0
 30
0.0
 11
164.142136
 21
35.0
 31
0.0
  0
LINE
  5
62
  8
0
 10
214.124064
 20
45.0
 30
0.0
 11
164.142136
 21
45.0
 31
0.0
  0
ARC
  5
63
  8
0
 10
224.889596
 20
40.0
 30
0.0
 40
12.5
 50
203.578178
 51
156.421822
  0
CIRCLE
  5
64
  8
0
 10
150.0
 20
40.0
 30
0.0
 40
14.5
  0
LINE
  5
65
  8
1
 10
150.0
 20
60.0
 30
0.0
 11
150.0
 21
20.0
 31
0.0
  0
LINE
  5
66
  8
1
 10
242.389596
 20
40.0
 30
0.0
 11
130.0
 21
40.0
 31
0.0
  0
CIRCLE
  5
67
  8
0
 10
150.0
 20
40.0
 30
0.0
 40
15.0
  0
LINE
  5
68
  8
0
 10
135.0
 20
130.0
 30
0.0
 11
165.0
 21
130.0
 31
0.0
  0
LINE
  5
69
  8
1
 10
230.874948
 20
143.276634
 30
0.0
 11
218.904243
 21
176.165875
 31
0.0
  0
ARC
  5
6A
  8
0
 10
224.889596
 20
159.721254
 30
0.0
 40
12.5
 50
223.578178
 51
176.421822
  0
LINE
  5
6B
  8
1
 10
155.5
 20
127.5
 30
0.0
 11
155.5
 21
147.5
 31
0.0
  0
LINE
  5
6C
  8
0
 10
160.715603
 20
141.68472
 30
0.0
 11
212.413963
 21
160.501385
 31
0.0
  0
LINE
  5
6D
  8
0
 10
212.413963
 20
160.501385
 30
0.0
 11
215.834165
 21
151.104458
 31
0.0
  0
LINE
  5
6E
  8
1
 10
144.116964
 20
130.322421
 30
0.0
 11
241.334216
 21
165.706607
 31
0.0
  0
LINE
  5
6F
  8
0
 10
215.834165
 20
151.104458
 30
0.0
 11
164.155676
 21
132.302702
 31
0.0
  0
ARC
  5
70
  8
0
 10
158.801564
 20
144.0
 30
0.0
 40
1.0
 50
20.136303
 51
90.0
  0
ARC
  5
71
  8
0
 10
141.198436
 20
144.0
 30
0.0
 40
1.0
 50
90.0
 51
159.863697
  0
LINE
  5
72
  8
0
 10
159.74044
 20
144.344255
 30
0.0
 11
160.715603
 21
141.68472
 31
0.0
  0
LINE
  5
73
  8
0
 10
158.801564
 20
145.0
 30
0.0
 11
141.198436
 21
145.0
 31
0.0
  0
LINE
  5
74
  8
0
 10
135.0
 20
100.5
 30
0.0
 11
135.5
 21
100.0
 31
0.0
  0
LINE
  5
75
  8
0
 10
164.5
 20
100.0
 30
0.0
 11
165.0
 21
100.5
 31
0.0
  0
LINE
  5
76
  8
1
 10
150.0
 20
150.0
 30
0.0
 11
150.0
 21
95.0
 31
0.0
  0
LINE
  5
77
  8
0
 10
135.5
 20
100.0
 30
0.0
 11
164.5
 21
100.0
 31
0.0
  0
LINE
  5
78
  8
0
 10
135.0
 20
130.0
 30
0.0
 11
135.0
 21
100.5
 31
0.0
  0
LINE
  5
79
  8
0
 10
140.25956
 20
144.344255
 30
0.0
 11
135.0
 21
130.0
 31
0.0
  0
LINE
  5
7A
  8
0
 10
165.0
 20
130.0
 30
0.0
 11
165.0
 21
100.5
 31
0.0
  0
TEXT
  5
7B
  8
11
 10
280.0
 20
1.0
 30
0.0
 40
4.0
  1
1/1
  0
POLYLINE
  5
7C
  8
0
 66
     1
 10
0.0
 20
0.0
 30
0.0
  0
VERTEX
  5
112
  8
0
 10
162.436881
 20
235.0
 30
0.0
 42
0.22293
  0
VERTEX
  5
113
  8
0
 10
161.902689
 20
234.749369
 30
0.0
 42
0.090716
  0
VERTEX
  5
114
  8
0
 10
161.219753
 20
233.535534
 30
0.0
 42
0.047513
  0
VERTEX
  5
115
  8
0
 10
160.810567
 20
231.838439
 30
0.0
 42
0.045046
  0
VERTEX
  5
116
  8
0
 10
160.715603
 20
230.0
 30
0.0
 42
0.035425
  0
VERTEX
  5
117
  8
0
 10
160.860799
 20
227.953225
 30
0.0
 42
0.047513
  0
VERTEX
  5
118
  8
0
 10
161.219753
 20
226.464466
 30
0.0
 42
0.090716
  0
VERTEX
  5
119
  8
0
 10
161.902689
 20
225.250631
 30
0.0
 42
0.22293
  0
VERTEX
  5
11A
  8
0
 10
162.436881
 20
225.0
 30
0.0
 42
0.22293
  0
SEQEND
  5
11B
  8
0
  0
POLYLINE
  5
87
  8
0
 66
     1
 10
0.0
 20
0.0
 30
0.0
  0
VERTEX
  5
11C
  8
0
 10
75.0
 20
155.802921
 30
0.0
 42
0.104168
  0
VERTEX
  5
11D
  8
0
 10
74.624321
 20
157.586592
 30
0.0
 42
0.100664
  0
VERTEX
  5
11E
  8
0
 10
73.535534
 20
159.125237
 30
0.0
 42
0.096076
  0
VERTEX
  5
11F
  8
0
 10
71.927697
 20
160.139448
 30
0.0
 42
0.093065
  0
VERTEX
  5
120
  8
0
 10
70.0
 20
160.501385
 30
0.0
 42
0.093065
  0
VERTEX
  5
121
  8
0
 10
68.072303
 20
160.139448
 30
0.0
 42
0.096076
  0
VERTEX
  5
122
  8
0
 10
66.464466
 20
159.125237
 30
0.0
 42
0.100664
  0
VERTEX
  5
123
  8
0
 10
65.375679
 20
157.586592
 30
0.0
 42
0.104168
  0
VERTEX
  5
124
  8
0
 10
65.0
 20
155.802921
 30
0.0
 42
0.104168
  0
SEQEND
  5
125
  8
0
  0
POLYLINE
  5
92
  8
0
 66
     1
 10
0.0
 20
0.0
 30
0.0
  0
VERTEX
  5
126
  8
0
 10
305.0
 20
136.990325
 30
0.0
 42
0.104384
  0
VERTEX
  5
127
  8
0
 10
305.375489
 20
135.211319
 30
0.0
 42
0.10074
  0
VERTEX
  5
128
  8
0
 10
306.464466
 20
133.675675
 30
0.0
 42
0.095982
  0
VERTEX
  5
129
  8
0
 10
308.217249
 20
132.572399
 30
0.0
 42
0.110581
  0
VERTEX
  5
12A
  8
0
 10
310.0
 20
132.302702
 30
0.0
 42
0.092868
  0
VERTEX
  5
12B
  8
0
 10
311.928208
 20
132.663956
 30
0.0
 42
0.095982
  0
VERTEX
  5
12C
  8
0
 10
313.535534
 20
133.675675
 30
0.0
 42
0.10074
  0
VERTEX
  5
12D
  8
0
 10
314.624511
 20
135.211319
 30
0.0
 42
0.104384
  0
VERTEX
  5
12E
  8
0
 10
315.0
 20
136.990325
 30
0.0
 42
0.104384
  0
SEQEND
  5
12F
  8
0
  0
POLYLINE
  5
9D
  8
0
 66
     1
 10
0.0
 20
0.0
 30
0.0
  0
VERTEX
  5
130
  8
0
 10
214.124064
 20
35.0
 30
0.0
 42
0.22377
  0
VERTEX
  5
131
  8
0
 10
214.653951
 20
35.249646
 30
0.0
 42
0.090414
  0
VERTEX
  5
132
  8
0
 10
215.333288
 20
36.464466
 30
0.0
 42
0.047239
  0
VERTEX
  5
133
  8
0
 10
215.689881
 20
37.952924
 30
0.0
 42
0.035198
  0
VERTEX
  5
134
  8
0
 10
215.834165
 20
40.0
 30
0.0
 42
0.035198
  0
VERTEX
  5
135
  8
0
 10
215.689881
 20
42.047076
 30
0.0
 42
0.047239
  0
VERTEX
  5
136
  8
0
 10
215.333288
 20
43.535534
 30
0.0
 42
0.090414
  0
VERTEX
  5
137
  8
0
 10
214.653951
 20
44.750354
 30
0.0
 42
0.22377
  0
VERTEX
  5
138
  8
0
 10
214.124064
 20
45.0
 30
0.0
 42
0.22377
  0
SEQEND
  5
139
  8
0
  0
ARC
  5
A8
  8
0
 10
177.669386
 20
142.579418
 30
0.0
 40
16.977375
 50
183.020854
 51
217.251753
  0
LINE
  5
A9
  8
0
 10
164.155676
 20
132.302702
 30
0.0
 11
165.0
 21
130.0
 31
0.0
  0
CIRCLE
  5
AA
  8
0
 10
150.0
 20
230.0
 30
0.0
 40
9.5
  0
CIRCLE
  5
AB
  8
0
 10
224.889596
 20
230.0
 30
0.0
 40
12.5
  0
INSERT
  5
AC
  8
0
  2
QQ
 10
375.0
 20
0.0
 30
0.0
  0
LINE
  5
AD
  8
10
 10
0.0
 20
270.0
 30
0.0
 11
0.0
 21
0.0
 31
0.0
  0
LINE
  5
AE
  8
10
 10
375.0
 20
270.0
 30
0.0
 11
0.0
 21
270.0
 31
0.0
  0
LINE
  5
AF
  8
10
 10
375.0
 20
0.0
 30
0.0
 11
375.0
 21
270.0
 31
0.0
  0
LINE
  5
B0
  8
10
 10
0.0
 20
0.0
 30
0.0
 11
375.0
 21
0.0
 31
0.0
  0
TEXT
  5
B1
  8
11
 10
280.0
 20
25.0
 30
0.0
 40
6.0
  1
ロッキング・レバー
 41
0.75
  7
07500
  0
CIRCLE
  5
B2
  8
0
 10
150.0
 20
40.0
 30
0.0
 40
6.0
  0
LINE
  5
B3
  8
2
 10
77.0
 20
100.0
 30
0.0
 11
75.5
 21
101.0
 31
0.0
  0
LINE
  5
B4
  8
2
 10
75.5
 20
101.0
 30
0.0
 11
75.5
 21
128.0
 31
0.0
  0
LINE
  5
B5
  8
2
 10
75.5
 20
128.0
 30
0.0
 11
70.0
 21
130.0
 31
0.0
  0
LINE
  5
B6
  8
2
 10
70.0
 20
130.0
 30
0.0
 11
64.5
 21
128.0
 31
0.0
  0
LINE
  5
B7
  8
2
 10
64.5
 20
128.0
 30
0.0
 11
75.5
 21
128.0
 31
0.0
  0
LINE
  5
B8
  8
2
 10
64.5
 20
128.0
 30
0.0
 11
64.5
 21
101.0
 31
0.0
  0
LINE
  5
B9
  8
2
 10
64.5
 20
101.0
 30
0.0
 11
63.0
 21
100.0
 31
0.0
  0
LINE
  5
BA
  8
2
 10
64.0
 20
101.0
 30
0.0
 11
64.0
 21
125.0
 31
0.0
  0
LINE
  5
BB
  8
2
 10
64.0
 20
125.0
 30
0.0
 11
64.5
 21
125.5
 31
0.0
  0
LINE
  5
BC
  8
2
 10
75.5
 20
125.5
 30
0.0
 11
76.0
 21
125.0
 31
0.0
  0
LINE
  5
BD
  8
2
 10
76.0
 20
125.0
 30
0.0
 11
76.0
 21
101.0
 31
0.0
  0
LINE
  5
BE
  8
2
 10
64.0
 20
125.0
 30
0.0
 11
76.0
 21
125.0
 31
0.0
  0
LINE
  5
BF
  8
2
 10
64.5
 20
101.0
 30
0.0
 11
75.5
 21
101.0
 31
0.0
  0
LINE
  5
C0
  8
0
 10
85.0
 20
100.5
 30
0.0
 11
55.0
 21
100.5
 31
0.0
  0
LINE
  5
C1
  8
0
 10
165.0
 20
100.5
 30
0.0
 11
135.0
 21
100.5
 31
0.0
  0
LINE
  5
C2
  8
2
 10
157.0
 20
100.0
 30
0.0
 11
155.5
 21
101.0
 31
0.0
  0
LINE
  5
C3
  8
2
 10
155.5
 20
101.0
 30
0.0
 11
155.5
 21
128.0
 31
0.0
  0
LINE
  5
C4
  8
2
 10
155.5
 20
128.0
 30
0.0
 11
150.0
 21
130.0
 31
0.0
  0
LINE
  5
C5
  8
2
 10
150.0
 20
130.0
 30
0.0
 11
144.5
 21
128.0
 31
0.0
  0
LINE
  5
C6
  8
2
 10
144.5
 20
128.0
 30
0.0
 11
155.5
 21
128.0
 31
0.0
  0
LINE
  5
C7
  8
2
 10
144.5
 20
128.0
 30
0.0
 11
144.5
 21
101.0
 31
0.0
  0
LINE
  5
C8
  8
2
 10
144.5
 20
101.0
 30
0.0
 11
143.0
 21
100.0
 31
0.0
  0
LINE
  5
C9
  8
2
 10
144.0
 20
101.0
 30
0.0
 11
144.0
 21
125.0
 31
0.0
  0
LINE
  5
CA
  8
2
 10
144.0
 20
125.0
 30
0.0
 11
144.5
 21
125.5
 31
0.0
  0
LINE
  5
CB
  8
2
 10
155.5
 20
125.5
 30
0.0
 11
156.0
 21
125.0
 31
0.0
  0
LINE
  5
CC
  8
2
 10
156.0
 20
125.0
 30
0.0
 11
156.0
 21
101.0
 31
0.0
  0
LINE
  5
CD
  8
2
 10
144.0
 20
125.0
 30
0.0
 11
156.0
 21
125.0
 31
0.0
  0
LINE
  5
CE
  8
2
 10
144.5
 20
101.0
 30
0.0
 11
155.5
 21
101.0
 31
0.0
  0
LINE
  5
CF
  8
2
 10
317.0
 20
100.0
 30
0.0
 11
315.5
 21
101.0
 31
0.0
  0
LINE
  5
D0
  8
2
 10
315.5
 20
101.0
 30
0.0
 11
315.5
 21
128.0
 31
0.0
  0
LINE
  5
D1
  8
2
 10
315.5
 20
128.0
 30
0.0
 11
310.0
 21
130.0
 31
0.0
  0
LINE
  5
D2
  8
2
 10
310.0
 20
130.0
 30
0.0
 11
304.5
 21
128.0
 31
0.0
  0
LINE
  5
D3
  8
2
 10
304.5
 20
128.0
 30
0.0
 11
315.5
 21
128.0
 31
0.0
  0
LINE
  5
D4
  8
2
 10
304.5
 20
128.0
 30
0.0
 11
304.5
 21
101.0
 31
0.0
  0
LINE
  5
D5
  8
2
 10
304.5
 20
101.0
 30
0.0
 11
303.0
 21
100.0
 31
0.0
  0
LINE
  5
D6
  8
2
 10
304.0
 20
101.0
 30
0.0
 11
304.0
 21
125.0
 31
0.0
  0
LINE
  5
D7
  8
2
 10
304.0
 20
125.0
 30
0.0
 11
304.5
 21
125.5
 31
0.0
  0
LINE
  5
D8
  8
2
 10
315.5
 20
125.5
 30
0.0
 11
316.0
 21
125.0
 31
0.0
  0
LINE
  5
D9
  8
2
 10
316.0
 20
125.0
 30
0.0
 11
316.0
 21
101.0
 31
0.0
  0
LINE
  5
DA
  8
2
 10
304.0
 20
125.0
 30
0.0
 11
316.0
 21
125.0
 31
0.0
  0
LINE
  5
DB
  8
2
 10
304.5
 20
101.0
 30
0.0
 11
315.5
 21
101.0
 31
0.0
  0
LINE
  5
DC
  8
0
 10
325.0
 20
100.5
 30
0.0
 11
295.0
 21
100.5
 31
0.0
  0
CIRCLE
  5
DD
  8
0
 10
150.0
 20
40.0
 30
0.0
 40
5.5
  0
TEXT
  5
DE
  8
11
 10
288.909897
 20
13.176368
 30
0.0
 40
6.0
  1
Ｌ－７５Ｔ
 41
0.8
  7
BIGFONT
  0
TEXT
  5
DF
  8
0
 10
313.317062
 20
2.964526
 30
0.0
 40
6.0
  1
MLE00203
 41
0.8
  7
BIGFONT
  0
ENDSEC
  0
EOF
