  0
SECTION
  2
HEADER
  9
$ACADVER
  1
AC1009
  9
$INSBASE
 10
0.0
 20
0.0
 30
0.0
  9
$EXTMIN
 10
0.0
 20
0.0
 30
0.0
  9
$EXTMAX
 10
375.0
 20
270.0
 30
0.0
  9
$LIMMIN
 10
0.0
 20
0.0
  9
$LIMMAX
 10
375.0
 20
270.0
  9
$ORTHOMODE
 70
     0
  9
$REGENMODE
 70
     1
  9
$FILLMODE
 70
     1
  9
$QTEXTMODE
 70
     0
  9
$MIRRTEXT
 70
     1
  9
$DRAGMODE
 70
     1
  9
$LTSCALE
 40
10.0
  9
$OSMODE
 70
     0
  9
$ATTMODE
 70
     1
  9
$TEXTSIZE
 40
6.0
  9
$TRACEWID
 40
0.05
  9
$TEXTSTYLE
  7
STANDARD
  9
$CLAYER
  8
0
  9
$CELTYPE
  6
BYLAYER
  9
$CECOLOR
 62
   256
  9
$DIMSCALE
 40
1.0
  9
$DIMASZ
 40
3.0
  9
$DIMEXO
 40
2.0
  9
$DIMDLI
 40
0.38
  9
$DIMRND
 40
0.0
  9
$DIMDLE
 40
0.0
  9
$DIMEXE
 40
2.0
  9
$DIMTP
 40
0.0
  9
$DIMTM
 40
0.0
  9
$DIMTXT
 40
3.2
  9
$DIMCEN
 40
0.0
  9
$DIMTSZ
 40
0.0
  9
$DIMTOL
 70
     0
  9
$DIMLIM
 70
     0
  9
$DIMTIH
 70
     0
  9
$DIMTOH
 70
     0
  9
$DIMSE1
 70
     0
  9
$DIMSE2
 70
     0
  9
$DIMTAD
 70
     1
  9
$DIMZIN
 70
     0
  9
$DIMBLK
  1

  9
$DIMASO
 70
     0
  9
$DIMSHO
 70
     0
  9
$DIMPOST
  1

  9
$DIMAPOST
  1

  9
$DIMALT
 70
     0
  9
$DIMALTD
 70
     2
  9
$DIMALTF
 40
25.4
  9
$DIMLFAC
 40
1.0
  9
$DIMTOFL
 70
     1
  9
$DIMTVP
 40
1.6
  9
$DIMTIX
 70
     1
  9
$DIMSOXD
 70
     0
  9
$DIMSAH
 70
     0
  9
$DIMBLK1
  1

  9
$DIMBLK2
  1

  9
$DIMSTYLE
  2
STANDARD
  9
$DIMCLRD
 70
     0
  9
$DIMCLRE
 70
     0
  9
$DIMCLRT
 70
     0
  9
$DIMTFAC
 40
1.0
  9
$DIMGAP
 40
0.09
  9
$LUNITS
 70
     2
  9
$LUPREC
 70
     4
  9
$SKETCHINC
 40
0.1
  9
$FILLETRAD
 40
0.0
  9
$AUNITS
 70
     0
  9
$AUPREC
 70
     4
  9
$MENU
  1
ACAD
  9
$ELEVATION
 40
0.0
  9
$PELEVATION
 40
0.0
  9
$THICKNESS
 40
0.0
  9
$LIMCHECK
 70
     0
  9
$BLIPMODE
 70
     0
  9
$CHAMFERA
 40
0.0
  9
$CHAMFERB
 40
0.0
  9
$SKPOLY
 70
     0
  9
$TDCREATE
 40
2450683.598715
  9
$TDUPDATE
 40
2450683.598715
  9
$TDINDWG
 40
0.0
  9
$TDUSRTIMER
 40
0.0
  9
$USRTIMER
 70
     1
  9
$ANGBASE
 50
0.0
  9
$ANGDIR
 70
     0
  9
$PDMODE
 70
     0
  9
$PDSIZE
 40
0.0
  9
$PLINEWID
 40
0.0
  9
$COORDS
 70
     2
  9
$SPLFRAME
 70
     0
  9
$SPLINETYPE
 70
     6
  9
$SPLINESEGS
 70
     8
  9
$ATTDIA
 70
     0
  9
$ATTREQ
 70
     1
  9
$HANDLING
 70
     1
  9
$HANDSEED
  5
139
  9
$SURFTAB1
 70
     6
  9
$SURFTAB2
 70
     6
  9
$SURFTYPE
 70
     6
  9
$SURFU
 70
     6
  9
$SURFV
 70
     6
  9
$UCSNAME
  2

  9
$UCSORG
 10
0.0
 20
0.0
 30
0.0
  9
$UCSXDIR
 10
1.0
 20
0.0
 30
0.0
  9
$UCSYDIR
 10
0.0
 20
1.0
 30
0.0
  9
$PUCSNAME
  2

  9
$PUCSORG
 10
0.0
 20
0.0
 30
0.0
  9
$PUCSXDIR
 10
1.0
 20
0.0
 30
0.0
  9
$PUCSYDIR
 10
0.0
 20
1.0
 30
0.0
  9
$USERI1
 70
     0
  9
$USERI2
 70
     0
  9
$USERI3
 70
     0
  9
$USERI4
 70
     0
  9
$USERI5
 70
     0
  9
$USERR1
 40
0.0
  9
$USERR2
 40
0.0
  9
$USERR3
 40
0.0
  9
$USERR4
 40
0.0
  9
$USERR5
 40
0.0
  9
$WORLDVIEW
 70
     1
  9
$SHADEDGE
 70
     3
  9
$SHADEDIF
 70
    70
  9
$TILEMODE
 70
     1
  9
$MAXACTVP
 70
    16
  9
$PLIMCHECK
 70
     0
  9
$PEXTMIN
 10
1.000000E+020
 20
1.000000E+020
 30
1.000000E+020
  9
$PEXTMAX
 10
-1.000000E+020
 20
-1.000000E+020
 30
-1.000000E+020
  9
$PLIMMIN
 10
0.0
 20
0.0
  9
$PLIMMAX
 10
12.0
 20
9.0
  9
$UNITMODE
 70
     0
  9
$VISRETAIN
 70
     0
  9
$PLINEGEN
 70
   166
  9
$PSLTSCALE
 70
     0
  0
ENDSEC
  0
SECTION
  2
TABLES
  0
TABLE
  2
VPORT
 70
     3
  0
VPORT
  2
*ACTIVE
 70
     0
 10
0.0
 20
0.0
 11
1.0
 21
1.0
 12
229.111675
 22
169.264562
 13
0.0
 23
0.0
 14
0.5
 24
0.5
 15
1.0
 25
1.0
 16
0.0
 26
0.0
 36
1.0
 17
0.0
 27
0.0
 37
0.0
 40
338.529124
 41
1.353571
 42
50.0
 43
0.0
 44
0.0
 50
0.0
 51
0.0
 71
     0
 72
   500
 73
     1
 74
     1
 75
     0
 76
     0
 77
     0
 78
     2
  0
ENDTAB
  0
TABLE
  2
LTYPE
 70
     3
  0
LTYPE
  2
CONTINUOUS
 70
     0
  3
実線
 72
    65
 73
     0
 40
0.0
  0
LTYPE
  2
CENTER
 70
     0
  3
____ _ ____ _ ____ _ ____ _ ____ _ ____ _ ____
 72
    65
 73
     4
 40
2.0
 49
1.25
 49
-0.25
 49
0.25
 49
-0.25
  0
LTYPE
  2
HIDDEN
 70
     0
  3
_ _ _ _ _ _ _ _ _ _ _ _ _ _ _ _ _ _ _ _ _ _ _
 72
    65
 73
     2
 40
0.375
 49
0.25
 49
-0.125
  0
ENDTAB
  0
TABLE
  2
LAYER
 70
     5
  0
LAYER
  2
0
 70
     0
 62
     7
  6
CONTINUOUS
  0
LAYER
  2
1
 70
     0
 62
     1
  6
CENTER
  0
LAYER
  2
2
 70
     0
 62
     2
  6
HIDDEN
  0
LAYER
  2
10
 70
     0
 62
     7
  6
CONTINUOUS
  0
LAYER
  2
11
 70
     0
 62
     3
  6
CONTINUOUS
  0
ENDTAB
  0
TABLE
  2
STYLE
 70
     2
  0
STYLE
  2
STANDARD
 70
     0
 40
0.0
 41
1.0
 50
0.0
 71
     0
 42
6.0
  3
TXT
  4
BIGFONT
  0
STYLE
  2
07500
 70
     0
 40
0.0
 41
0.75
 50
0.0
 71
     0
 42
6.0
  3
TXT
  4
BIGFONT
  0
ENDTAB
  0
TABLE
  2
VIEW
 70
     1
  0
VIEW
  2
ALL
 70
     0
 40
270.0
 10
220.991597
 20
135.0
 41
0.0
 11
0.0
 21
0.0
 31
1.0
 12
0.0
 22
0.0
 32
0.0
 42
0.0
 43
0.0
 44
0.0
 50
0.0
 71
     0
  0
ENDTAB
  0
TABLE
  2
UCS
 70
     0
  0
ENDTAB
  0
TABLE
  2
APPID
 70
     1
  0
APPID
  2
ACAD
 70
     0
  0
ENDTAB
  0
TABLE
  2
DIMSTYLE
 70
     1
  0
DIMSTYLE
  2
STANDARD
 70
     0
  3

  4

  5

  6

  7

 40
1.0
 41
0.18
 42
0.0625
 43
0.38
 44
0.18
 45
0.0
 46
0.0
 47
0.0
 48
0.0
140
0.18
141
0.09
142
0.0
143
25.4
144
1.0
145
0.0
146
1.0
147
0.09
 71
     0
 72
     0
 73
     1
 74
     1
 75
     0
 76
     0
 77
     0
 78
     0
170
     0
171
     2
172
     0
173
     0
174
     0
175
     0
176
     0
177
     0
178
     0
  0
ENDTAB
  0
ENDSEC
  0
SECTION
  2
BLOCKS
  0
BLOCK
  8
0
  2
$MODEL_SPACE
 70
     0
 10
0.0
 20
0.0
 30
0.0
  3
$MODEL_SPACE
  1

  0
ENDBLK
  5
10C
  8
0
  0
BLOCK
 67
     1
  8
0
  2
$PAPER_SPACE
 70
     0
 10
0.0
 20
0.0
 30
0.0
  3
$PAPER_SPACE
  1

  0
ENDBLK
  5
10A
 67
     1
  8
0
  0
BLOCK
  8
0
  2
QQ
 70
     0
 10
270.0
 20
0.0
 30
0.0
  3
QQ
  1

  0
LINE
  5
2C
  8
11
 10
173.0
 20
36.0
 30
0.0
 11
270.0
 21
36.0
 31
0.0
  0
TEXT
  5
2D
  8
11
 10
175.0
 20
32.5
 30
0.0
 40
2.5
  1
部品名称
  0
LINE
  5
2E
  8
11
 10
173.0
 20
36.0
 30
0.0
 11
173.0
 21
0.0
 31
0.0
  0
LINE
  5
2F
  8
11
 10
173.0
 20
24.0
 30
0.0
 11
270.0
 21
24.0
 31
0.0
  0
TEXT
  5
30
  8
11
 10
175.0
 20
20.5
 30
0.0
 40
2.5
  1
品番
  0
LINE
  5
31
  8
11
 10
173.0
 20
12.0
 30
0.0
 11
270.0
 21
12.0
 31
0.0
  0
TEXT
  5
32
  8
11
 10
175.0
 20
8.5
 30
0.0
 40
2.5
  1
尺度
  0
TEXT
  5
33
  8
11
 10
200.0
 20
8.5
 30
0.0
 40
2.5
  1
図番
  0
LINE
  5
34
  8
11
 10
198.0
 20
0.0
 30
0.0
 11
198.0
 21
12.0
 31
0.0
  0
ENDBLK
  5
35
  8
0
  0
ENDSEC
  0
SECTION
  2
ENTITIES
  0
LINE
  5
36
  8
1
 10
309.972878
 20
160.438707
 30
0.0
 11
279.972878
 21
160.438707
 31
0.0
  0
LINE
  5
37
  8
0
 10
298.972878
 20
151.273556
 30
0.0
 11
298.972878
 21
146.0
 31
0.0
  0
LINE
  5
38
  8
0
 10
290.972878
 20
151.273556
 30
0.0
 11
290.972878
 21
146.0
 31
0.0
  0
LINE
  5
39
  8
0
 10
301.053743
 20
152.5
 30
0.0
 11
302.250275
 21
152.5
 31
0.0
  0
CIRCLE
  5
3A
  8
0
 10
294.972878
 20
160.438707
 30
0.0
 40
10.0
  0
LINE
  5
3B
  8
1
 10
294.972878
 20
175.438707
 30
0.0
 11
294.972878
 21
110.0
 31
0.0
  0
LINE
  5
3C
  8
0
 10
282.972878
 20
115.0
 30
0.0
 11
306.972878
 21
115.0
 31
0.0
  0
LINE
  5
3D
  8
0
 10
286.755095
 20
151.84011
 30
0.0
 11
282.472878
 21
140.0
 31
0.0
  0
LINE
  5
3E
  8
0
 10
282.472878
 20
140.0
 30
0.0
 11
282.472878
 21
115.5
 31
0.0
  0
ARC
  5
3F
  8
0
 10
287.695481
 20
151.5
 30
0.0
 40
1.0
 50
90.0
 51
160.116442
  0
LINE
  5
40
  8
0
 10
307.472878
 20
140.0
 30
0.0
 11
307.472878
 21
115.5
 31
0.0
  0
LINE
  5
41
  8
0
 10
287.695481
 20
152.5
 30
0.0
 11
288.892012
 21
152.5
 31
0.0
  0
ARC
  5
42
  8
0
 10
302.250275
 20
151.5
 30
0.0
 40
1.0
 50
19.883558
 51
90.0
  0
LINE
  5
43
  8
0
 10
303.190661
 20
151.84011
 30
0.0
 11
307.472878
 21
140.0
 31
0.0
  0
LINE
  5
44
  8
0
 10
282.472878
 20
115.5
 30
0.0
 11
282.972878
 21
115.0
 31
0.0
  0
LINE
  5
45
  8
0
 10
306.972878
 20
115.0
 30
0.0
 11
307.472878
 21
115.5
 31
0.0
  0
LINE
  5
46
  8
0
 10
307.472878
 20
140.0
 30
0.0
 11
307.472878
 21
140.0
 31
0.0
  0
LINE
  5
47
  8
0
 10
282.472878
 20
140.0
 30
0.0
 11
307.472878
 21
140.0
 31
0.0
  0
LINE
  5
48
  8
1
 10
89.972878
 20
160.438707
 30
0.0
 11
59.972878
 21
160.438707
 31
0.0
  0
LINE
  5
49
  8
0
 10
78.972878
 20
157.286665
 30
0.0
 11
78.972878
 21
152.5
 31
0.0
  0
LINE
  5
4A
  8
0
 10
70.972878
 20
157.286665
 30
0.0
 11
70.972878
 21
152.5
 31
0.0
  0
ARC
  5
4B
  8
0
 10
74.972878
 20
160.438707
 30
0.0
 40
10.0
 50
307.451277
 51
232.548723
  0
LINE
  5
4C
  8
1
 10
74.972878
 20
175.438707
 30
0.0
 11
74.972878
 21
110.0
 31
0.0
  0
LINE
  5
4D
  8
0
 10
62.972878
 20
115.0
 30
0.0
 11
86.972878
 21
115.0
 31
0.0
  0
LINE
  5
4E
  8
0
 10
66.755095
 20
151.84011
 30
0.0
 11
62.472878
 21
140.0
 31
0.0
  0
LINE
  5
4F
  8
0
 10
62.472878
 20
140.0
 30
0.0
 11
62.472878
 21
115.5
 31
0.0
  0
ARC
  5
50
  8
0
 10
67.695481
 20
151.5
 30
0.0
 40
1.0
 50
90.0
 51
160.116442
  0
LINE
  5
51
  8
0
 10
87.472878
 20
140.0
 30
0.0
 11
87.472878
 21
115.5
 31
0.0
  0
LINE
  5
52
  8
0
 10
67.695481
 20
152.5
 30
0.0
 11
82.250275
 21
152.5
 31
0.0
  0
ARC
  5
53
  8
0
 10
82.250275
 20
151.5
 30
0.0
 40
1.0
 50
19.883558
 51
90.0
  0
LINE
  5
54
  8
0
 10
83.190661
 20
151.84011
 30
0.0
 11
87.472878
 21
140.0
 31
0.0
  0
LINE
  5
55
  8
0
 10
62.472878
 20
115.5
 30
0.0
 11
62.972878
 21
115.0
 31
0.0
  0
LINE
  5
56
  8
0
 10
86.972878
 20
115.0
 30
0.0
 11
87.472878
 21
115.5
 31
0.0
  0
LINE
  5
57
  8
2
 10
77.472878
 20
115.5
 30
0.0
 11
72.472878
 21
115.5
 31
0.0
  0
LINE
  5
58
  8
0
 10
87.472878
 20
140.0
 30
0.0
 11
87.472878
 21
140.0
 31
0.0
  0
LINE
  5
59
  8
0
 10
62.472878
 20
140.0
 30
0.0
 11
87.472878
 21
140.0
 31
0.0
  0
LINE
  5
5A
  8
1
 10
214.972878
 20
66.091694
 30
0.0
 11
214.972878
 21
36.091694
 31
0.0
  0
LINE
  5
5B
  8
1
 10
169.972878
 20
219.966562
 30
0.0
 11
169.972878
 21
228.966562
 31
0.0
  0
LINE
  5
5C
  8
0
 10
206.312712
 20
47.091694
 30
0.0
 11
176.815597
 21
47.091694
 31
0.0
  0
LINE
  5
5D
  8
0
 10
206.312712
 20
55.091694
 30
0.0
 11
176.815597
 21
55.091694
 31
0.0
  0
LINE
  5
5E
  8
1
 10
214.972878
 20
239.466562
 30
0.0
 11
214.972878
 21
209.466562
 31
0.0
  0
ARC
  5
5F
  8
0
 10
214.972878
 20
51.091694
 30
0.0
 40
10.0
 50
203.578178
 51
156.421822
  0
LINE
  5
60
  8
1
 10
164.972878
 20
68.591694
 30
0.0
 11
164.972878
 21
33.591694
 31
0.0
  0
LINE
  5
61
  8
1
 10
229.972878
 20
51.091694
 30
0.0
 11
147.472878
 21
51.091694
 31
0.0
  0
CIRCLE
  5
62
  8
0
 10
164.972878
 20
51.091694
 30
0.0
 40
12.0
  0
CIRCLE
  5
63
  8
0
 10
164.972878
 20
51.091694
 30
0.0
 40
12.5
  0
LINE
  5
64
  8
0
 10
152.472878
 20
140.0
 30
0.0
 11
177.472878
 21
140.0
 31
0.0
  0
LINE
  5
65
  8
0
 10
205.807727
 20
220.466562
 30
0.0
 11
175.302856
 21
220.466562
 31
0.0
  0
LINE
  5
66
  8
0
 10
205.807727
 20
228.466562
 30
0.0
 11
175.302856
 21
228.466562
 31
0.0
  0
LINE
  5
67
  8
1
 10
164.972878
 20
241.966562
 30
0.0
 11
164.972878
 21
206.966562
 31
0.0
  0
LINE
  5
68
  8
1
 10
229.972878
 20
224.466562
 30
0.0
 11
147.472878
 21
224.466562
 31
0.0
  0
ARC
  5
69
  8
0
 10
164.972878
 20
224.466562
 30
0.0
 40
12.5
 50
18.662925
 51
341.337075
  0
LINE
  5
6A
  8
1
 10
220.10318
 20
146.343318
 30
0.0
 11
209.842576
 21
174.534097
 31
0.0
  0
ARC
  5
6B
  8
0
 10
214.972878
 20
160.438707
 30
0.0
 40
10.0
 50
223.462283
 51
177.160475
  0
LINE
  5
6C
  8
1
 10
169.972878
 20
139.521434
 30
0.0
 11
169.972878
 21
155.0
 31
0.0
  0
LINE
  5
6D
  8
0
 10
173.942414
 20
149.761551
 30
0.0
 11
204.944631
 21
161.045435
 31
0.0
  0
LINE
  5
6E
  8
0
 10
207.680793
 20
153.527894
 30
0.0
 11
176.663297
 21
142.238449
 31
0.0
  0
LINE
  5
6F
  8
0
 10
207.680793
 20
153.527894
 30
0.0
 11
204.944631
 21
161.045435
 31
0.0
  0
LINE
  5
70
  8
0
 10
177.472878
 20
140.0
 30
0.0
 11
177.472878
 21
140.0
 31
0.0
  0
LINE
  5
71
  8
1
 10
160.274415
 20
140.530095
 30
0.0
 11
229.068267
 21
165.569009
 31
0.0
  0
LINE
  5
72
  8
2
 10
167.472878
 20
115.5
 30
0.0
 11
162.472878
 21
115.5
 31
0.0
  0
LINE
  5
73
  8
0
 10
176.972878
 20
115.0
 30
0.0
 11
177.472878
 21
115.5
 31
0.0
  0
LINE
  5
74
  8
0
 10
152.472878
 20
115.5
 30
0.0
 11
152.972878
 21
115.0
 31
0.0
  0
LINE
  5
75
  8
0
 10
173.190661
 20
151.84011
 30
0.0
 11
173.942414
 21
149.761551
 31
0.0
  0
ARC
  5
76
  8
0
 10
172.250275
 20
151.5
 30
0.0
 40
1.0
 50
19.883558
 51
90.0
  0
LINE
  5
77
  8
0
 10
157.695479
 20
152.5
 30
0.0
 11
172.250275
 21
152.5
 31
0.0
  0
LINE
  5
78
  8
0
 10
177.472878
 20
140.0
 30
0.0
 11
177.472878
 21
115.5
 31
0.0
  0
ARC
  5
79
  8
0
 10
157.695481
 20
151.5
 30
0.0
 40
1.0
 50
90.0
 51
160.116442
  0
LINE
  5
7A
  8
0
 10
152.472878
 20
140.0
 30
0.0
 11
152.472878
 21
115.5
 31
0.0
  0
LINE
  5
7B
  8
0
 10
156.755096
 20
151.840111
 30
0.0
 11
152.472878
 21
140.0
 31
0.0
  0
LINE
  5
7C
  8
0
 10
152.972878
 20
115.0
 30
0.0
 11
176.972878
 21
115.0
 31
0.0
  0
LINE
  5
7D
  8
1
 10
164.972878
 20
157.5
 30
0.0
 11
164.972878
 21
110.0
 31
0.0
  0
TEXT
  5
7E
  8
11
 10
280.0
 20
1.0
 30
0.0
 40
4.0
  1
1/1
  0
POLYLINE
  5
7F
  8
0
 66
     1
 10
0.0
 20
0.0
 30
0.0
  0
VERTEX
  5
110
  8
0
 10
175.302856
 20
228.466562
 30
0.0
 42
0.224492
  0
VERTEX
  5
111
  8
0
 10
174.881884
 20
228.267521
 30
0.0
 42
0.090152
  0
VERTEX
  5
112
  8
0
 10
174.340878
 20
227.294989
 30
0.0
 42
0.047005
  0
VERTEX
  5
113
  8
0
 10
174.01741
 20
225.937354
 30
0.0
 42
0.044535
  0
VERTEX
  5
114
  8
0
 10
173.942414
 20
224.466562
 30
0.0
 42
0.035004
  0
VERTEX
  5
115
  8
0
 10
174.057217
 20
222.828696
 30
0.0
 42
0.047005
  0
VERTEX
  5
116
  8
0
 10
174.340878
 20
221.638135
 30
0.0
 42
0.090152
  0
VERTEX
  5
117
  8
0
 10
174.881884
 20
220.665602
 30
0.0
 42
0.224492
  0
VERTEX
  5
118
  8
0
 10
175.302856
 20
220.466562
 30
0.0
 42
0.224492
  0
SEQEND
  5
119
  8
0
  0
POLYLINE
  5
8A
  8
0
 66
     1
 10
0.0
 20
0.0
 30
0.0
  0
VERTEX
  5
11A
  8
0
 10
290.972878
 20
146.0
 30
0.0
 42
0.104099
  0
VERTEX
  5
11B
  8
0
 10
291.27347
 20
144.571867
 30
0.0
 42
0.10064
  0
VERTEX
  5
11C
  8
0
 10
292.144451
 20
143.340182
 30
0.0
 42
0.096106
  0
VERTEX
  5
11D
  8
0
 10
293.547047
 20
142.454828
 30
0.0
 42
0.110868
  0
VERTEX
  5
11E
  8
0
 10
294.972878
 20
142.238449
 30
0.0
 42
0.093128
  0
VERTEX
  5
11F
  8
0
 10
296.514904
 20
142.528173
 30
0.0
 42
0.096106
  0
VERTEX
  5
120
  8
0
 10
297.801305
 20
143.340182
 30
0.0
 42
0.10064
  0
VERTEX
  5
121
  8
0
 10
298.672286
 20
144.571867
 30
0.0
 42
0.104099
  0
VERTEX
  5
122
  8
0
 10
298.972878
 20
146.0
 30
0.0
 42
0.104099
  0
SEQEND
  5
123
  8
0
  0
POLYLINE
  5
95
  8
0
 66
     1
 10
0.0
 20
0.0
 30
0.0
  0
VERTEX
  5
124
  8
0
 10
78.972878
 20
157.286665
 30
0.0
 42
0.104168
  0
VERTEX
  5
125
  8
0
 10
78.672335
 20
158.713601
 30
0.0
 42
0.100664
  0
VERTEX
  5
126
  8
0
 10
77.801305
 20
159.944517
 30
0.0
 42
0.096076
  0
VERTEX
  5
127
  8
0
 10
76.515035
 20
160.755886
 30
0.0
 42
0.093065
  0
VERTEX
  5
128
  8
0
 10
74.972878
 20
161.045435
 30
0.0
 42
0.093065
  0
VERTEX
  5
129
  8
0
 10
73.43072
 20
160.755886
 30
0.0
 42
0.096076
  0
VERTEX
  5
12A
  8
0
 10
72.144451
 20
159.944517
 30
0.0
 42
0.100664
  0
VERTEX
  5
12B
  8
0
 10
71.273421
 20
158.713601
 30
0.0
 42
0.104168
  0
VERTEX
  5
12C
  8
0
 10
70.972878
 20
157.286665
 30
0.0
 42
0.104168
  0
SEQEND
  5
12D
  8
0
  0
POLYLINE
  5
A0
  8
0
 66
     1
 10
0.0
 20
0.0
 30
0.0
  0
VERTEX
  5
12E
  8
0
 10
206.312712
 20
47.091694
 30
0.0
 42
0.22377
  0
VERTEX
  5
12F
  8
0
 10
206.736621
 20
47.291411
 30
0.0
 42
0.090414
  0
VERTEX
  5
130
  8
0
 10
207.280091
 20
48.263266
 30
0.0
 42
0.047239
  0
VERTEX
  5
131
  8
0
 10
207.565366
 20
49.454033
 30
0.0
 42
0.035198
  0
VERTEX
  5
132
  8
0
 10
207.680793
 20
51.091694
 30
0.0
 42
0.035198
  0
VERTEX
  5
133
  8
0
 10
207.565366
 20
52.729354
 30
0.0
 42
0.047239
  0
VERTEX
  5
134
  8
0
 10
207.280091
 20
53.920121
 30
0.0
 42
0.090414
  0
VERTEX
  5
135
  8
0
 10
206.736621
 20
54.891977
 30
0.0
 42
0.22377
  0
VERTEX
  5
136
  8
0
 10
206.312712
 20
55.091694
 30
0.0
 42
0.22377
  0
SEQEND
  5
137
  8
0
  0
ARC
  5
AB
  8
0
 10
187.916689
 20
150.56205
 30
0.0
 40
13.997184
 50
183.278536
 51
216.488579
  0
LINE
  5
AC
  8
0
 10
176.663297
 20
142.238449
 30
0.0
 11
177.472878
 21
140.0
 31
0.0
  0
CIRCLE
  5
AD
  8
0
 10
164.972878
 20
224.466562
 30
0.0
 40
7.97912
  0
CIRCLE
  5
AE
  8
0
 10
214.972878
 20
224.466562
 30
0.0
 40
10.0
  0
TEXT
  5
AF
  8
11
 10
280.0
 20
25.0
 30
0.0
 40
6.0
  1
ロッキング・レバー
 41
0.75
  7
07500
  0
INSERT
  5
B0
  8
0
  2
QQ
 10
375.0
 20
0.0
 30
0.0
  0
LINE
  5
B1
  8
10
 10
0.0
 20
270.0
 30
0.0
 11
0.0
 21
0.0
 31
0.0
  0
LINE
  5
B2
  8
10
 10
375.0
 20
270.0
 30
0.0
 11
0.0
 21
270.0
 31
0.0
  0
LINE
  5
B3
  8
10
 10
375.0
 20
0.0
 30
0.0
 11
375.0
 21
270.0
 31
0.0
  0
LINE
  5
B4
  8
10
 10
0.0
 20
0.0
 30
0.0
 11
375.0
 21
0.0
 31
0.0
  0
LINE
  5
B5
  8
0
 10
307.475375
 20
115.444466
 30
0.0
 11
282.45396
 21
115.444466
 31
0.0
  0
LINE
  5
B6
  8
0
 10
87.437895
 20
115.507277
 30
0.0
 11
62.468945
 21
115.507277
 31
0.0
  0
LINE
  5
B7
  8
2
 10
80.5
 20
115.0
 30
0.0
 11
80.0
 21
115.5
 31
0.0
  0
LINE
  5
B8
  8
2
 10
80.0
 20
115.5
 30
0.0
 11
80.0
 21
134.0
 31
0.0
  0
LINE
  5
B9
  8
2
 10
80.0
 20
134.0
 30
0.0
 11
79.5
 21
134.0
 31
0.0
  0
LINE
  5
BA
  8
2
 10
79.5
 20
134.0
 30
0.0
 11
79.5
 21
136.0
 31
0.0
  0
LINE
  5
BB
  8
2
 10
79.5
 20
136.0
 30
0.0
 11
75.0
 21
138.0
 31
0.0
  0
LINE
  5
BC
  8
2
 10
75.0
 20
138.0
 30
0.0
 11
70.5
 21
136.0
 31
0.0
  0
LINE
  5
BD
  8
2
 10
70.5
 20
136.0
 30
0.0
 11
70.5
 21
134.0
 31
0.0
  0
LINE
  5
BE
  8
2
 10
70.5
 20
134.0
 30
0.0
 11
70.0
 21
134.0
 31
0.0
  0
LINE
  5
BF
  8
2
 10
70.0
 20
134.0
 30
0.0
 11
70.0
 21
115.5
 31
0.0
  0
LINE
  5
C0
  8
2
 10
70.0
 20
115.5
 30
0.0
 11
69.5
 21
115.0
 31
0.0
  0
LINE
  5
C1
  8
2
 10
70.5
 20
134.0
 30
0.0
 11
79.5
 21
134.0
 31
0.0
  0
LINE
  5
C2
  8
2
 10
70.5
 20
136.0
 30
0.0
 11
79.5
 21
136.0
 31
0.0
  0
LINE
  5
C3
  8
2
 10
170.5
 20
115.0
 30
0.0
 11
170.0
 21
115.5
 31
0.0
  0
LINE
  5
C4
  8
2
 10
170.0
 20
115.5
 30
0.0
 11
170.0
 21
134.0
 31
0.0
  0
LINE
  5
C5
  8
2
 10
170.0
 20
134.0
 30
0.0
 11
169.5
 21
134.0
 31
0.0
  0
LINE
  5
C6
  8
2
 10
169.5
 20
134.0
 30
0.0
 11
169.5
 21
136.0
 31
0.0
  0
LINE
  5
C7
  8
2
 10
169.5
 20
136.0
 30
0.0
 11
165.0
 21
138.0
 31
0.0
  0
LINE
  5
C8
  8
2
 10
165.0
 20
138.0
 30
0.0
 11
160.5
 21
136.0
 31
0.0
  0
LINE
  5
C9
  8
2
 10
160.5
 20
136.0
 30
0.0
 11
160.5
 21
134.0
 31
0.0
  0
LINE
  5
CA
  8
2
 10
160.5
 20
134.0
 30
0.0
 11
160.0
 21
134.0
 31
0.0
  0
LINE
  5
CB
  8
2
 10
160.0
 20
134.0
 30
0.0
 11
160.0
 21
115.5
 31
0.0
  0
LINE
  5
CC
  8
2
 10
160.0
 20
115.5
 30
0.0
 11
159.5
 21
115.0
 31
0.0
  0
LINE
  5
CD
  8
2
 10
160.5
 20
136.0
 30
0.0
 11
169.5
 21
136.0
 31
0.0
  0
LINE
  5
CE
  8
2
 10
160.5
 20
134.0
 30
0.0
 11
169.5
 21
134.0
 31
0.0
  0
LINE
  5
CF
  8
0
 10
177.5
 20
115.5
 30
0.0
 11
152.5
 21
115.5
 31
0.0
  0
LINE
  5
D0
  8
2
 10
300.5
 20
115.0
 30
0.0
 11
300.0
 21
115.5
 31
0.0
  0
LINE
  5
D1
  8
2
 10
300.0
 20
115.5
 30
0.0
 11
300.0
 21
134.0
 31
0.0
  0
LINE
  5
D2
  8
2
 10
300.0
 20
134.0
 30
0.0
 11
299.5
 21
134.0
 31
0.0
  0
LINE
  5
D3
  8
2
 10
299.5
 20
134.0
 30
0.0
 11
299.5
 21
136.0
 31
0.0
  0
LINE
  5
D4
  8
2
 10
299.5
 20
136.0
 30
0.0
 11
295.0
 21
138.0
 31
0.0
  0
LINE
  5
D5
  8
2
 10
295.0
 20
138.0
 30
0.0
 11
290.5
 21
136.0
 31
0.0
  0
LINE
  5
D6
  8
2
 10
290.5
 20
136.0
 30
0.0
 11
290.5
 21
134.0
 31
0.0
  0
LINE
  5
D7
  8
2
 10
290.5
 20
134.0
 30
0.0
 11
290.0
 21
134.0
 31
0.0
  0
LINE
  5
D8
  8
2
 10
290.0
 20
134.0
 30
0.0
 11
290.0
 21
115.5
 31
0.0
  0
LINE
  5
D9
  8
2
 10
290.0
 20
115.5
 30
0.0
 11
289.5
 21
115.0
 31
0.0
  0
LINE
  5
DA
  8
2
 10
290.5
 20
136.0
 30
0.0
 11
299.5
 21
136.0
 31
0.0
  0
LINE
  5
DB
  8
2
 10
290.5
 20
134.0
 30
0.0
 11
299.5
 21
134.0
 31
0.0
  0
TEXT
  5
DC
  8
11
 10
287.5
 20
12.5
 30
0.0
 40
6.0
  1
Ｌ－５０Ｒ
  0
CIRCLE
  5
DD
  8
0
 10
165.0
 20
51.0
 30
0.0
 40
5.0
  0
TEXT
  5
DE
  8
0
 10
314.229857
 20
2.964525
 30
0.0
 40
6.0
  1
MLE00102
  0
ENDSEC
  0
EOF
