  0
SECTION
  2
HEADER
  9
$ACADVER
  1
AC1009
  9
$INSBASE
 10
0.0
 20
0.0
 30
0.0
  9
$EXTMIN
 10
0.0
 20
0.0
 30
0.0
  9
$EXTMAX
 10
375.0
 20
270.0
 30
0.0
  9
$LIMMIN
 10
0.0
 20
0.0
  9
$LIMMAX
 10
375.0
 20
270.0
  9
$ORTHOMODE
 70
     0
  9
$REGENMODE
 70
     1
  9
$FILLMODE
 70
     1
  9
$QTEXTMODE
 70
     0
  9
$MIRRTEXT
 70
     1
  9
$DRAGMODE
 70
     1
  9
$LTSCALE
 40
10.0
  9
$OSMODE
 70
     0
  9
$ATTMODE
 70
     1
  9
$TEXTSIZE
 40
6.0
  9
$TRACEWID
 40
0.05
  9
$TEXTSTYLE
  7
BIGFONT
  9
$CLAYER
  8
0
  9
$CELTYPE
  6
BYLAYER
  9
$CECOLOR
 62
   256
  9
$DIMSCALE
 40
1.0
  9
$DIMASZ
 40
3.0
  9
$DIMEXO
 40
2.0
  9
$DIMDLI
 40
0.38
  9
$DIMRND
 40
0.0
  9
$DIMDLE
 40
0.0
  9
$DIMEXE
 40
2.0
  9
$DIMTP
 40
0.0
  9
$DIMTM
 40
0.0
  9
$DIMTXT
 40
3.2
  9
$DIMCEN
 40
0.0
  9
$DIMTSZ
 40
0.0
  9
$DIMTOL
 70
     0
  9
$DIMLIM
 70
     0
  9
$DIMTIH
 70
     0
  9
$DIMTOH
 70
     0
  9
$DIMSE1
 70
     0
  9
$DIMSE2
 70
     0
  9
$DIMTAD
 70
     1
  9
$DIMZIN
 70
     0
  9
$DIMBLK
  1

  9
$DIMASO
 70
     0
  9
$DIMSHO
 70
     0
  9
$DIMPOST
  1

  9
$DIMAPOST
  1

  9
$DIMALT
 70
     0
  9
$DIMALTD
 70
     2
  9
$DIMALTF
 40
25.4
  9
$DIMLFAC
 40
1.0
  9
$DIMTOFL
 70
     1
  9
$DIMTVP
 40
1.6
  9
$DIMTIX
 70
     1
  9
$DIMSOXD
 70
     0
  9
$DIMSAH
 70
     0
  9
$DIMBLK1
  1

  9
$DIMBLK2
  1

  9
$DIMSTYLE
  2
STANDARD
  9
$DIMCLRD
 70
     0
  9
$DIMCLRE
 70
     0
  9
$DIMCLRT
 70
     0
  9
$DIMTFAC
 40
1.0
  9
$DIMGAP
 40
0.09
  9
$LUNITS
 70
     2
  9
$LUPREC
 70
     4
  9
$SKETCHINC
 40
0.1
  9
$FILLETRAD
 40
0.0
  9
$AUNITS
 70
     0
  9
$AUPREC
 70
     4
  9
$MENU
  1
ACAD
  9
$ELEVATION
 40
0.0
  9
$PELEVATION
 40
0.0
  9
$THICKNESS
 40
0.0
  9
$LIMCHECK
 70
     0
  9
$BLIPMODE
 70
     0
  9
$CHAMFERA
 40
0.0
  9
$CHAMFERB
 40
0.0
  9
$SKPOLY
 70
     0
  9
$TDCREATE
 40
2450683.600602
  9
$TDUPDATE
 40
2450683.600602
  9
$TDINDWG
 40
0.0
  9
$TDUSRTIMER
 40
0.0
  9
$USRTIMER
 70
     1
  9
$ANGBASE
 50
0.0
  9
$ANGDIR
 70
     0
  9
$PDMODE
 70
     0
  9
$PDSIZE
 40
0.0
  9
$PLINEWID
 40
0.0
  9
$COORDS
 70
     2
  9
$SPLFRAME
 70
     0
  9
$SPLINETYPE
 70
     6
  9
$SPLINESEGS
 70
     8
  9
$ATTDIA
 70
     0
  9
$ATTREQ
 70
     1
  9
$HANDLING
 70
     1
  9
$HANDSEED
  5
13B
  9
$SURFTAB1
 70
     6
  9
$SURFTAB2
 70
     6
  9
$SURFTYPE
 70
     6
  9
$SURFU
 70
     6
  9
$SURFV
 70
     6
  9
$UCSNAME
  2

  9
$UCSORG
 10
0.0
 20
0.0
 30
0.0
  9
$UCSXDIR
 10
1.0
 20
0.0
 30
0.0
  9
$UCSYDIR
 10
0.0
 20
1.0
 30
0.0
  9
$PUCSNAME
  2

  9
$PUCSORG
 10
0.0
 20
0.0
 30
0.0
  9
$PUCSXDIR
 10
1.0
 20
0.0
 30
0.0
  9
$PUCSYDIR
 10
0.0
 20
1.0
 30
0.0
  9
$USERI1
 70
     0
  9
$USERI2
 70
     0
  9
$USERI3
 70
     0
  9
$USERI4
 70
     0
  9
$USERI5
 70
     0
  9
$USERR1
 40
0.0
  9
$USERR2
 40
0.0
  9
$USERR3
 40
0.0
  9
$USERR4
 40
0.0
  9
$USERR5
 40
0.0
  9
$WORLDVIEW
 70
     1
  9
$SHADEDGE
 70
     3
  9
$SHADEDIF
 70
    70
  9
$TILEMODE
 70
     1
  9
$MAXACTVP
 70
    16
  9
$PLIMCHECK
 70
     0
  9
$PEXTMIN
 10
1.000000E+020
 20
1.000000E+020
 30
1.000000E+020
  9
$PEXTMAX
 10
-1.000000E+020
 20
-1.000000E+020
 30
-1.000000E+020
  9
$PLIMMIN
 10
0.0
 20
0.0
  9
$PLIMMAX
 10
12.0
 20
9.0
  9
$UNITMODE
 70
     0
  9
$VISRETAIN
 70
     0
  9
$PLINEGEN
 70
   163
  9
$PSLTSCALE
 70
     0
  0
ENDSEC
  0
SECTION
  2
TABLES
  0
TABLE
  2
VPORT
 70
     3
  0
VPORT
  2
*ACTIVE
 70
     0
 10
0.0
 20
0.0
 11
1.0
 21
1.0
 12
229.111675
 22
169.264562
 13
0.0
 23
0.0
 14
0.5
 24
0.5
 15
1.0
 25
1.0
 16
0.0
 26
0.0
 36
1.0
 17
0.0
 27
0.0
 37
0.0
 40
338.529124
 41
1.353571
 42
50.0
 43
0.0
 44
0.0
 50
0.0
 51
0.0
 71
     0
 72
   500
 73
     1
 74
     1
 75
     0
 76
     0
 77
     0
 78
     2
  0
ENDTAB
  0
TABLE
  2
LTYPE
 70
     3
  0
LTYPE
  2
CONTINUOUS
 70
     0
  3
実線
 72
    65
 73
     0
 40
0.0
  0
LTYPE
  2
CENTER
 70
     0
  3
____ _ ____ _ ____ _ ____ _ ____ _ ____ _ ____
 72
    65
 73
     4
 40
2.0
 49
1.25
 49
-0.25
 49
0.25
 49
-0.25
  0
LTYPE
  2
HIDDEN
 70
     0
  3
_ _ _ _ _ _ _ _ _ _ _ _ _ _ _ _ _ _ _ _ _ _ _
 72
    65
 73
     2
 40
0.375
 49
0.25
 49
-0.125
  0
ENDTAB
  0
TABLE
  2
LAYER
 70
     5
  0
LAYER
  2
0
 70
     0
 62
     7
  6
CONTINUOUS
  0
LAYER
  2
1
 70
     0
 62
     1
  6
CENTER
  0
LAYER
  2
2
 70
     0
 62
     2
  6
HIDDEN
  0
LAYER
  2
10
 70
     0
 62
     7
  6
CONTINUOUS
  0
LAYER
  2
11
 70
     0
 62
     3
  6
CONTINUOUS
  0
ENDTAB
  0
TABLE
  2
STYLE
 70
     3
  0
STYLE
  2
STANDARD
 70
     0
 40
0.0
 41
1.0
 50
0.0
 71
     0
 42
0.2
  3
TXT
  4
BIGFONT
  0
STYLE
  2
07500
 70
     0
 40
0.0
 41
0.75
 50
0.0
 71
     0
 42
0.2
  3
TXT
  4
BIGFONT
  0
STYLE
  2
BIGFONT
 70
     0
 40
6.0
 41
0.8
 50
0.0
 71
     0
 42
6.0
  3

  4
bigfont
  0
ENDTAB
  0
TABLE
  2
VIEW
 70
     1
  0
VIEW
  2
ALL
 70
     0
 40
270.0
 10
220.991597
 20
135.0
 41
0.0
 11
0.0
 21
0.0
 31
1.0
 12
0.0
 22
0.0
 32
0.0
 42
0.0
 43
0.0
 44
0.0
 50
0.0
 71
     0
  0
ENDTAB
  0
TABLE
  2
UCS
 70
     0
  0
ENDTAB
  0
TABLE
  2
APPID
 70
     1
  0
APPID
  2
ACAD
 70
     0
  0
ENDTAB
  0
TABLE
  2
DIMSTYLE
 70
     1
  0
DIMSTYLE
  2
STANDARD
 70
     0
  3

  4

  5

  6

  7

 40
1.0
 41
0.18
 42
0.0625
 43
0.38
 44
0.18
 45
0.0
 46
0.0
 47
0.0
 48
0.0
140
0.18
141
0.09
142
0.0
143
25.4
144
1.0
145
0.0
146
1.0
147
0.09
 71
     0
 72
     0
 73
     1
 74
     1
 75
     0
 76
     0
 77
     0
 78
     0
170
     0
171
     2
172
     0
173
     0
174
     0
175
     0
176
     0
177
     0
178
     0
  0
ENDTAB
  0
ENDSEC
  0
SECTION
  2
BLOCKS
  0
BLOCK
  8
0
  2
$MODEL_SPACE
 70
     0
 10
0.0
 20
0.0
 30
0.0
  3
$MODEL_SPACE
  1

  0
ENDBLK
  5
10E
  8
0
  0
BLOCK
 67
     1
  8
0
  2
$PAPER_SPACE
 70
     0
 10
0.0
 20
0.0
 30
0.0
  3
$PAPER_SPACE
  1

  0
ENDBLK
  5
10C
 67
     1
  8
0
  0
BLOCK
  8
0
  2
QQ
 70
     0
 10
270.0
 20
0.0
 30
0.0
  3
QQ
  1

  0
LINE
  5
2D
  8
11
 10
173.0
 20
36.0
 30
0.0
 11
270.0
 21
36.0
 31
0.0
  0
TEXT
  5
2E
  8
11
 10
175.0
 20
32.5
 30
0.0
 40
2.5
  1
部品名称
  0
LINE
  5
2F
  8
11
 10
173.0
 20
36.0
 30
0.0
 11
173.0
 21
0.0
 31
0.0
  0
LINE
  5
30
  8
11
 10
173.0
 20
24.0
 30
0.0
 11
270.0
 21
24.0
 31
0.0
  0
TEXT
  5
31
  8
11
 10
175.0
 20
20.5
 30
0.0
 40
2.5
  1
品番
  0
LINE
  5
32
  8
11
 10
173.0
 20
12.0
 30
0.0
 11
270.0
 21
12.0
 31
0.0
  0
TEXT
  5
33
  8
11
 10
175.0
 20
8.5
 30
0.0
 40
2.5
  1
尺度
  0
TEXT
  5
34
  8
11
 10
200.0
 20
8.5
 30
0.0
 40
2.5
  1
図番
  0
LINE
  5
35
  8
11
 10
198.0
 20
0.0
 30
0.0
 11
198.0
 21
12.0
 31
0.0
  0
ENDBLK
  5
36
  8
0
  0
ENDSEC
  0
SECTION
  2
ENTITIES
  0
LINE
  5
37
  8
0
 10
336.0
 20
147.5
 30
0.0
 11
340.304677
 21
147.5
 31
0.0
  0
LINE
  5
38
  8
0
 10
336.0
 20
154.597292
 30
0.0
 11
336.0
 21
138.021159
 31
0.0
  0
LINE
  5
39
  8
0
 10
324.0
 20
154.597292
 30
0.0
 11
324.0
 21
138.021159
 31
0.0
  0
LINE
  5
3A
  8
0
 10
76.0
 20
164.35671
 30
0.0
 11
76.0
 21
147.5
 31
0.0
  0
LINE
  5
3B
  8
0
 10
64.0
 20
164.35671
 30
0.0
 11
64.0
 21
147.5
 31
0.0
  0
LINE
  5
3C
  8
1
 10
351.0
 20
169.429689
 30
0.0
 11
309.0
 21
169.429689
 31
0.0
  0
LINE
  5
3D
  8
1
 10
91.0
 20
169.429689
 30
0.0
 11
49.0
 21
169.429689
 31
0.0
  0
CIRCLE
  5
3E
  8
0
 10
330.0
 20
169.429689
 30
0.0
 40
16.0
  0
ARC
  5
3F
  8
0
 10
70.0
 20
169.429689
 30
0.0
 40
16.0
 50
292.024313
 51
247.975687
  0
LINE
  5
40
  8
0
 10
313.0
 20
95.0
 30
0.0
 11
347.0
 21
95.0
 31
0.0
  0
LINE
  5
41
  8
0
 10
312.5
 20
130.0
 30
0.0
 11
312.5
 21
95.5
 31
0.0
  0
LINE
  5
42
  8
0
 10
347.5
 20
130.0
 30
0.0
 11
347.5
 21
95.5
 31
0.0
  0
LINE
  5
43
  8
0
 10
319.695323
 20
147.5
 30
0.0
 11
324.0
 21
147.5
 31
0.0
  0
LINE
  5
44
  8
0
 10
312.5
 20
130.0
 30
0.0
 11
318.757898
 21
146.848187
 31
0.0
  0
LINE
  5
45
  8
1
 10
330.0
 20
190.429689
 30
0.0
 11
330.0
 21
90.0
 31
0.0
  0
LINE
  5
46
  8
0
 10
312.5
 20
95.5
 30
0.0
 11
313.0
 21
95.0
 31
0.0
  0
LINE
  5
47
  8
0
 10
347.0
 20
95.0
 30
0.0
 11
347.5
 21
95.5
 31
0.0
  0
ARC
  5
48
  8
0
 10
319.695323
 20
146.5
 30
0.0
 40
1.0
 50
90.0
 51
159.623565
  0
ARC
  5
49
  8
0
 10
340.304677
 20
146.5
 30
0.0
 40
1.0
 50
20.376435
 51
90.0
  0
LINE
  5
4A
  8
0
 10
347.5
 20
130.0
 30
0.0
 11
341.242102
 21
146.848187
 31
0.0
  0
LINE
  5
4B
  8
0
 10
312.5
 20
130.0
 30
0.0
 11
347.5
 21
130.0
 31
0.0
  0
LINE
  5
4C
  8
0
 10
53.0
 20
95.0
 30
0.0
 11
87.0
 21
95.0
 31
0.0
  0
LINE
  5
4D
  8
0
 10
52.5
 20
130.0
 30
0.0
 11
52.5
 21
95.5
 31
0.0
  0
LINE
  5
4E
  8
0
 10
87.5
 20
130.0
 30
0.0
 11
87.5
 21
95.5
 31
0.0
  0
LINE
  5
4F
  8
0
 10
59.695323
 20
147.5
 30
0.0
 11
80.304677
 21
147.5
 31
0.0
  0
LINE
  5
50
  8
0
 10
52.5
 20
130.0
 30
0.0
 11
58.757898
 21
146.848187
 31
0.0
  0
LINE
  5
51
  8
1
 10
70.0
 20
190.429689
 30
0.0
 11
70.0
 21
90.0
 31
0.0
  0
LINE
  5
52
  8
0
 10
52.5
 20
95.5
 30
0.0
 11
53.0
 21
95.0
 31
0.0
  0
LINE
  5
53
  8
0
 10
87.0
 20
95.0
 30
0.0
 11
87.5
 21
95.5
 31
0.0
  0
ARC
  5
54
  8
0
 10
59.695323
 20
146.5
 30
0.0
 40
1.0
 50
90.0
 51
159.623565
  0
ARC
  5
55
  8
0
 10
80.304677
 20
146.5
 30
0.0
 40
1.0
 50
20.376435
 51
90.0
  0
LINE
  5
56
  8
0
 10
87.5
 20
130.0
 30
0.0
 11
81.242102
 21
146.848187
 31
0.0
  0
LINE
  5
57
  8
0
 10
52.5
 20
130.0
 30
0.0
 11
87.5
 21
130.0
 31
0.0
  0
LINE
  5
58
  8
1
 10
156.0
 20
237.5
 30
0.0
 11
156.0
 21
222.5
 31
0.0
  0
LINE
  5
59
  8
0
 10
235.982541
 20
224.0
 30
0.0
 11
164.520712
 21
224.0
 31
0.0
  0
LINE
  5
5A
  8
0
 10
235.982541
 20
236.0
 30
0.0
 11
164.520712
 21
236.0
 31
0.0
  0
LINE
  5
5B
  8
1
 10
250.814938
 20
251.0
 30
0.0
 11
250.814938
 21
209.0
 31
0.0
  0
LINE
  5
5C
  8
1
 10
150.0
 20
252.5
 30
0.0
 11
150.0
 21
207.5
 31
0.0
  0
LINE
  5
5D
  8
1
 10
271.814938
 20
230.0
 30
0.0
 11
127.5
 21
230.0
 31
0.0
  0
ARC
  5
5E
  8
0
 10
150.0
 20
230.0
 30
0.0
 40
17.5
 50
20.051043
 51
339.948957
  0
LINE
  5
5F
  8
0
 10
236.877044
 20
34.0
 30
0.0
 11
166.439282
 21
34.0
 31
0.0
  0
LINE
  5
60
  8
0
 10
236.877044
 20
46.0
 30
0.0
 11
166.439282
 21
46.0
 31
0.0
  0
LINE
  5
61
  8
1
 10
250.814938
 20
61.0
 30
0.0
 11
250.814938
 21
19.0
 31
0.0
  0
ARC
  5
62
  8
0
 10
250.814938
 20
40.0
 30
0.0
 40
16.0
 50
202.024313
 51
157.975687
  0
LINE
  5
63
  8
1
 10
150.0
 20
62.5
 30
0.0
 11
150.0
 21
17.5
 31
0.0
  0
LINE
  5
64
  8
1
 10
271.814938
 20
40.0
 30
0.0
 11
127.5
 21
40.0
 31
0.0
  0
CIRCLE
  5
65
  8
0
 10
150.0
 20
40.0
 30
0.0
 40
17.0
  0
CIRCLE
  5
66
  8
0
 10
150.0
 20
40.0
 30
0.0
 40
17.5
  0
LINE
  5
67
  8
0
 10
132.5
 20
130.0
 30
0.0
 11
167.5
 21
130.0
 31
0.0
  0
LINE
  5
68
  8
1
 10
257.997361
 20
149.696143
 30
0.0
 11
243.632515
 21
189.163234
 31
0.0
  0
ARC
  5
69
  8
0
 10
250.814938
 20
169.429689
 30
0.0
 40
16.0
 50
222.024313
 51
177.975687
  0
LINE
  5
6A
  8
0
 10
162.431548
 20
143.645832
 30
0.0
 11
234.824923
 21
169.994866
 31
0.0
  0
LINE
  5
6B
  8
0
 10
167.5
 20
130.0
 30
0.0
 11
166.609877
 21
132.396486
 31
0.0
  0
LINE
  5
6C
  8
1
 10
156.0
 20
130.152619
 30
0.0
 11
156.0
 21
150.0
 31
0.0
  0
ARC
  5
6D
  8
0
 10
160.304677
 20
146.5
 30
0.0
 40
1.0
 50
20.376435
 51
90.0
  0
ARC
  5
6E
  8
0
 10
139.695323
 20
146.5
 30
0.0
 40
1.0
 50
90.0
 51
159.623565
  0
LINE
  5
6F
  8
0
 10
234.824923
 20
169.994866
 30
0.0
 11
238.929165
 21
158.718554
 31
0.0
  0
LINE
  5
70
  8
1
 10
270.548483
 20
176.612112
 30
0.0
 11
142.519021
 21
130.013198
 31
0.0
  0
LINE
  5
71
  8
0
 10
238.929165
 20
158.718554
 30
0.0
 11
166.609877
 21
132.396486
 31
0.0
  0
LINE
  5
72
  8
0
 10
167.0
 20
95.0
 30
0.0
 11
167.5
 21
95.5
 31
0.0
  0
LINE
  5
73
  8
0
 10
132.5
 20
95.5
 30
0.0
 11
133.0
 21
95.0
 31
0.0
  0
LINE
  5
74
  8
1
 10
150.0
 20
152.5
 30
0.0
 11
150.0
 21
90.0
 31
0.0
  0
LINE
  5
75
  8
0
 10
132.5
 20
130.0
 30
0.0
 11
138.757898
 21
146.848187
 31
0.0
  0
LINE
  5
76
  8
0
 10
139.695323
 20
147.5
 30
0.0
 11
160.304677
 21
147.5
 31
0.0
  0
LINE
  5
77
  8
0
 10
167.5
 20
130.0
 30
0.0
 11
167.5
 21
95.5
 31
0.0
  0
LINE
  5
78
  8
0
 10
132.5
 20
130.0
 30
0.0
 11
132.5
 21
95.5
 31
0.0
  0
LINE
  5
79
  8
0
 10
133.0
 20
95.0
 30
0.0
 11
167.0
 21
95.0
 31
0.0
  0
TEXT
  5
7A
  8
11
 10
280.0
 20
1.0
 30
0.0
 40
4.0
  1
1/1
  0
POLYLINE
  5
7B
  8
0
 66
     1
 10
0.0
 20
0.0
 30
0.0
  0
VERTEX
  5
112
  8
0
 10
164.520712
 20
236.0
 30
0.0
 42
0.221462
  0
VERTEX
  5
113
  8
0
 10
163.870563
 20
235.697182
 30
0.0
 42
0.091241
  0
VERTEX
  5
114
  8
0
 10
163.04345
 20
234.242641
 30
0.0
 42
0.047993
  0
VERTEX
  5
115
  8
0
 10
162.546896
 20
232.206063
 30
0.0
 42
0.045531
  0
VERTEX
  5
116
  8
0
 10
162.431548
 20
230.0
 30
0.0
 42
0.035825
  0
VERTEX
  5
117
  8
0
 10
162.60771
 20
227.544511
 30
0.0
 42
0.047993
  0
VERTEX
  5
118
  8
0
 10
163.04345
 20
225.757359
 30
0.0
 42
0.091241
  0
VERTEX
  5
119
  8
0
 10
163.870563
 20
224.302818
 30
0.0
 42
0.221462
  0
VERTEX
  5
11A
  8
0
 10
164.520712
 20
224.0
 30
0.0
 42
0.221462
  0
SEQEND
  5
11B
  8
0
  0
POLYLINE
  5
86
  8
0
 66
     1
 10
0.0
 20
0.0
 30
0.0
  0
VERTEX
  5
11C
  8
0
 10
76.0
 20
164.35671
 30
0.0
 42
0.104168
  0
VERTEX
  5
11D
  8
0
 10
75.549185
 20
166.497115
 30
0.0
 42
0.100664
  0
VERTEX
  5
11E
  8
0
 10
74.242641
 20
168.343488
 30
0.0
 42
0.096076
  0
VERTEX
  5
11F
  8
0
 10
72.313236
 20
169.560542
 30
0.0
 42
0.093065
  0
VERTEX
  5
120
  8
0
 10
70.0
 20
169.994866
 30
0.0
 42
0.093065
  0
VERTEX
  5
121
  8
0
 10
67.686764
 20
169.560542
 30
0.0
 42
0.096076
  0
VERTEX
  5
122
  8
0
 10
65.757359
 20
168.343488
 30
0.0
 42
0.100664
  0
VERTEX
  5
123
  8
0
 10
64.450815
 20
166.497115
 30
0.0
 42
0.104168
  0
VERTEX
  5
124
  8
0
 10
64.0
 20
164.35671
 30
0.0
 42
0.104168
  0
SEQEND
  5
125
  8
0
  0
POLYLINE
  5
91
  8
0
 66
     1
 10
0.0
 20
0.0
 30
0.0
  0
VERTEX
  5
126
  8
0
 10
324.0
 20
138.021159
 30
0.0
 42
0.104391
  0
VERTEX
  5
127
  8
0
 10
324.450579
 20
135.886556
 30
0.0
 42
0.100743
  0
VERTEX
  5
128
  8
0
 10
325.757359
 20
134.043915
 30
0.0
 42
0.095978
  0
VERTEX
  5
129
  8
0
 10
327.860684
 20
132.720097
 30
0.0
 42
0.110573
  0
VERTEX
  5
12A
  8
0
 10
330.0
 20
132.396486
 30
0.0
 42
0.092861
  0
VERTEX
  5
12B
  8
0
 10
332.313872
 20
132.829961
 30
0.0
 42
0.095978
  0
VERTEX
  5
12C
  8
0
 10
334.242641
 20
134.043915
 30
0.0
 42
0.100743
  0
VERTEX
  5
12D
  8
0
 10
335.549421
 20
135.886556
 30
0.0
 42
0.104391
  0
VERTEX
  5
12E
  8
0
 10
336.0
 20
138.021159
 30
0.0
 42
0.104391
  0
SEQEND
  5
12F
  8
0
  0
POLYLINE
  5
9C
  8
0
 66
     1
 10
0.0
 20
0.0
 30
0.0
  0
VERTEX
  5
130
  8
0
 10
236.877044
 20
34.0
 30
0.0
 42
0.22377
  0
VERTEX
  5
131
  8
0
 10
237.512908
 20
34.299576
 30
0.0
 42
0.090414
  0
VERTEX
  5
132
  8
0
 10
238.328113
 20
35.757359
 30
0.0
 42
0.047239
  0
VERTEX
  5
133
  8
0
 10
238.756025
 20
37.543509
 30
0.0
 42
0.035198
  0
VERTEX
  5
134
  8
0
 10
238.929165
 20
40.0
 30
0.0
 42
0.035198
  0
VERTEX
  5
135
  8
0
 10
238.756025
 20
42.456491
 30
0.0
 42
0.047239
  0
VERTEX
  5
136
  8
0
 10
238.328113
 20
44.242641
 30
0.0
 42
0.090414
  0
VERTEX
  5
137
  8
0
 10
237.512908
 20
45.700424
 30
0.0
 42
0.22377
  0
VERTEX
  5
138
  8
0
 10
236.877044
 20
46.0
 30
0.0
 42
0.22377
  0
SEQEND
  5
139
  8
0
  0
ARC
  5
A7
  8
0
 10
182.369909
 20
144.650861
 30
0.0
 40
19.963675
 50
182.885654
 51
217.867217
  0
LINE
  5
A8
  8
0
 10
162.431548
 20
143.645832
 30
0.0
 11
161.242102
 21
146.848187
 31
0.0
  0
CIRCLE
  5
A9
  8
0
 10
150.0
 20
230.0
 30
0.0
 40
11.0
  0
CIRCLE
  5
AA
  8
0
 10
250.814938
 20
230.0
 30
0.0
 40
16.0
  0
INSERT
  5
AB
  8
0
  2
QQ
 10
375.0
 20
0.0
 30
0.0
  0
LINE
  5
AC
  8
10
 10
0.0
 20
270.0
 30
0.0
 11
0.0
 21
0.0
 31
0.0
  0
LINE
  5
AD
  8
10
 10
375.0
 20
270.0
 30
0.0
 11
0.0
 21
270.0
 31
0.0
  0
LINE
  5
AE
  8
10
 10
375.0
 20
0.0
 30
0.0
 11
375.0
 21
270.0
 31
0.0
  0
LINE
  5
AF
  8
10
 10
0.0
 20
0.0
 30
0.0
 11
375.0
 21
0.0
 31
0.0
  0
TEXT
  5
B0
  8
11
 10
280.0
 20
25.0
 30
0.0
 40
6.0
  1
ロッキング・レバー
 41
0.75
  7
07500
  0
CIRCLE
  5
B1
  8
0
 10
150.0
 20
40.0
 30
0.0
 40
8.0
  0
TEXT
  5
B2
  8
11
 10
289.835148
 20
13.176368
 30
0.0
 40
6.0
  1
Ｌ－１００Ｔ
 41
0.8
  7
BIGFONT
  0
LINE
  5
B3
  8
2
 10
79.0
 20
95.0
 30
0.0
 11
77.0
 21
96.0
 31
0.0
  0
LINE
  5
B4
  8
2
 10
77.0
 20
96.0
 30
0.0
 11
77.0
 21
129.0
 31
0.0
  0
LINE
  5
B5
  8
2
 10
77.0
 20
129.0
 30
0.0
 11
70.0
 21
131.0
 31
0.0
  0
LINE
  5
B6
  8
2
 10
70.0
 20
131.0
 30
0.0
 11
63.0
 21
129.0
 31
0.0
  0
LINE
  5
B7
  8
2
 10
63.0
 20
129.0
 30
0.0
 11
63.0
 21
96.0
 31
0.0
  0
LINE
  5
B8
  8
2
 10
63.0
 20
96.0
 30
0.0
 11
61.0
 21
95.0
 31
0.0
  0
LINE
  5
B9
  8
2
 10
62.0
 20
96.0
 30
0.0
 11
62.0
 21
125.0
 31
0.0
  0
LINE
  5
BA
  8
2
 10
62.0
 20
125.0
 30
0.0
 11
63.0
 21
125.5
 31
0.0
  0
LINE
  5
BB
  8
2
 10
77.0
 20
125.5
 30
0.0
 11
78.0
 21
125.0
 31
0.0
  0
LINE
  5
BC
  8
2
 10
78.0
 20
125.0
 30
0.0
 11
78.0
 21
96.0
 31
0.0
  0
LINE
  5
BD
  8
2
 10
63.0
 20
129.0
 30
0.0
 11
77.0
 21
129.0
 31
0.0
  0
LINE
  5
BE
  8
2
 10
62.0
 20
125.0
 30
0.0
 11
78.0
 21
125.0
 31
0.0
  0
LINE
  5
BF
  8
2
 10
63.0
 20
96.0
 30
0.0
 11
77.0
 21
96.0
 31
0.0
  0
LINE
  5
C0
  8
0
 10
87.5
 20
95.5
 30
0.0
 11
52.5
 21
95.5
 31
0.0
  0
LINE
  5
C1
  8
0
 10
167.5
 20
95.5
 30
0.0
 11
132.5
 21
95.5
 31
0.0
  0
LINE
  5
C2
  8
2
 10
159.0
 20
95.0
 30
0.0
 11
157.0
 21
96.0
 31
0.0
  0
LINE
  5
C3
  8
2
 10
157.0
 20
96.0
 30
0.0
 11
157.0
 21
129.0
 31
0.0
  0
LINE
  5
C4
  8
2
 10
157.0
 20
129.0
 30
0.0
 11
150.0
 21
131.0
 31
0.0
  0
LINE
  5
C5
  8
2
 10
150.0
 20
131.0
 30
0.0
 11
143.0
 21
129.0
 31
0.0
  0
LINE
  5
C6
  8
2
 10
143.0
 20
129.0
 30
0.0
 11
143.0
 21
96.0
 31
0.0
  0
LINE
  5
C7
  8
2
 10
143.0
 20
96.0
 30
0.0
 11
141.0
 21
95.0
 31
0.0
  0
LINE
  5
C8
  8
2
 10
143.0
 20
129.0
 30
0.0
 11
157.0
 21
129.0
 31
0.0
  0
LINE
  5
C9
  8
2
 10
142.0
 20
96.0
 30
0.0
 11
142.0
 21
125.0
 31
0.0
  0
LINE
  5
CA
  8
2
 10
142.0
 20
125.0
 30
0.0
 11
143.0
 21
125.5
 31
0.0
  0
LINE
  5
CB
  8
2
 10
157.0
 20
125.5
 30
0.0
 11
158.0
 21
125.0
 31
0.0
  0
LINE
  5
CC
  8
2
 10
158.0
 20
125.0
 30
0.0
 11
158.0
 21
96.0
 31
0.0
  0
LINE
  5
CD
  8
2
 10
143.0
 20
96.0
 30
0.0
 11
157.0
 21
96.0
 31
0.0
  0
LINE
  5
CE
  8
2
 10
142.0
 20
125.0
 30
0.0
 11
158.0
 21
125.0
 31
0.0
  0
LINE
  5
CF
  8
2
 10
339.0
 20
95.0
 30
0.0
 11
337.0
 21
96.0
 31
0.0
  0
LINE
  5
D0
  8
2
 10
337.0
 20
96.0
 30
0.0
 11
337.0
 21
128.0
 31
0.0
  0
LINE
  5
D1
  8
2
 10
337.0
 20
128.0
 30
0.0
 11
337.0
 21
129.0
 31
0.0
  0
LINE
  5
D2
  8
2
 10
337.0
 20
129.0
 30
0.0
 11
330.0
 21
131.0
 31
0.0
  0
LINE
  5
D3
  8
2
 10
330.0
 20
131.0
 30
0.0
 11
323.0
 21
129.0
 31
0.0
  0
LINE
  5
D4
  8
2
 10
323.0
 20
129.0
 30
0.0
 11
323.0
 21
96.0
 31
0.0
  0
LINE
  5
D5
  8
2
 10
323.0
 20
96.0
 30
0.0
 11
321.0
 21
95.0
 31
0.0
  0
LINE
  5
D6
  8
2
 10
322.0
 20
96.0
 30
0.0
 11
322.0
 21
125.0
 31
0.0
  0
LINE
  5
D7
  8
2
 10
322.0
 20
125.0
 30
0.0
 11
323.0
 21
125.5
 31
0.0
  0
LINE
  5
D8
  8
2
 10
337.0
 20
125.5
 30
0.0
 11
338.0
 21
125.0
 31
0.0
  0
LINE
  5
D9
  8
2
 10
338.0
 20
125.0
 30
0.0
 11
338.0
 21
96.0
 31
0.0
  0
LINE
  5
DA
  8
2
 10
323.0
 20
129.0
 30
0.0
 11
337.0
 21
129.0
 31
0.0
  0
LINE
  5
DB
  8
2
 10
322.0
 20
125.0
 30
0.0
 11
338.0
 21
125.0
 31
0.0
  0
LINE
  5
DC
  8
2
 10
323.0
 20
96.0
 30
0.0
 11
337.0
 21
96.0
 31
0.0
  0
LINE
  5
DD
  8
0
 10
347.5
 20
95.5
 30
0.0
 11
312.5
 21
95.5
 31
0.0
  0
CIRCLE
  5
DE
  8
0
 10
150.0
 20
40.0
 30
0.0
 40
7.0
  0
TEXT
  5
DF
  8
0
 10
313.317062
 20
2.508445
 30
0.0
 40
6.0
  1
MLE00303
 41
0.8
  7
BIGFONT
  0
ENDSEC
  0
EOF
