  0
SECTION
  2
HEADER
  9
$ACADVER
  1
AC1015
  9
$ACADMAINTVER
 70
    13
  9
$DWGCODEPAGE
  3
ANSI_932
  9
$INSBASE
 10
0.0
 20
0.0
 30
0.0
  9
$EXTMIN
 10
0.0
 20
0.0
 30
0.0
  9
$EXTMAX
 10
750.0
 20
540.0
 30
0.0
  9
$LIMMIN
 10
0.0
 20
0.0
  9
$LIMMAX
 10
750.0
 20
540.0
  9
$ORTHOMODE
 70
     1
  9
$REGENMODE
 70
     1
  9
$FILLMODE
 70
     1
  9
$QTEXTMODE
 70
     0
  9
$MIRRTEXT
 70
     1
  9
$LTSCALE
 40
20.0
  9
$ATTMODE
 70
     1
  9
$TEXTSIZE
 40
10.0
  9
$TRACEWID
 40
0.05
  9
$TEXTSTYLE
  7
BIGFONT
  9
$CLAYER
  8
0
  9
$CELTYPE
  6
ByLayer
  9
$CECOLOR
 62
   256
  9
$CELTSCALE
 40
1.0
  9
$DISPSILH
 70
     0
  9
$DIMSCALE
 40
2.0
  9
$DIMASZ
 40
3.0
  9
$DIMEXO
 40
2.0
  9
$DIMDLI
 40
0.3799999999999999
  9
$DIMRND
 40
0.0
  9
$DIMDLE
 40
0.0
  9
$DIMEXE
 40
2.0
  9
$DIMTP
 40
0.0
  9
$DIMTM
 40
0.0
  9
$DIMTXT
 40
3.2
  9
$DIMCEN
 40
0.09
  9
$DIMTSZ
 40
0.0
  9
$DIMTOL
 70
     0
  9
$DIMLIM
 70
     0
  9
$DIMTIH
 70
     0
  9
$DIMTOH
 70
     0
  9
$DIMSE1
 70
     0
  9
$DIMSE2
 70
     0
  9
$DIMTAD
 70
     1
  9
$DIMZIN
 70
     0
  9
$DIMBLK
  1

  9
$DIMASO
 70
     0
  9
$DIMSHO
 70
     0
  9
$DIMPOST
  1

  9
$DIMAPOST
  1

  9
$DIMALT
 70
     0
  9
$DIMALTD
 70
     2
  9
$DIMALTF
 40
25.4
  9
$DIMLFAC
 40
1.0
  9
$DIMTOFL
 70
     0
  9
$DIMTVP
 40
1.6
  9
$DIMTIX
 70
     1
  9
$DIMSOXD
 70
     0
  9
$DIMSAH
 70
     0
  9
$DIMBLK1
  1

  9
$DIMBLK2
  1

  9
$DIMSTYLE
  2
STANDARD
  9
$DIMCLRD
 70
     0
  9
$DIMCLRE
 70
     0
  9
$DIMCLRT
 70
     0
  9
$DIMTFAC
 40
1.0
  9
$DIMGAP
 40
0.09
  9
$DIMJUST
 70
     0
  9
$DIMSD1
 70
     0
  9
$DIMSD2
 70
     0
  9
$DIMTOLJ
 70
     1
  9
$DIMTZIN
 70
     0
  9
$DIMALTZ
 70
     0
  9
$DIMALTTZ
 70
     0
  9
$DIMUPT
 70
     0
  9
$DIMDEC
 70
     4
  9
$DIMTDEC
 70
     4
  9
$DIMALTU
 70
     2
  9
$DIMALTTD
 70
     2
  9
$DIMTXSTY
  7
STANDARD
  9
$DIMAUNIT
 70
     0
  9
$DIMADEC
 70
     0
  9
$DIMALTRND
 40
0.0
  9
$DIMAZIN
 70
     0
  9
$DIMDSEP
 70
    46
  9
$DIMATFIT
 70
     3
  9
$DIMFRAC
 70
     0
  9
$DIMLDRBLK
  1

  9
$DIMLUNIT
 70
     2
  9
$DIMLWD
 70
    -2
  9
$DIMLWE
 70
    -2
  9
$DIMTMOVE
 70
     0
  9
$LUNITS
 70
     2
  9
$LUPREC
 70
     4
  9
$SKETCHINC
 40
0.1
  9
$FILLETRAD
 40
0.0
  9
$AUNITS
 70
     0
  9
$AUPREC
 70
     0
  9
$MENU
  1
ACAD
  9
$ELEVATION
 40
0.0
  9
$PELEVATION
 40
0.0
  9
$THICKNESS
 40
0.0
  9
$LIMCHECK
 70
     0
  9
$CHAMFERA
 40
0.0
  9
$CHAMFERB
 40
0.0
  9
$CHAMFERC
 40
0.0
  9
$CHAMFERD
 40
0.0
  9
$SKPOLY
 70
     0
  9
$TDCREATE
 40
2450683.500057870
  9
$TDUCREATE
 40
2450683.125057870
  9
$TDUPDATE
 40
2454383.751338611
  9
$TDUUPDATE
 40
2454383.376338610
  9
$TDINDWG
 40
0.0010801852
  9
$TDUSRTIMER
 40
0.0010800000
  9
$USRTIMER
 70
     1
  9
$ANGBASE
 50
0.0
  9
$ANGDIR
 70
     0
  9
$PDMODE
 70
     0
  9
$PDSIZE
 40
0.0
  9
$PLINEWID
 40
0.0
  9
$SPLFRAME
 70
     0
  9
$SPLINETYPE
 70
     6
  9
$SPLINESEGS
 70
     8
  9
$HANDSEED
  5
278
  9
$SURFTAB1
 70
     6
  9
$SURFTAB2
 70
     6
  9
$SURFTYPE
 70
     6
  9
$SURFU
 70
     6
  9
$SURFV
 70
     6
  9
$UCSBASE
  2

  9
$UCSNAME
  2

  9
$UCSORG
 10
0.0
 20
0.0
 30
0.0
  9
$UCSXDIR
 10
1.0
 20
0.0
 30
0.0
  9
$UCSYDIR
 10
0.0
 20
1.0
 30
0.0
  9
$UCSORTHOREF
  2

  9
$UCSORTHOVIEW
 70
     0
  9
$UCSORGTOP
 10
0.0
 20
0.0
 30
0.0
  9
$UCSORGBOTTOM
 10
0.0
 20
0.0
 30
0.0
  9
$UCSORGLEFT
 10
0.0
 20
0.0
 30
0.0
  9
$UCSORGRIGHT
 10
0.0
 20
0.0
 30
0.0
  9
$UCSORGFRONT
 10
0.0
 20
0.0
 30
0.0
  9
$UCSORGBACK
 10
0.0
 20
0.0
 30
0.0
  9
$PUCSBASE
  2

  9
$PUCSNAME
  2

  9
$PUCSORG
 10
0.0
 20
0.0
 30
0.0
  9
$PUCSXDIR
 10
1.0
 20
0.0
 30
0.0
  9
$PUCSYDIR
 10
0.0
 20
1.0
 30
0.0
  9
$PUCSORTHOREF
  2

  9
$PUCSORTHOVIEW
 70
     0
  9
$PUCSORGTOP
 10
0.0
 20
0.0
 30
0.0
  9
$PUCSORGBOTTOM
 10
0.0
 20
0.0
 30
0.0
  9
$PUCSORGLEFT
 10
0.0
 20
0.0
 30
0.0
  9
$PUCSORGRIGHT
 10
0.0
 20
0.0
 30
0.0
  9
$PUCSORGFRONT
 10
0.0
 20
0.0
 30
0.0
  9
$PUCSORGBACK
 10
0.0
 20
0.0
 30
0.0
  9
$USERI1
 70
     0
  9
$USERI2
 70
     0
  9
$USERI3
 70
     0
  9
$USERI4
 70
     0
  9
$USERI5
 70
     0
  9
$USERR1
 40
0.0
  9
$USERR2
 40
0.0
  9
$USERR3
 40
0.0
  9
$USERR4
 40
0.0
  9
$USERR5
 40
0.0
  9
$WORLDVIEW
 70
     1
  9
$SHADEDGE
 70
     3
  9
$SHADEDIF
 70
    70
  9
$TILEMODE
 70
     1
  9
$MAXACTVP
 70
    16
  9
$PINSBASE
 10
0.0
 20
0.0
 30
0.0
  9
$PLIMCHECK
 70
     0
  9
$PEXTMIN
 10
1.000000000000000E+20
 20
1.000000000000000E+20
 30
1.000000000000000E+20
  9
$PEXTMAX
 10
-1.000000000000000E+20
 20
-1.000000000000000E+20
 30
-1.000000000000000E+20
  9
$PLIMMIN
 10
0.0
 20
0.0
  9
$PLIMMAX
 10
12.0
 20
9.0
  9
$UNITMODE
 70
     0
  9
$VISRETAIN
 70
     0
  9
$PLINEGEN
 70
     1
  9
$PSLTSCALE
 70
     0
  9
$TREEDEPTH
 70
  3020
  9
$CMLSTYLE
  2
Standard
  9
$CMLJUST
 70
     0
  9
$CMLSCALE
 40
1.0
  9
$PROXYGRAPHICS
 70
     1
  9
$MEASUREMENT
 70
     0
  9
$CELWEIGHT
370
    -1
  9
$ENDCAPS
280
     0
  9
$JOINSTYLE
280
     0
  9
$LWDISPLAY
290
     0
  9
$INSUNITS
 70
     0
  9
$HYPERLINKBASE
  1

  9
$STYLESHEET
  1

  9
$XEDIT
290
     1
  9
$CEPSNTYPE
380
     0
  9
$PSTYLEMODE
290
     1
  9
$FINGERPRINTGUID
  2
{D96704CE-E0BA-4912-9EB9-A2F71414AAA6}
  9
$VERSIONGUID
  2
{C0B7A437-212A-4F61-A9A6-5FE2D24825CC}
  9
$EXTNAMES
290
     1
  9
$PSVPSCALE
 40
0.0
  9
$OLESTARTUP
290
     0
  0
ENDSEC
  0
SECTION
  2
CLASSES
  0
CLASS
  1
ACDBDICTIONARYWDFLT
  2
AcDbDictionaryWithDefault
  3
AutoCAD 2000
 90
        0
280
     0
281
     0
  0
CLASS
  1
ACDBPLACEHOLDER
  2
AcDbPlaceHolder
  3
AutoCAD 2000
 90
        0
280
     0
281
     0
  0
CLASS
  1
LAYOUT
  2
AcDbLayout
  3
AutoCAD 2000
 90
        0
280
     0
281
     0
  0
CLASS
  1
AMGSETTINGSOBJ
  2
AmgSettingsObj
  3
"AcadM|Product Description: AutoCAD Mechanical 2000|Company: Autodesk"
 90
        0
280
     0
281
     0
  0
CLASS
  1
ACME_DOCUMENT
  2
AcMeDbDoc
  3
AcMeServices
 90
        0
280
     0
281
     0
  0
CLASS
  1
ACMESCOPE
  2
AcMeScope
  3
AcMeServices
 90
        0
280
     0
281
     0
  0
CLASS
  1
ACMECOMMANDHISTORY
  2
AcMeCommandHistory
  3
AcMeServices
 90
        0
280
     0
281
     0
  0
CLASS
  1
ACIMSYSVARMAN
  2
AcImSysVarManager
  3
AcMeServices
 90
        0
280
     0
281
     0
  0
CLASS
  1
ACIMREALSYSVAR
  2
AcImRealSysVar
  3
AcMeServices
 90
        0
280
     0
281
     0
  0
CLASS
  1
ACIMINTSYSVAR
  2
AcImIntSysVar
  3
AcMeServices
 90
        0
280
     0
281
     0
  0
CLASS
  1
ACMEDRAWINGMAN
  2
AcMeDrawingMan
  3
AcMeServices
 90
        0
280
     0
281
     0
  0
CLASS
  1
ACMEVIEW
  2
AcMeView
  3
AcMeServices
 90
        0
280
     0
281
     0
  0
CLASS
  1
ACDBENTITYCACHE
  2
AcMeEntityCache
  3
AcMeServices
 90
        0
280
     0
281
     0
  0
CLASS
  1
GSMANAGER
  2
AcMeGSManager
  3
AcMeServices
 90
        0
280
     0
281
     0
  0
CLASS
  1
AMDTINTERNALREACTOR
  2
AmdtInternalReactor
  3
AcMeServices
 90
        0
280
     0
281
     0
  0
CLASS
  1
ACMESTATEMGR
  2
AcMeStateMgr
  3
AcMeServices
 90
        0
280
     0
281
     0
  0
CLASS
  1
ACGREFMASTER
  2
AcGrefMaster
  3
AcAttribServices
 90
        0
280
     0
281
     0
  0
CLASS
  1
AM_DRAWING_MGR
  2
AcDmDwgMgr
  3
AcMechDwgViewMgmt
 90
        0
280
     0
281
     0
  0
CLASS
  1
AM_DWG_DOCUMENT
  2
AcDmDwgDocument
  3
AcMechDwgViewMgmt
 90
        0
280
     0
281
     0
  0
CLASS
  1
AM_DWG_SHEET
  2
AcDmSheet
  3
AcMechDwgViewMgmt
 90
        0
280
     0
281
     0
  0
CLASS
  1
AM_VIEWDIMPARMAP
  2
AcDmViewDimParMap
  3
AcMechDwgViewMgmt
 90
        0
280
     0
281
     0
  0
CLASS
  1
AM_DWGMGR_NAME
  2
AcDmDwgMgrName
  3
AcMechDwgViewMgmt
 90
        0
280
     0
281
     0
  0
CLASS
  1
ACME_DATABASE
  2
AcMeDbDatabase
  3
AcMeServices
 90
        0
280
     0
281
     0
  0
CLASS
  1
ACRFINSADJUSTERMGR
  2
AcRfInsAdjusterMgr
  3
AcMeServices
 90
        0
280
     0
281
     0
  0
CLASS
  1
ACGREFACADMASTER
  2
AcGrefacadMaster
  3
AcGrefServices
 90
        0
280
     0
281
     0
  0
CLASS
  1
AMDTMENUSTATEMGR
  2
AmdtMenuStateMgr
  3
McadcomServices
 90
        0
280
     0
281
     0
  0
CLASS
  1
AMDTMCOMMENUSTATE
  2
AmdtMcomMenuState
  3
McadcomServices
 90
        0
280
     0
281
     0
  0
CLASS
  1
AMIMASTER
  2
AmiMaster
  3
AmiServices
 90
        0
280
     0
281
     0
  0
CLASS
  1
ASAPP
  2
AcAsAppObject
  3
AutoSurfServices
 90
        0
280
     0
281
     0
  0
CLASS
  1
IM_STATIC_MAN
  2
AcImStaticVarManager
  3
AcMeServices
 90
        0
280
     0
281
     0
  0
CLASS
  1
ACIMSTRSYSVAR
  2
AcImStrSysVar
  3
AcMeServices
 90
        0
280
     0
281
     0
  0
CLASS
  1
ACIMDBLSTATICVAR
  2
AcImDblStaticVar
  3
AcMeServices
 90
        0
280
     0
281
     0
  0
CLASS
  1
ACIMSTRSTATICVAR
  2
AcImStrStaticVar
  3
AcMeServices
 90
        0
280
     0
281
     0
  0
CLASS
  1
ACIMINTSTATICVAR
  2
AcImIntStaticVar
  3
AcMeServices
 90
        0
280
     0
281
     0
  0
CLASS
  1
ACASGREFMASTER
  2
AcAsGrefMaster
  3
AutoSurfResolverServices
 90
        0
280
     0
281
     0
  0
CLASS
  1
ACADGREFMODULE
  2
AcAdGrefModule
  3
AdGrefServices
 90
        0
280
     0
281
     0
  0
CLASS
  1
AMDTMAPISURFMOUDULE
  2
AmdtMApiSurfModule
  3
MApiSurfServices
 90
        0
280
     0
281
     0
  0
CLASS
  1
MAPIAMMOUDLE
  2
MApiAmModule
  3
MApiAmServices
 90
        0
280
     0
281
     0
  0
CLASS
  1
AMDTADMENUSTATE
  2
AmdtAdMenuState
  3
DesignerServices
 90
        0
280
     0
281
     0
  0
CLASS
  1
ADAPPL
  2
AcAdAppl
  3
DesignerServices
 90
        0
280
     0
281
     0
  0
CLASS
  1
DEPMGR
  2
AcAdDepMgr
  3
DesignerServices
 90
        0
280
     0
281
     0
  0
CLASS
  1
PARAMMGR
  2
AcAdParamMgr
  3
DesignerServices
 90
        0
280
     0
281
     0
  0
CLASS
  1
PARAMSCOPE
  2
AcAdParamScope
  3
DesignerServices
 90
        0
280
     0
281
     0
  0
CLASS
  1
NAMEDAPPL
  2
AcAdNamedAppl
  3
DesignerServices
 90
        0
280
     0
281
     0
  0
CLASS
  1
AMDTDMMENUSTATE
  2
AmdtDmMenuState
  3
AcMechDwgViewMgmt
 90
        0
280
     0
281
     0
  0
CLASS
  1
MAPIADMODULE
  2
MApiAdModule
  3
MApiAdServices
 90
        0
280
     0
281
     0
  0
CLASS
  1
AMDTAMMENUSTATE
  2
AmdtAmMenuState
  3
DesignerAssemblies
 90
        0
280
     0
281
     0
  0
CLASS
  1
ACAMPROJECT
  2
AcAmProject
  3
DesignerAssemblies
 90
        0
280
     0
281
     0
  0
CLASS
  1
ACAMGRCOMPDEF
  2
AcAmGrCompDef
  3
DesignerAssemblies
 90
        0
280
     0
281
     0
  0
CLASS
  1
ACCMCONTEXT
  2
AcCmContext
  3
DesignerAssemblies
 90
        0
280
     0
281
     0
  0
CLASS
  1
ACAMCOMPDEF
  2
AcAmCompDef
  3
DesignerAssemblies
 90
        0
280
     0
281
     0
  0
CLASS
  1
ACAMCOMPDEFMGR
  2
AcAmCompDefMgr
  3
DesignerAssemblies
 90
        0
280
     0
281
     0
  0
CLASS
  1
AMCONTEXTMGR
  2
AcAmContextMgr
  3
DesignerAssemblies
 90
        0
280
     0
281
     0
  0
CLASS
  1
ACAMCONTEXTMODELER
  2
AcAmContextModeler
  3
DesignerAssemblies
 90
        0
280
     0
281
     0
  0
CLASS
  1
ACMDATADICTIONARY
  2
AcmDataDictionary
  3
"AcmSymBB|Product Description: AutoCAD Mechanical 2000|Company: Autodesk"
 90
        0
280
     0
281
     0
  0
CLASS
  1
ACMDATAENTRYBLOCK
  2
AcmDataEntryBlock
  3
"AcmSymBB|Product Description: AutoCAD Mechanical 2000|Company: Autodesk"
 90
        0
280
     0
281
     0
  0
CLASS
  1
CATALOGSTATE
  2
AcAmCatalogState
  3
DesignerAssemblies
 90
        0
280
     0
281
     0
  0
CLASS
  1
ACAMGRCOMPDEFSET
  2
AcAmGrCompDefSet
  3
DesignerAssemblies
 90
        0
280
     0
281
     0
  0
CLASS
  1
AMDTBROWSERDBTAB
  2
AmdtBrowserDbTab
  3
McadcomServices
 90
        0
280
     0
281
     0
  0
CLASS
  1
CBROWSERAPPOBJECT
  2
CBrowserAppObject
  3
McadcomServices
 90
        0
280
     0
281
     0
  0
CLASS
  1
DM_PLACEHOLDER
  2
AcDmSelsetPlaceholder
  3
AcMechDwgViewMgmt
 90
        0
280
     0
281
     0
  0
CLASS
  1
ACMSTANDARDANSI
  2
AcmStandardANSI
  3
"Amdt_StdImp|Product Description: AutoCAD Mechanical 2000|Company: Autodesk"
 90
        0
280
     0
281
     0
  0
CLASS
  1
AMGOBJPROPCFG
  2
AmgObjPropCfg
  3
"AmgLay|Product Description: AutoCAD Mechanical 2000|Company: Autodesk"
 90
        1
280
     0
281
     0
  0
CLASS
  1
ACMSURFSTANDARDANSI
  2
AcmSurfTextStdANSI
  3
"Amdt_StdImp|Product Description: AutoCAD Mechanical 2000|Company: Autodesk"
 90
        0
280
     0
281
     0
  0
CLASS
  1
ACMFCFSTANDARDANSI
  2
AcmFCFStdANSI
  3
"Amdt_StdImp|Product Description: AutoCAD Mechanical 2000|Company: Autodesk"
 90
        0
280
     0
281
     0
  0
CLASS
  1
ACMWELDSTANDARDANSI
  2
AcmWeldingStdANSI
  3
"Amdt_StdImp|Product Description: AutoCAD Mechanical 2000|Company: Autodesk"
 90
        0
280
     0
281
     0
  0
CLASS
  1
ACMIDSTANDARDANSI
  2
AcmIdStdANSI
  3
"Amdt_StdImp|Product Description: AutoCAD Mechanical 2000|Company: Autodesk"
 90
        0
280
     0
281
     0
  0
CLASS
  1
ACMDATUMSTANDARDANSI
  2
AcmDatumStdANSI
  3
"Amdt_StdImp|Product Description: AutoCAD Mechanical 2000|Company: Autodesk"
 90
        0
280
     0
281
     0
  0
CLASS
  1
ACMBOMSTANDARDANSI
  2
AcmBOMStdANSI
  3
"Amdt_StdImp|Product Description: AutoCAD Mechanical 2000|Company: Autodesk"
 90
        0
280
     0
281
     0
  0
CLASS
  1
ACMDETAILSTANDARDANSI
  2
AmdtDetailSymStdANSI
  3
"Amdt_StdImp|Product Description: AutoCAD Mechanical 2000|Company: Autodesk"
 90
        0
280
     0
281
     0
  0
CLASS
  1
ACMSECTIONSTANDARDANSI
  2
AmdtSectionSymStdANSI
  3
"Amdt_StdImp|Product Description: AutoCAD Mechanical 2000|Company: Autodesk"
 90
        0
280
     0
281
     0
  0
CLASS
  1
ACMCENTERLINESTANDARDANSI
  2
AmdtCenterLineStdANSI
  3
"Amdt_StdImp|Product Description: AutoCAD Mechanical 2000|Company: Autodesk"
 90
        0
280
     0
281
     0
  0
CLASS
  1
ACMTHREADLINESTANDARDANSI
  2
AmdtThreadLineStdANSI
  3
"Amdt_StdImp|Product Description: AutoCAD Mechanical 2000|Company: Autodesk"
 90
        0
280
     0
281
     0
  0
CLASS
  1
ACMNOTESTANDARDANSI
  2
AmdtNoteStdANSI
  3
"Amdt_StdImp|Product Description: AutoCAD Mechanical 2000|Company: Autodesk"
 90
        0
280
     0
281
     0
  0
CLASS
  1
ACAMGLAYSTD
  2
AcAmgLayStd
  3
"AcAmgLayStd|Product Description: AutoCAD Mechanical 2000|Company: Autodesk"
 90
        0
280
     0
281
     0
  0
CLASS
  1
ACAMGDIMSTD
  2
AcAmgDimStd
  3
"AcAmgDimStd|Product Description: AutoCAD Mechanical 2000|Company: Autodesk"
 90
        0
280
     0
281
     0
  0
CLASS
  1
ACAMGHOLECHARTSTDANSI
  2
AcAmgHoleChartStdANSI
  3
ACMSYMBB_MODULE_NAME
 90
        0
280
     0
281
     0
  0
CLASS
  1
ACAMGTITLESTD
  2
AcAmgTitleStd
  3
"TITLEAPP"
 90
        0
280
     0
281
     0
  0
CLASS
  1
ACAMGFILTERDAT
  2
AcAmgFilterDat
  3
"AcadM|Product Description: AutoCAD Mechanical 2000|Company: Autodesk"
 90
        0
280
     0
281
     0
  0
CLASS
  1
LAYER_INDEX
  2
AcDbLayerIndex
  3
AutoCAD 2000
 90
        0
280
     0
281
     0
  0
CLASS
  1
IDBUFFER
  2
AcDbIdBuffer
  3
AutoCAD 2000
 90
        0
280
     0
281
     0
  0
CLASS
  1
DICTIONARYVAR
  2
AcDbDictionaryVar
  3
AutoCAD 2000
 90
        0
280
     0
281
     0
  0
ENDSEC
  0
SECTION
  2
TABLES
  0
TABLE
  2
VPORT
  5
8
330
0
100
AcDbSymbolTable
 70
     5
  0
VPORT
  5
277
330
8
100
AcDbSymbolTableRecord
100
AcDbViewportTableRecord
  2
*Active
 70
     0
 10
0.0
 20
0.0
 11
1.0
 21
1.0
 12
-83.41794978221317
 22
-81.06611766939932
 13
0.0
 23
0.0
 14
0.5
 24
0.5
 15
1.0
 25
1.0
 16
0.0
 26
0.0
 36
1.0
 17
465.7502154966
 27
307.2791878172588
 37
0.0
 40
342.793868756738
 41
1.515723270440251
 42
50.0
 43
0.0
 44
0.0
 50
0.0
 51
0.0
 71
     0
 72
   500
 73
     1
 74
     1
 75
     0
 76
     0
 77
     0
 78
     0
281
     0
 65
     0
110
0.0
120
0.0
130
0.0
111
1.0
121
0.0
131
0.0
112
0.0
122
1.0
132
0.0
 79
     0
146
0.0
  0
ENDTAB
  0
TABLE
  2
LTYPE
  5
5
330
0
100
AcDbSymbolTable
 70
    20
  0
LTYPE
  5
13
330
5
100
AcDbSymbolTableRecord
100
AcDbLinetypeTableRecord
  2
ByBlock
 70
     0
  3

 72
    65
 73
     0
 40
0.0
  0
LTYPE
  5
14
330
5
100
AcDbSymbolTableRecord
100
AcDbLinetypeTableRecord
  2
ByLayer
 70
     0
  3

 72
    65
 73
     0
 40
0.0
  0
LTYPE
  5
15
330
5
100
AcDbSymbolTableRecord
100
AcDbLinetypeTableRecord
  2
CONTINUOUS
 70
     0
  3
実線
 72
    65
 73
     0
 40
0.0
  0
LTYPE
  5
23
330
5
100
AcDbSymbolTableRecord
100
AcDbLinetypeTableRecord
  2
BYLAYER
 70
     0
  3

 72
    65
 73
     0
 40
0.0
  0
LTYPE
  5
24
330
5
100
AcDbSymbolTableRecord
100
AcDbLinetypeTableRecord
  2
CENTER
 70
     0
  3
____ _ ____ _ ____ _ ____ _ ____ _ ____ _ ____
 72
    65
 73
     4
 40
2.0
 49
1.25
 74
     0
 49
-0.25
 74
     0
 49
0.25
 74
     0
 49
-0.25
 74
     0
  0
LTYPE
  5
25
330
5
100
AcDbSymbolTableRecord
100
AcDbLinetypeTableRecord
  2
TENSEN1
 70
     0
  3

 72
    65
 73
     2
 40
0.4
 49
0.3
 74
     0
 49
-0.1
 74
     0
  0
LTYPE
  5
18E
330
5
100
AcDbSymbolTableRecord
100
AcDbLinetypeTableRecord
  2
HIDDEN
 70
     0
  3
Hidden __ __ __ __ __ __ __ __ __ __ __ __ __ _
 72
    65
 73
     2
 40
0.375
 49
0.25
 74
     0
 49
-0.125
 74
     0
  0
LTYPE
  5
18F
330
5
100
AcDbSymbolTableRecord
100
AcDbLinetypeTableRecord
  2
PHANTOM2
 70
     0
  3
Phantom (.5x) ___ _ _ ___ _ _ ___ _ _ ___ _ _
 72
    65
 73
     6
 40
1.25
 49
0.625
 74
     0
 49
-0.125
 74
     0
 49
0.125
 74
     0
 49
-0.125
 74
     0
 49
0.125
 74
     0
 49
-0.125
 74
     0
  0
LTYPE
  5
1F1
330
5
100
AcDbSymbolTableRecord
100
AcDbLinetypeTableRecord
  2
ASULTYPE
 70
     0
  3
実線
 72
    65
 73
     2
 40
3.0
 49
2.5
 74
     0
 49
0.5
 74
     0
  0
LTYPE
  5
1F2
330
5
100
AcDbSymbolTableRecord
100
AcDbLinetypeTableRecord
  2
ASVLTYPE
 70
     0
  3
__ __ __ __ __ __ __ __ __ __ __ __ __ __ __ __ __ __ __ __ __
 72
    65
 73
     2
 40
0.75
 49
0.5
 74
     0
 49
-0.25
 74
     0
  0
LTYPE
  5
236
330
5
100
AcDbSymbolTableRecord
100
AcDbLinetypeTableRecord
  2
AM_ISO02W050
 70
     0
  3
__ __ __ __ __ __ __ __ __ __ __ __ __ __ __
 72
    65
 73
     2
 40
7.5
 49
6.0
 74
     0
 49
-1.5
 74
     0
  0
LTYPE
  5
237
330
5
100
AcDbSymbolTableRecord
100
AcDbLinetypeTableRecord
  2
AM_ISO08W050
 70
     0
  3
____ . ____ . ____ . ____ . ____ . ____ . ____
 72
    65
 73
     4
 40
18.0
 49
12.0
 74
     0
 49
-1.5
 74
     0
 49
3.0
 74
     0
 49
-1.5
 74
     0
  0
LTYPE
  5
238
330
5
100
AcDbSymbolTableRecord
100
AcDbLinetypeTableRecord
  2
AM_ISO09W050
 70
     0
  3
_____ . . _____ . . _____ . . ____ .. ____
 72
    65
 73
     6
 40
22.5
 49
12.0
 74
     0
 49
-1.5
 74
     0
 49
3.0
 74
     0
 49
-1.5
 74
     0
 49
3.0
 74
     0
 49
-1.5
 74
     0
  0
LTYPE
  5
239
330
5
100
AcDbSymbolTableRecord
100
AcDbLinetypeTableRecord
  2
Amconstr
 70
     0
  3
_______________________
 72
    65
 73
     2
 40
9999.0
 49
9999.0
 74
     0
 49
0.0
 74
     0
  0
LTYPE
  5
23A
330
5
100
AcDbSymbolTableRecord
100
AcDbLinetypeTableRecord
  2
AM_ISO08W050x2
 70
     0
  3
__ . __ . __ . __ . __ . __
 72
    65
 73
     4
 40
9.0
 49
6.0
 74
     0
 49
-0.75
 74
     0
 49
1.5
 74
     0
 49
-0.75
 74
     0
  0
LTYPE
  5
23B
330
5
100
AcDbSymbolTableRecord
100
AcDbLinetypeTableRecord
  2
AM_ISO02W050x2
 70
     0
  3
 _ _ _ _ _ _ _ _ _ _ _ _
 72
    65
 73
     2
 40
3.75
 49
3.0
 74
     0
 49
-0.75
 74
     0
  0
LTYPE
  5
23E
330
5
100
AcDbSymbolTableRecord
100
AcDbLinetypeTableRecord
  2
Amzigzag
 70
     0
  3
/\/-/\/-/\/-/\/-/\/-/\/
 72
    65
 73
     2
 40
11.00009999999999
 49
0.0001
 74
     4
 75
   135
340
23D
 46
0.04
 50
0.0
 44
0.0
 45
0.0
 49
-11.0
 74
     0
  0
LTYPE
  5
23F
330
5
100
AcDbSymbolTableRecord
100
AcDbLinetypeTableRecord
  2
CENTER2
 70
     0
  3
Center (.5x) ___ _ ___ _ ___ _ ___ _ ___ _ ___
 72
    65
 73
     4
 40
1.125
 49
0.75
 74
     0
 49
-0.125
 74
     0
 49
0.125
 74
     0
 49
-0.125
 74
     0
  0
LTYPE
  5
240
330
5
100
AcDbSymbolTableRecord
100
AcDbLinetypeTableRecord
  2
HIDDEN2
 70
     0
  3
Hidden (.5x) _ _ _ _ _ _ _ _ _ _ _ _ _ _ _ _ _
 72
    65
 73
     2
 40
0.1875
 49
0.125
 74
     0
 49
-0.0625
 74
     0
  0
LTYPE
  5
241
330
5
100
AcDbSymbolTableRecord
100
AcDbLinetypeTableRecord
  2
Amzigzag2
 70
     0
  3
/\/-/\/-/\/-/\/-/\/-/\/
 72
    65
 73
     2
 40
0.4401
 49
0.0001
 74
     4
 75
   135
340
23D
 46
0.0016
 50
0.0
 44
0.0
 45
0.0
 49
-0.4400000000000001
 74
     0
  0
LTYPE
  5
24F
330
5
100
AcDbSymbolTableRecord
100
AcDbLinetypeTableRecord
  2
ACANSTGB
 70
     0
  3
__ . . __ . .
 72
    65
 73
     6
 40
0.35433070866
 49
0.15748031496
 74
     0
 49
-0.03937007874
 74
     0
 49
0.03937007874
 74
     0
 49
-0.03937007874
 74
     0
 49
0.03937007874
 74
     0
 49
-0.03937007874
 74
     0
  0
LTYPE
  5
250
330
5
100
AcDbSymbolTableRecord
100
AcDbLinetypeTableRecord
  2
ACANSTGL
 70
     0
  3
_ _ _ _ _
 72
    65
 73
     2
 40
0.11811023622
 49
0.07874015748
 74
     0
 49
-0.03937007874
 74
     0
  0
ENDTAB
  0
TABLE
  2
LAYER
  5
2
330
0
100
AcDbSymbolTable
 70
     5
  0
LAYER
  5
10
330
2
100
AcDbSymbolTableRecord
100
AcDbLayerTableRecord
  2
0
 70
     0
 62
     7
  6
CONTINUOUS
370
    -3
390
F
  0
LAYER
  5
26
330
2
100
AcDbSymbolTableRecord
100
AcDbLayerTableRecord
  2
1
 70
     0
 62
     1
  6
CENTER
370
    -3
390
F
  0
LAYER
  5
27
330
2
100
AcDbSymbolTableRecord
100
AcDbLayerTableRecord
  2
10
 70
     0
 62
     7
  6
CONTINUOUS
370
    -3
390
F
  0
LAYER
  5
28
330
2
100
AcDbSymbolTableRecord
100
AcDbLayerTableRecord
  2
11
 70
     0
 62
     3
  6
CONTINUOUS
370
    -3
390
F
  0
LAYER
  5
29
330
2
100
AcDbSymbolTableRecord
100
AcDbLayerTableRecord
  2
2
 70
     0
 62
     2
  6
TENSEN1
370
    -3
390
F
  0
ENDTAB
  0
TABLE
  2
STYLE
  5
3
330
0
100
AcDbSymbolTable
 70
     5
  0
STYLE
  5
11
330
3
100
AcDbSymbolTableRecord
100
AcDbTextStyleTableRecord
  2
STANDARD
 70
     0
 40
0.0
 41
1.0
 50
0.0
 71
     0
 42
0.2
  3
TXT
  4
BIGFONT
  0
STYLE
  5
22
330
3
100
AcDbSymbolTableRecord
100
AcDbTextStyleTableRecord
  2
BIGFONT
 70
     0
 40
10.0
 41
0.8
 50
0.0
 71
     0
 42
10.0
  3

  4
bigfont
  0
STYLE
  5
23D
330
3
100
AcDbSymbolTableRecord
100
AcDbTextStyleTableRecord
  2

 70
     1
 40
0.0
 41
1.0
 50
0.0
 71
     0
 42
10.0
  3
ltypeshp.shx
  4

  0
STYLE
  5
242
330
3
100
AcDbSymbolTableRecord
100
AcDbTextStyleTableRecord
  2
ACANSTS
 70
     0
 40
1.0
 41
1.0
 50
0.0
 71
     0
 42
10.0
  3
romans.shx
  4
extfont.shx
  0
STYLE
  5
24E
330
3
100
AcDbSymbolTableRecord
100
AcDbTextStyleTableRecord
  2
ACANSGDT
 70
     0
 40
0.0
 41
1.0
 50
0.0
 71
     0
 42
10.0
  3
amgdtans.shx
  4

  0
ENDTAB
  0
TABLE
  2
VIEW
  5
6
330
0
100
AcDbSymbolTable
 70
     1
  0
VIEW
  5
2B
330
6
100
AcDbSymbolTableRecord
100
AcDbViewTableRecord
  2
ALL
 70
     0
 40
540.0
 10
441.9831932773108
 20
270.0
 41
0.0
 11
0.0
 21
0.0
 31
1.0
 12
0.0
 22
0.0
 32
0.0
 42
0.0
 43
0.0
 44
0.0
 50
0.0
 71
     0
281
     0
 72
     0
  0
ENDTAB
  0
TABLE
  2
UCS
  5
7
330
0
100
AcDbSymbolTable
 70
     0
  0
ENDTAB
  0
TABLE
  2
APPID
  5
9
330
0
100
AcDbSymbolTable
 70
    13
  0
APPID
  5
12
330
9
100
AcDbSymbolTableRecord
100
AcDbRegAppTableRecord
  2
ACAD
 70
     0
  0
APPID
  5
16C
330
9
100
AcDbSymbolTableRecord
100
AcDbRegAppTableRecord
  2
GENIUS_GENDIM_13
 70
     0
  0
APPID
  5
16D
330
9
100
AcDbSymbolTableRecord
100
AcDbRegAppTableRecord
  2
GENIUS_GENDTOL_13
 70
     0
  0
APPID
  5
16E
330
9
100
AcDbSymbolTableRecord
100
AcDbRegAppTableRecord
  2
GENIUS_GE3DTOL_13
 70
     0
  0
APPID
  5
171
330
9
100
AcDbSymbolTableRecord
100
AcDbRegAppTableRecord
  2
MCAD_NO_VIS
 70
     0
  0
APPID
  5
172
330
9
100
AcDbSymbolTableRecord
100
AcDbRegAppTableRecord
  2
ACAD_TEMP_GRAPHIC
 70
     0
  0
APPID
  5
1A4
330
9
100
AcDbSymbolTableRecord
100
AcDbRegAppTableRecord
  2
AD_DRAW
 70
     0
  0
APPID
  5
1A7
330
9
100
AcDbSymbolTableRecord
100
AcDbRegAppTableRecord
  2
ACATTRIBSERVICES
 70
     0
  0
APPID
  5
1F3
330
9
100
AcDbSymbolTableRecord
100
AcDbRegAppTableRecord
  2
ASURF_PCURVE_APPNAME
 70
     0
  0
APPID
  5
1F8
330
9
100
AcDbSymbolTableRecord
100
AcDbRegAppTableRecord
  2
AMG_3D2D_5.0
 70
     0
  0
APPID
  5
223
330
9
100
AcDbSymbolTableRecord
100
AcDbRegAppTableRecord
  2
DESIGNERASSEMBLIES
 70
     0
  0
APPID
  5
22B
330
9
100
AcDbSymbolTableRecord
100
AcDbRegAppTableRecord
  2
ACADM_DIM_EDIT
 70
     0
  0
APPID
  5
22C
330
9
100
AcDbSymbolTableRecord
100
AcDbRegAppTableRecord
  2
AMDT_DM_ADJ
 70
     0
  0
ENDTAB
  0
TABLE
  2
DIMSTYLE
  5
A
330
0
100
AcDbSymbolTable
 70
     7
100
AcDbDimStyleTable
 71
     0
  0
DIMSTYLE
105
2A
330
A
100
AcDbSymbolTableRecord
100
AcDbDimStyleTableRecord
  2
STANDARD
 70
     0
279
     2
340
22
  0
DIMSTYLE
105
255
330
A
100
AcDbSymbolTableRecord
100
AcDbDimStyleTableRecord
  2
AM_ANSI
 70
     0
  4
mm
 41
0.1
 42
0.05
 43
0.5
 44
0.1
 47
0.1
 48
0.1
 78
     7
 79
     2
140
0.12
141
0.0
146
0.71
147
0.06
176
   256
177
   256
178
     2
274
     4
284
     7
340
11
371
    -1
372
    -1
  0
DIMSTYLE
105
256
330
A
100
AcDbSymbolTableRecord
100
AcDbDimStyleTableRecord
  2
AM_ANSI$3
 70
     0
  4
mm
 41
0.1
 42
0.05
 43
0.5
 44
0.1
 47
0.1
 48
0.1
 78
     7
 79
     2
140
0.12
141
0.0
146
0.71
147
0.06
176
   256
177
   256
178
     2
274
     4
284
     7
288
     1
289
     0
340
11
371
    -1
372
    -1
  0
DIMSTYLE
105
257
330
A
100
AcDbSymbolTableRecord
100
AcDbDimStyleTableRecord
  2
AM_ANSI$4
 70
     0
  4
mm
 41
0.1
 42
0.05
 43
0.5
 44
0.1
 47
0.1
 48
0.1
 78
     7
 79
     2
140
0.12
141
0.0
146
0.71
147
0.06
176
   256
177
   256
178
     2
274
     4
284
     7
288
     1
289
     0
340
11
371
    -1
372
    -1
  0
DIMSTYLE
105
258
330
A
100
AcDbSymbolTableRecord
100
AcDbDimStyleTableRecord
  2
AM_ANSI$7
 70
     0
  4
mm
 41
0.1
 42
0.05
 43
0.5
 44
0.1
 47
0.1
 48
0.1
 78
     7
 79
     2
140
0.24
141
0.0
146
0.71
147
0.06
176
   256
177
   256
178
     2
274
     4
284
     7
340
11
371
    -1
372
    -1
  0
DIMSTYLE
105
259
330
A
100
AcDbSymbolTableRecord
100
AcDbDimStyleTableRecord
  2
AM_ANSI$SF
 70
     0
  4
mm
 41
0.1
 42
0.05
 43
0.5
 44
0.1
 47
0.1
 48
0.1
 75
     1
 76
     1
 78
     7
 79
     2
140
0.12
141
0.0
146
0.71
147
0.06
176
   256
177
   256
178
     2
274
     4
284
     7
340
11
371
    -1
372
    -1
  0
DIMSTYLE
105
25E
330
A
100
AcDbSymbolTableRecord
100
AcDbDimStyleTableRecord
  2
AM_ANSI$SH
 70
     0
  4
mm
 41
0.1
 42
0.05
 43
0.5
 44
0.1
 47
0.1
 48
0.1
 75
     1
 76
     1
 78
     7
 79
     2
140
0.12
141
0.0
146
0.71
147
0.06
173
     1
176
   256
177
   256
178
     2
274
     4
284
     7
340
11
343
25A
371
    -1
372
    -1
  0
ENDTAB
  0
TABLE
  2
BLOCK_RECORD
  5
1
330
0
100
AcDbSymbolTable
 70
     3
  0
BLOCK_RECORD
  5
1E
102
{ACAD_XDICTIONARY
360
269
102
}
330
1
100
AcDbSymbolTableRecord
100
AcDbBlockTableRecord
  2
*Model_Space
340
21
  0
BLOCK_RECORD
  5
1A
330
1
100
AcDbSymbolTableRecord
100
AcDbBlockTableRecord
  2
*Paper_Space
340
1D
  0
BLOCK_RECORD
  5
2F
330
1
100
AcDbSymbolTableRecord
100
AcDbBlockTableRecord
  2
QQ
340
0
102
{BLKREFS
331
3B
102
}
  0
BLOCK_RECORD
  5
21A
330
1
100
AcDbSymbolTableRecord
100
AcDbBlockTableRecord
  2
*U1
340
0
  0
BLOCK_RECORD
  5
25A
330
1
100
AcDbSymbolTableRecord
100
AcDbBlockTableRecord
  2
GENAXEH
340
0
  0
ENDTAB
  0
ENDSEC
  0
SECTION
  2
BLOCKS
  0
BLOCK
  5
1F
330
1E
100
AcDbEntity
  8
0
100
AcDbBlockBegin
  2
*Model_Space
 70
     0
 10
0.0
 20
0.0
 30
0.0
  3
*Model_Space
  1

  0
ENDBLK
  5
20
330
1E
100
AcDbEntity
  8
0
100
AcDbBlockEnd
  0
BLOCK
  5
1B
330
1A
100
AcDbEntity
 67
     1
  8
0
100
AcDbBlockBegin
  2
*Paper_Space
 70
     0
 10
0.0
 20
0.0
 30
0.0
  3
*Paper_Space
  1

  0
ENDBLK
  5
1C
330
1A
100
AcDbEntity
 67
     1
  8
0
100
AcDbBlockEnd
  0
BLOCK
  5
30
330
2F
100
AcDbEntity
  8
0
100
AcDbBlockBegin
  2
QQ
 70
     0
 10
270.0
 20
0.0
 30
0.0
  3
QQ
  1

  0
LINE
  5
31
330
2F
100
AcDbEntity
  8
11
100
AcDbLine
 10
172.9999999999998
 20
36.0
 30
0.0
 11
270.0
 21
36.0
 31
0.0
  0
TEXT
  5
32
330
2F
100
AcDbEntity
  8
11
100
AcDbText
 10
175.0
 20
32.5
 30
0.0
 40
2.5
  1
部品名称
100
AcDbText
  0
LINE
  5
33
330
2F
100
AcDbEntity
  8
11
100
AcDbLine
 10
172.9999999999998
 20
36.0
 30
0.0
 11
172.9999999999998
 21
0.0
 31
0.0
  0
LINE
  5
34
330
2F
100
AcDbEntity
  8
11
100
AcDbLine
 10
172.9999999999998
 20
24.0
 30
0.0
 11
270.0
 21
24.0
 31
0.0
  0
TEXT
  5
35
330
2F
100
AcDbEntity
  8
11
100
AcDbText
 10
175.0
 20
20.5
 30
0.0
 40
2.5
  1
品番
100
AcDbText
  0
LINE
  5
36
330
2F
100
AcDbEntity
  8
11
100
AcDbLine
 10
172.9999999999998
 20
12.0
 30
0.0
 11
270.0
 21
12.0
 31
0.0
  0
TEXT
  5
37
330
2F
100
AcDbEntity
  8
11
100
AcDbText
 10
175.0
 20
8.5
 30
0.0
 40
2.5
  1
尺度
100
AcDbText
  0
TEXT
  5
38
330
2F
100
AcDbEntity
  8
11
100
AcDbText
 10
200.0
 20
8.5
 30
0.0
 40
2.5
  1
図番
100
AcDbText
  0
LINE
  5
39
330
2F
100
AcDbEntity
  8
11
100
AcDbLine
 10
198.0
 20
0.0
 30
0.0
 11
198.0
 21
12.0
 31
0.0
  0
ENDBLK
  5
3A
330
2F
100
AcDbEntity
  8
0
100
AcDbBlockEnd
  0
BLOCK
  5
21B
330
21A
100
AcDbEntity
  8
0
100
AcDbBlockBegin
  2
*U1
 70
     1
 10
0.0
 20
0.0
 30
0.0
  3
*U1
  1

  0
ENDBLK
  5
21C
330
21A
100
AcDbEntity
  8
0
100
AcDbBlockEnd
  0
BLOCK
  5
25C
330
25A
100
AcDbEntity
  8
0
100
AcDbBlockBegin
  2
GENAXEH
 70
     0
 10
0.0
 20
0.0
 30
0.0
  3
GENAXEH
  1

  0
LINE
  5
25B
330
25A
100
AcDbEntity
  8
0
100
AcDbLine
 10
-1.0
 20
0.0
 30
0.0
 11
1.0
 21
0.0
 31
0.0
  0
ENDBLK
  5
25D
330
25A
100
AcDbEntity
  8
0
100
AcDbBlockEnd
  0
ENDSEC
  0
SECTION
  2
ENTITIES
  0
LINE
  5
42
330
1E
100
AcDbEntity
  8
0
100
AcDbLine
 10
320.9999999999999
 20
262.0
 30
0.0
 11
331.4999999999999
 21
262.0
 31
0.0
  0
LINE
  5
43
330
1E
100
AcDbEntity
  8
0
100
AcDbLine
 10
331.4999999999999
 20
262.0
 30
0.0
 11
331.4999999999999
 21
268.9999999999999
 31
0.0
  0
LINE
  5
44
330
1E
100
AcDbEntity
  8
0
100
AcDbLine
 10
320.9999999999999
 20
262.0
 30
0.0
 11
310.4999999999999
 21
262.0
 31
0.0
  0
LINE
  5
45
330
1E
100
AcDbEntity
  8
0
100
AcDbLine
 10
310.4999999999999
 20
262.0
 30
0.0
 11
310.4999999999999
 21
268.9999999999999
 31
0.0
  0
LINE
  5
46
330
1E
100
AcDbEntity
  8
0
100
AcDbLine
 10
320.9999999999999
 20
268.9999999999999
 30
0.0
 11
332.0
 21
268.9999999999999
 31
0.0
  0
LINE
  5
47
330
1E
100
AcDbEntity
  8
0
100
AcDbLine
 10
320.9999999999999
 20
268.9999999999999
 30
0.0
 11
310.0
 21
268.9999999999999
 31
0.0
  0
LINE
  5
48
330
1E
100
AcDbEntity
  8
0
100
AcDbLine
 10
320.9999999999999
 20
285.0
 30
0.0
 11
312.5
 21
285.0
 31
0.0
  0
LINE
  5
49
330
1E
100
AcDbEntity
  8
0
100
AcDbLine
 10
310.0
 20
268.9999999999999
 30
0.0
 11
310.9999999999998
 21
283.4999999999999
 31
0.0
  0
LINE
  5
4A
330
1E
100
AcDbEntity
  8
0
100
AcDbLine
 10
312.0
 20
268.9999999999999
 30
0.0
 11
312.5
 21
283.4999999999999
 31
0.0
  0
LINE
  5
4B
330
1E
100
AcDbEntity
  8
0
100
AcDbLine
 10
330.0
 20
268.9999999999999
 30
0.0
 11
329.4999999999999
 21
283.4999999999999
 31
0.0
  0
LINE
  5
4C
330
1E
100
AcDbEntity
  8
0
100
AcDbLine
 10
320.9999999999999
 20
285.0
 30
0.0
 11
328.5
 21
285.0
 31
0.0
  0
LINE
  5
4D
330
1E
100
AcDbEntity
  8
0
100
AcDbLine
 10
325.0
 20
285.0
 30
0.0
 11
331.0
 21
288.5
 31
0.0
  0
LINE
  5
4E
330
1E
100
AcDbEntity
  8
0
100
AcDbLine
 10
331.4999999999999
 20
280.0
 30
0.0
 11
330.0
 21
268.9999999999999
 31
0.0
  0
LINE
  5
4F
330
1E
100
AcDbEntity
  8
0
100
AcDbLine
 10
331.0
 20
288.5
 30
0.0
 11
398.4999999999999
 21
300.0
 31
0.0
  0
LINE
  5
50
330
1E
100
AcDbEntity
  8
0
100
AcDbLine
 10
398.4999999999999
 20
300.0
 30
0.0
 11
400.9999999999999
 21
296.4999999999998
 31
0.0
  0
LINE
  5
51
330
1E
100
AcDbEntity
  8
0
100
AcDbLine
 10
400.9999999999999
 20
296.4999999999998
 30
0.0
 11
331.4999999999999
 21
280.0
 31
0.0
  0
LINE
  5
52
330
1E
100
AcDbEntity
  8
0
100
AcDbLine
 10
400.9999999999999
 20
296.4999999999998
 30
0.0
 11
398.0
 21
285.0
 31
0.0
  0
ARC
  5
53
330
1E
100
AcDbEntity
  8
0
100
AcDbCircle
 10
395.5
 20
285.5624999999998
 30
0.0
 40
2.5625
100
AcDbArc
 50
192.6803834918198
 51
347.3196165081801
  0
LINE
  5
54
330
1E
100
AcDbEntity
  8
0
100
AcDbLine
 10
345.0
 20
278.0
 30
0.0
 11
387.5
 21
289.0
 31
0.0
  0
LINE
  5
55
330
1E
100
AcDbEntity
  8
0
100
AcDbLine
 10
393.0
 20
285.0
 30
0.0
 11
392.5
 21
286.5
 31
0.0
  0
ARC
  5
56
330
1E
100
AcDbEntity
  8
0
100
AcDbCircle
 10
388.75
 20
285.25
 30
0.0
 40
3.952847075210473
100
AcDbArc
 50
18.43494882292199
 51
108.4349488229219
  0
LINE
  5
57
330
1E
100
AcDbEntity
  8
2
100
AcDbLine
 10
398.4999999999999
 20
307.0
 30
0.0
 11
368.0
 21
302.4999999999999
 31
0.0
  0
LINE
  5
58
330
1E
100
AcDbEntity
  8
2
100
AcDbLine
 10
398.4999999999999
 20
307.0
 30
0.0
 11
400.9999999999999
 21
303.5
 31
0.0
  0
ARC
  5
59
330
1E
100
AcDbEntity
  8
0
100
AcDbCircle
 10
340.6492537313432
 20
270.3955223880597
 30
0.0
 40
8.761111393238374
100
AcDbArc
 50
60.22485152176691
 51
189.1654555407008
  0
ARC
  5
5A
330
1E
100
AcDbEntity
  8
0
100
AcDbCircle
 10
312.7894982923492
 20
283.2105017076506
 30
0.0
 40
1.812764022037638
100
AcDbArc
 50
99.18947967860029
 51
170.8105203213997
  0
LINE
  5
5B
330
1E
100
AcDbEntity
  8
0
100
AcDbLine
 10
329.4999999999999
 20
283.4999999999999
 30
0.0
 11
329.4999999999999
 21
283.9999999999998
 31
0.0
  0
ARC
  5
5C
330
1E
100
AcDbEntity
  8
0
100
AcDbCircle
 10
328.4257871832576
 20
283.9257871832576
 30
0.0
 40
1.076773289890877
100
AcDbArc
 50
3.952043381594472
 51
86.04795661840554
  0
LINE
  5
5D
330
1E
100
AcDbEntity
  8
0
100
AcDbLine
 10
320.5
 20
287.5
 30
0.0
 11
320.5
 21
285.9999999999999
 31
0.0
  0
LINE
  5
5E
330
1E
100
AcDbEntity
  8
0
100
AcDbLine
 10
320.5
 20
285.9999999999999
 30
0.0
 11
321.4999999999998
 21
285.9999999999999
 31
0.0
  0
LINE
  5
5F
330
1E
100
AcDbEntity
  8
0
100
AcDbLine
 10
321.4999999999998
 20
285.9999999999999
 30
0.0
 11
321.4999999999998
 21
287.5
 31
0.0
  0
LINE
  5
60
330
1E
100
AcDbEntity
  8
0
100
AcDbLine
 10
321.4999999999998
 20
287.5
 30
0.0
 11
326.0
 21
287.5
 31
0.0
  0
LINE
  5
61
330
1E
100
AcDbEntity
  8
0
100
AcDbLine
 10
326.0
 20
287.5
 30
0.0
 11
327.0
 21
286.5
 31
0.0
  0
LINE
  5
62
330
1E
100
AcDbEntity
  8
0
100
AcDbLine
 10
327.0
 20
286.5
 30
0.0
 11
327.0
 21
285.9999999999999
 31
0.0
  0
LINE
  5
63
330
1E
100
AcDbEntity
  8
0
100
AcDbLine
 10
320.5
 20
287.5
 30
0.0
 11
316.0
 21
287.5
 31
0.0
  0
LINE
  5
64
330
1E
100
AcDbEntity
  8
0
100
AcDbLine
 10
316.0
 20
287.5
 30
0.0
 11
314.9999999999999
 21
286.5
 31
0.0
  0
LINE
  5
65
330
1E
100
AcDbEntity
  8
0
100
AcDbLine
 10
314.9999999999999
 20
286.5
 30
0.0
 11
314.9999999999999
 21
285.0
 31
0.0
  0
LINE
  5
66
330
1E
100
AcDbEntity
  8
0
100
AcDbLine
 10
312.9999999999999
 20
262.0
 30
0.0
 11
312.9999999999999
 21
242.0
 31
0.0
  0
LINE
  5
67
330
1E
100
AcDbEntity
  8
0
100
AcDbLine
 10
312.9999999999999
 20
242.0
 30
0.0
 11
329.0
 21
242.0
 31
0.0
  0
LINE
  5
68
330
1E
100
AcDbEntity
  8
0
100
AcDbLine
 10
329.0
 20
242.0
 30
0.0
 11
329.0
 21
262.0
 31
0.0
  0
LINE
  5
69
330
1E
100
AcDbEntity
  8
2
100
AcDbLine
 10
329.0
 20
262.0
 30
0.0
 11
329.0
 21
270.9999999999999
 31
0.0
  0
LINE
  5
6A
330
1E
100
AcDbEntity
  8
2
100
AcDbLine
 10
329.0
 20
270.9999999999999
 30
0.0
 11
312.9999999999999
 21
270.9999999999999
 31
0.0
  0
LINE
  5
6B
330
1E
100
AcDbEntity
  8
2
100
AcDbLine
 10
312.9999999999999
 20
270.9999999999999
 30
0.0
 11
312.9999999999999
 21
262.0
 31
0.0
  0
LINE
  5
6C
330
1E
100
AcDbEntity
  8
2
100
AcDbLine
 10
175.9999999999998
 20
270.9999999999999
 30
0.0
 11
175.9999999999998
 21
262.0
 31
0.0
  0
LINE
  5
6D
330
1E
100
AcDbEntity
  8
2
100
AcDbLine
 10
191.9999999999998
 20
262.0
 30
0.0
 11
191.9999999999998
 21
270.9999999999999
 31
0.0
  0
LINE
  5
6E
330
1E
100
AcDbEntity
  8
0
100
AcDbLine
 10
175.0
 20
268.9999999999999
 30
0.0
 11
175.5
 21
283.4999999999999
 31
0.0
  0
LINE
  5
6F
330
1E
100
AcDbEntity
  8
0
100
AcDbLine
 10
172.9999999999998
 20
268.9999999999999
 30
0.0
 11
174.0
 21
283.4999999999999
 31
0.0
  0
LINE
  5
70
330
1E
100
AcDbEntity
  8
0
100
AcDbLine
 10
175.9999999999998
 20
242.0
 30
0.0
 11
191.9999999999998
 21
242.0
 31
0.0
  0
LINE
  5
71
330
1E
100
AcDbEntity
  8
0
100
AcDbLine
 10
184.0
 20
268.9999999999999
 30
0.0
 11
172.9999999999998
 21
268.9999999999999
 31
0.0
  0
LINE
  5
72
330
1E
100
AcDbEntity
  8
0
100
AcDbLine
 10
184.0
 20
262.0
 30
0.0
 11
173.5
 21
262.0
 31
0.0
  0
LINE
  5
73
330
1E
100
AcDbEntity
  8
0
100
AcDbLine
 10
175.9999999999998
 20
262.0
 30
0.0
 11
175.9999999999998
 21
242.0
 31
0.0
  0
LINE
  5
74
330
1E
100
AcDbEntity
  8
0
100
AcDbLine
 10
173.5
 20
262.0
 30
0.0
 11
173.5
 21
268.9999999999999
 31
0.0
  0
LINE
  5
75
330
1E
100
AcDbEntity
  8
0
100
AcDbLine
 10
184.0
 20
268.9999999999999
 30
0.0
 11
195.0
 21
268.9999999999999
 31
0.0
  0
LINE
  5
76
330
1E
100
AcDbEntity
  8
0
100
AcDbLine
 10
184.0
 20
262.0
 30
0.0
 11
194.5
 21
262.0
 31
0.0
  0
LINE
  5
77
330
1E
100
AcDbEntity
  8
0
100
AcDbLine
 10
191.9999999999998
 20
242.0
 30
0.0
 11
191.9999999999998
 21
262.0
 31
0.0
  0
LINE
  5
78
330
1E
100
AcDbEntity
  8
0
100
AcDbLine
 10
194.5
 20
262.0
 30
0.0
 11
194.5
 21
268.9999999999999
 31
0.0
  0
LINE
  5
79
330
1E
100
AcDbEntity
  8
2
100
AcDbLine
 10
191.9999999999998
 20
270.9999999999999
 30
0.0
 11
175.9999999999998
 21
270.9999999999999
 31
0.0
  0
LINE
  5
7A
330
1E
100
AcDbEntity
  8
0
100
AcDbLine
 10
183.4999999999998
 20
287.5
 30
0.0
 11
179.0
 21
287.5
 31
0.0
  0
LINE
  5
7B
330
1E
100
AcDbEntity
  8
0
100
AcDbLine
 10
184.0
 20
285.0
 30
0.0
 11
175.5
 21
285.0
 31
0.0
  0
LINE
  5
7C
330
1E
100
AcDbEntity
  8
0
100
AcDbLine
 10
178.0
 20
286.5
 30
0.0
 11
178.0
 21
285.0
 31
0.0
  0
LINE
  5
7D
330
1E
100
AcDbEntity
  8
0
100
AcDbLine
 10
179.0
 20
287.5
 30
0.0
 11
178.0
 21
286.5
 31
0.0
  0
ARC
  5
7E
330
1E
100
AcDbEntity
  8
0
100
AcDbCircle
 10
175.7894982923492
 20
283.2105017076506
 30
0.0
 40
1.812764022037638
100
AcDbArc
 50
99.18947967860029
 51
170.8105203213997
  0
LINE
  5
7F
330
1E
100
AcDbEntity
  8
0
100
AcDbLine
 10
184.4999999999998
 20
287.5
 30
0.0
 11
189.0
 21
287.5
 31
0.0
  0
LINE
  5
80
330
1E
100
AcDbEntity
  8
0
100
AcDbLine
 10
190.0
 20
286.5
 30
0.0
 11
190.0
 21
285.9999999999999
 31
0.0
  0
LINE
  5
81
330
1E
100
AcDbEntity
  8
0
100
AcDbLine
 10
189.0
 20
287.5
 30
0.0
 11
190.0
 21
286.5
 31
0.0
  0
LINE
  5
82
330
1E
100
AcDbEntity
  8
0
100
AcDbLine
 10
184.0
 20
300.0
 30
0.0
 11
181.0
 21
300.0
 31
0.0
  0
LINE
  5
83
330
1E
100
AcDbEntity
  8
0
100
AcDbLine
 10
181.0
 20
300.0
 30
0.0
 11
187.0
 21
300.0
 31
0.0
  0
LINE
  5
84
330
1E
100
AcDbEntity
  8
0
100
AcDbLine
 10
179.0
 20
288.5
 30
0.0
 11
189.0
 21
288.5
 31
0.0
  0
LINE
  5
85
330
1E
100
AcDbEntity
  8
0
100
AcDbLine
 10
184.0
 20
285.0
 30
0.0
 11
192.5
 21
285.0
 31
0.0
  0
LINE
  5
86
330
1E
100
AcDbEntity
  8
0
100
AcDbLine
 10
195.0
 20
268.9999999999999
 30
0.0
 11
193.9999999999998
 21
283.4999999999999
 31
0.0
  0
LINE
  5
87
330
1E
100
AcDbEntity
  8
0
100
AcDbLine
 10
192.9999999999998
 20
268.9999999999999
 30
0.0
 11
192.5
 21
283.4999999999999
 31
0.0
  0
LINE
  5
88
330
1E
100
AcDbEntity
  8
0
100
AcDbLine
 10
189.0
 20
288.5
 30
0.0
 11
188.0
 21
299.0
 31
0.0
  0
LINE
  5
89
330
1E
100
AcDbEntity
  8
0
100
AcDbLine
 10
179.0
 20
288.5
 30
0.0
 11
180.0
 21
299.0
 31
0.0
  0
LINE
  5
8A
330
1E
100
AcDbEntity
  8
2
100
AcDbLine
 10
181.0
 20
307.0
 30
0.0
 11
187.0
 21
307.0
 31
0.0
  0
ARC
  5
8B
330
1E
100
AcDbEntity
  8
0
100
AcDbCircle
 10
192.4991465715858
 20
283.4991465715858
 30
0.0
 40
1.500853671056136
100
AcDbArc
 50
0.0325800241739929
 51
89.96741997582597
  0
ARC
  5
8C
330
1E
100
AcDbEntity
  8
0
100
AcDbCircle
 10
186.81220845112
 20
298.81220845112
 30
0.0
 40
1.202544980207183
100
AcDbArc
 50
8.984181132101355
 51
81.01581886789864
  0
ARC
  5
8D
330
1E
100
AcDbEntity
  8
0
100
AcDbCircle
 10
181.1360742205551
 20
298.8639257794446
 30
0.0
 40
1.144194401362792
100
AcDbArc
 50
96.83011080590649
 51
173.1698891940935
  0
LINE
  5
8E
330
1E
100
AcDbEntity
  8
0
100
AcDbLine
 10
189.0
 20
296.4999999999998
 30
0.0
 11
188.1563928906643
 21
298.6710133335108
 31
0.0
  0
LINE
  5
8F
330
1E
100
AcDbEntity
  8
0
100
AcDbLine
 10
179.0
 20
296.4999999999998
 30
0.0
 11
179.6966230275631
 21
298.3254472842265
 31
0.0
  0
LINE
  5
90
330
1E
100
AcDbEntity
  8
0
100
AcDbLine
 10
550.0
 20
268.9999999999999
 30
0.0
 11
549.0
 21
283.4999999999999
 31
0.0
  0
LINE
  5
91
330
1E
100
AcDbEntity
  8
0
100
AcDbLine
 10
528.0
 20
268.9999999999999
 30
0.0
 11
529.0
 21
283.4999999999999
 31
0.0
  0
LINE
  5
92
330
1E
100
AcDbEntity
  8
2
100
AcDbLine
 10
546.9999999999998
 20
262.0
 30
0.0
 11
546.9999999999998
 21
270.9999999999999
 31
0.0
  0
LINE
  5
93
330
1E
100
AcDbEntity
  8
2
100
AcDbLine
 10
531.0
 20
270.9999999999999
 30
0.0
 11
531.0
 21
262.0
 31
0.0
  0
LINE
  5
94
330
1E
100
AcDbEntity
  8
0
100
AcDbLine
 10
538.9999999999998
 20
262.0
 30
0.0
 11
549.5
 21
262.0
 31
0.0
  0
LINE
  5
95
330
1E
100
AcDbEntity
  8
0
100
AcDbLine
 10
538.9999999999998
 20
268.9999999999999
 30
0.0
 11
550.0
 21
268.9999999999999
 31
0.0
  0
LINE
  5
96
330
1E
100
AcDbEntity
  8
0
100
AcDbLine
 10
531.0
 20
242.0
 30
0.0
 11
546.9999999999998
 21
242.0
 31
0.0
  0
LINE
  5
97
330
1E
100
AcDbEntity
  8
0
100
AcDbLine
 10
538.9999999999998
 20
262.0
 30
0.0
 11
528.5
 21
262.0
 31
0.0
  0
LINE
  5
98
330
1E
100
AcDbEntity
  8
0
100
AcDbLine
 10
538.9999999999998
 20
268.9999999999999
 30
0.0
 11
528.0
 21
268.9999999999999
 31
0.0
  0
LINE
  5
99
330
1E
100
AcDbEntity
  8
0
100
AcDbLine
 10
528.5
 20
262.0
 30
0.0
 11
528.5
 21
268.9999999999999
 31
0.0
  0
LINE
  5
9A
330
1E
100
AcDbEntity
  8
0
100
AcDbLine
 10
531.0
 20
262.0
 30
0.0
 11
531.0
 21
242.0
 31
0.0
  0
LINE
  5
9B
330
1E
100
AcDbEntity
  8
0
100
AcDbLine
 10
546.9999999999998
 20
242.0
 30
0.0
 11
546.9999999999998
 21
262.0
 31
0.0
  0
LINE
  5
9C
330
1E
100
AcDbEntity
  8
0
100
AcDbLine
 10
549.5
 20
262.0
 30
0.0
 11
549.5
 21
268.9999999999999
 31
0.0
  0
LINE
  5
9D
330
1E
100
AcDbEntity
  8
2
100
AcDbLine
 10
546.9999999999998
 20
270.9999999999999
 30
0.0
 11
531.0
 21
270.9999999999999
 31
0.0
  0
ARC
  5
9E
330
1E
100
AcDbEntity
  8
0
100
AcDbCircle
 10
530.7894982923492
 20
283.2105017076506
 30
0.0
 40
1.812764022037638
100
AcDbArc
 50
99.18947967860029
 51
170.8105203213997
  0
LINE
  5
9F
330
1E
100
AcDbEntity
  8
0
100
AcDbLine
 10
536.0
 20
300.0
 30
0.0
 11
541.9999999999999
 21
300.0
 31
0.0
  0
LINE
  5
A0
330
1E
100
AcDbEntity
  8
0
100
AcDbLine
 10
538.9999999999998
 20
300.0
 30
0.0
 11
536.0
 21
300.0
 31
0.0
  0
LINE
  5
A1
330
1E
100
AcDbEntity
  8
0
100
AcDbLine
 10
535.0373343979782
 20
299.2177068842386
 30
0.0
 11
535.0841828192049
 21
299.3137430128202
 31
0.0
  0
LINE
  5
A2
330
1E
100
AcDbEntity
  8
0
100
AcDbLine
 10
533.9999999999998
 20
296.4999999999998
 30
0.0
 11
535.0373488730042
 21
299.2182932634958
 31
0.0
  0
ARC
  5
A3
330
1E
100
AcDbEntity
  8
0
100
AcDbCircle
 10
536.1360742205552
 20
298.8639257794446
 30
0.0
 40
1.144194401362792
100
AcDbArc
 50
96.83011080590649
 51
173.1698891940935
  0
LINE
  5
A4
330
1E
100
AcDbEntity
  8
0
100
AcDbLine
 10
544.0
 20
296.4999999999998
 30
0.0
 11
542.9108582568711
 21
299.30289393042
 31
0.0
  0
ARC
  5
A5
330
1E
100
AcDbEntity
  8
0
100
AcDbCircle
 10
541.81220845112
 20
298.81220845112
 30
0.0
 40
1.202544980207183
100
AcDbArc
 50
8.984181132101355
 51
81.01581886789864
  0
LINE
  5
A6
330
1E
100
AcDbEntity
  8
2
100
AcDbLine
 10
536.0
 20
307.0
 30
0.0
 11
541.9999999999999
 21
307.0
 31
0.0
  0
ARC
  5
A7
330
1E
100
AcDbEntity
  8
0
100
AcDbCircle
 10
547.4991465715858
 20
283.4991465715858
 30
0.0
 40
1.500853671056136
100
AcDbArc
 50
0.0325800241739929
 51
89.96741997582597
  0
LINE
  5
A8
330
1E
100
AcDbEntity
  8
0
100
AcDbLine
 10
189.8579930634214
 20
286.6330797706526
 30
0.0
 11
189.0
 21
296.4999999999998
 31
0.0
  0
LINE
  5
A9
330
1E
100
AcDbEntity
  8
0
100
AcDbLine
 10
190.0
 20
285.9999999999999
 30
0.0
 11
190.0
 21
285.0
 31
0.0
  0
LINE
  5
AA
330
1E
100
AcDbEntity
  8
0
100
AcDbLine
 10
189.0
 20
288.5
 30
0.0
 11
189.1002747513207
 21
287.4011818690709
 31
0.0
  0
LINE
  5
AB
330
1E
100
AcDbEntity
  8
0
100
AcDbLine
 10
184.4999999999998
 20
287.5
 30
0.0
 11
183.4999999999998
 21
287.5
 31
0.0
  0
LINE
  5
AC
330
1E
100
AcDbEntity
  8
0
100
AcDbLine
 10
178.1442037432664
 20
286.658343047566
 30
0.0
 11
179.0
 21
296.4999999999998
 31
0.0
  0
LINE
  5
AD
330
1E
100
AcDbEntity
  8
0
100
AcDbLine
 10
179.0
 20
288.5
 30
0.0
 11
178.875709953198
 21
287.3758438883001
 31
0.0
  0
LINE
  5
AE
330
1E
100
AcDbEntity
  8
0
100
AcDbLine
 10
545.9999999999999
 20
270.0
 30
0.0
 11
544.0
 21
296.4999999999998
 31
0.0
  0
LINE
  5
AF
330
1E
100
AcDbEntity
  8
0
100
AcDbLine
 10
532.0
 20
270.0
 30
0.0
 11
533.9999999999998
 21
296.4999999999998
 31
0.0
  0
ARC
  5
B0
330
1E
100
AcDbEntity
  8
0
100
AcDbCircle
 10
538.9999999999998
 20
287.9999999999999
 30
0.0
 40
5.0
100
AcDbArc
 50
216.8698976458439
 51
323.130102354156
  0
ARC
  5
B1
330
1E
100
AcDbEntity
  8
0
100
AcDbCircle
 10
538.9999999999998
 20
291.0
 30
0.0
 40
13.0
100
AcDbArc
 50
247.3801350519595
 51
292.6198649480402
  0
LINE
  5
B2
330
1E
100
AcDbEntity
  8
0
100
AcDbLine
 10
542.9999999999998
 20
285.0
 30
0.0
 11
543.5
 21
293.0
 31
0.0
  0
LINE
  5
B3
330
1E
100
AcDbEntity
  8
0
100
AcDbLine
 10
535.0
 20
285.0
 30
0.0
 11
534.4999999999998
 21
293.0
 31
0.0
  0
LINE
  5
B4
330
1E
100
AcDbEntity
  8
0
100
AcDbLine
 10
548.0
 20
268.9999999999999
 30
0.0
 11
546.9999999999998
 21
283.0
 31
0.0
  0
LINE
  5
B5
330
1E
100
AcDbEntity
  8
0
100
AcDbLine
 10
529.9999999999998
 20
268.9999999999999
 30
0.0
 11
531.0
 21
283.0
 31
0.0
  0
LINE
  5
B6
330
1E
100
AcDbEntity
  8
0
100
AcDbLine
 10
186.0
 20
289.0
 30
0.0
 11
182.0
 21
289.0
 31
0.0
  0
LINE
  5
B7
330
1E
100
AcDbEntity
  8
0
100
AcDbLine
 10
181.4999999999998
 20
289.4999999999999
 30
0.0
 11
181.4999999999998
 21
290.5
 31
0.0
  0
ARC
  5
B8
330
1E
100
AcDbEntity
  8
0
100
AcDbCircle
 10
186.0479584300135
 20
289.4520415699862
 30
0.0
 40
0.454578477278746
100
AcDbArc
 50
263.9439747615027
 51
6.05602523849716
  0
ARC
  5
B9
330
1E
100
AcDbEntity
  8
0
100
AcDbCircle
 10
181.9534535890176
 20
289.4534535890177
 30
0.0
 40
0.4558362927284181
100
AcDbArc
 50
174.139191142733
 51
275.8608088572668
  0
ARC
  5
BA
330
1E
100
AcDbEntity
  8
0
100
AcDbCircle
 10
195.637631799897
 20
291.5609076084383
 30
0.0
 40
17.31691727529297
100
AcDbArc
 50
154.5587574854879
 51
156.9981794593294
  0
ARC
  5
BB
330
1E
100
AcDbEntity
  8
0
100
AcDbCircle
 10
186.6100972363256
 20
298.1536792394084
 30
0.0
 40
1.627294847984731
100
AcDbArc
 50
18.61598428873098
 51
31.33750477851957
  0
LINE
  5
BC
330
1E
100
AcDbEntity
  8
0
100
AcDbLine
 10
533.139191081016
 20
285.0
 30
0.0
 11
530.4999999999998
 21
285.0
 31
0.0
  0
LINE
  5
BD
330
1E
100
AcDbEntity
  8
0
100
AcDbLine
 10
544.8583203939424
 20
285.0
 30
0.0
 11
547.5
 21
285.0
 31
0.0
  0
LINE
  5
BE
330
1E
100
AcDbEntity
  8
1
100
AcDbLine
 10
320.9999999999999
 20
385.9999999999999
 30
0.0
 11
320.9999999999999
 21
349.5
 31
0.0
  0
LINE
  5
BF
330
1E
100
AcDbEntity
  8
1
100
AcDbLine
 10
306.0
 20
367.5
 30
0.0
 11
404.9999999999999
 21
367.5
 31
0.0
  0
CIRCLE
  5
C0
330
1E
100
AcDbEntity
  8
0
100
AcDbCircle
 10
320.9999999999999
 20
367.5
 30
0.0
 40
6.0
  0
LINE
  5
C1
330
1E
100
AcDbEntity
  8
0
100
AcDbLine
 10
398.0
 20
370.0
 30
0.0
 11
398.0
 21
364.5
 31
0.0
  0
LINE
  5
C2
330
1E
100
AcDbEntity
  8
0
100
AcDbLine
 10
400.9999999999999
 20
363.5
 30
0.0
 11
400.9999999999999
 21
371.4999999999999
 31
0.0
  0
LINE
  5
C3
330
1E
100
AcDbEntity
  8
0
100
AcDbLine
 10
398.0
 20
372.5
 30
0.0
 11
331.0
 21
374.5
 31
0.0
  0
LINE
  5
C4
330
1E
100
AcDbEntity
  8
0
100
AcDbLine
 10
398.0
 20
362.5
 30
0.0
 11
331.0
 21
360.4999999999999
 31
0.0
  0
LINE
  5
C5
330
1E
100
AcDbEntity
  8
0
100
AcDbLine
 10
398.0
 20
370.0
 30
0.0
 11
398.0
 21
370.5
 31
0.0
  0
LINE
  5
C6
330
1E
100
AcDbEntity
  8
0
100
AcDbLine
 10
397.0
 20
371.4999999999999
 30
0.0
 11
325.0
 21
372.5
 31
0.0
  0
LINE
  5
C7
330
1E
100
AcDbEntity
  8
0
100
AcDbLine
 10
397.0
 20
363.5
 30
0.0
 11
325.0
 21
362.5
 31
0.0
  0
LINE
  5
C8
330
1E
100
AcDbEntity
  8
0
100
AcDbLine
 10
186.5
 20
290.5
 30
0.0
 11
186.5
 21
289.4999999999999
 31
0.0
  0
LINE
  5
C9
330
1E
100
AcDbEntity
  8
0
100
AcDbLine
 10
186.0
 20
291.0
 30
0.0
 11
182.0
 21
291.0
 31
0.0
  0
ARC
  5
CA
330
1E
100
AcDbEntity
  8
0
100
AcDbCircle
 10
186.0065109172174
 20
290.5065109172176
 30
0.0
 40
0.4935320322617839
100
AcDbArc
 50
359.2441039795096
 51
90.75589602048699
  0
ARC
  5
CB
330
1E
100
AcDbEntity
  8
0
100
AcDbCircle
 10
181.9948549696682
 20
290.5051450303318
 30
0.0
 40
0.4948817155062823
100
AcDbArc
 50
89.40431455646324
 51
180.5956854435367
  0
CIRCLE
  5
CC
330
1E
100
AcDbEntity
  8
0
100
AcDbCircle
 10
320.9999999999999
 20
367.5
 30
0.0
 40
6.403124237432847
  0
ARC
  5
CD
330
1E
100
AcDbEntity
  8
0
100
AcDbCircle
 10
327.0
 20
367.5
 30
0.0
 40
17.0
100
AcDbArc
 50
151.927513064147
 51
208.0724869358528
  0
ARC
  5
CE
330
1E
100
AcDbEntity
  8
0
100
AcDbCircle
 10
320.9999999999999
 20
373.4999999999999
 30
0.0
 40
17.0
100
AcDbArc
 50
241.927513064147
 51
298.0724869358529
  0
ARC
  5
CF
330
1E
100
AcDbEntity
  8
0
100
AcDbCircle
 10
314.9999999999999
 20
367.5
 30
0.0
 40
17.0
100
AcDbArc
 50
331.9275130641469
 51
335.6031876630544
  0
ARC
  5
D0
330
1E
100
AcDbEntity
  8
0
100
AcDbCircle
 10
320.9999999999999
 20
361.5
 30
0.0
 40
17.0
100
AcDbArc
 50
61.92751306414704
 51
118.0724869358528
  0
ARC
  5
D1
330
1E
100
AcDbEntity
  8
0
100
AcDbCircle
 10
326.0625
 20
367.5
 30
0.0
 40
15.0625
100
AcDbArc
 50
150.1371656437249
 51
209.8628343562749
  0
ARC
  5
D2
330
1E
100
AcDbEntity
  8
0
100
AcDbCircle
 10
320.9999999999999
 20
362.4375
 30
0.0
 40
15.0625
100
AcDbArc
 50
60.13716564372494
 51
119.862834356275
  0
ARC
  5
D3
330
1E
100
AcDbEntity
  8
0
100
AcDbCircle
 10
315.9375
 20
367.5
 30
0.0
 40
15.0625
100
AcDbArc
 50
330.1371656437249
 51
334.6143596667928
  0
ARC
  5
D4
330
1E
100
AcDbEntity
  8
0
100
AcDbCircle
 10
320.9999999999999
 20
372.5624999999999
 30
0.0
 40
15.0625
100
AcDbArc
 50
240.1371656437249
 51
299.862834356275
  0
ARC
  5
D5
330
1E
100
AcDbEntity
  8
0
100
AcDbCircle
 10
324.0625
 20
367.5
 30
0.0
 40
11.5625
100
AcDbArc
 50
145.7945420618951
 51
214.2054579381047
  0
ARC
  5
D6
330
1E
100
AcDbEntity
  8
0
100
AcDbCircle
 10
320.9999999999999
 20
364.4375
 30
0.0
 40
11.5625
100
AcDbArc
 50
55.79454206189526
 51
124.2054579381047
  0
ARC
  5
D7
330
1E
100
AcDbEntity
  8
0
100
AcDbCircle
 10
317.9375
 20
367.5
 30
0.0
 40
11.5625
100
AcDbArc
 50
325.7945420618951
 51
331.3206734243315
  0
ARC
  5
D8
330
1E
100
AcDbEntity
  8
0
100
AcDbCircle
 10
320.9999999999999
 20
370.5624999999999
 30
0.0
 40
11.5625
100
AcDbArc
 50
235.7945420618952
 51
304.2054579381046
  0
ARC
  5
D9
330
1E
100
AcDbEntity
  8
0
100
AcDbCircle
 10
314.0463711379097
 20
374.4399594607609
 30
0.0
 40
2.308495692745526
100
AcDbArc
 50
116.6562816489278
 51
152.5832590836202
  0
ARC
  5
DA
330
1E
100
AcDbEntity
  8
0
100
AcDbCircle
 10
314.3097160185237
 20
374.1869777863521
 30
0.0
 40
1.544722648484061
100
AcDbArc
 50
121.1299196139437
 51
148.1186331053141
  0
ARC
  5
DB
330
1E
100
AcDbEntity
  8
0
100
AcDbCircle
 10
314.2802026941436
 20
360.7980579348748
 30
0.0
 40
2.626495231359466
100
AcDbArc
 50
209.6465310415994
 51
240.9749565056056
  0
ARC
  5
DC
330
1E
100
AcDbEntity
  8
0
100
AcDbCircle
 10
314.3520499521033
 20
360.84565962514
 30
0.0
 40
1.591064471063371
100
AcDbArc
 50
212.2098996091108
 51
237.830016998311
  0
ARC
  5
DD
330
1E
100
AcDbEntity
  8
0
100
AcDbCircle
 10
328.1035839222425
 20
374.6016832311088
 30
0.0
 40
2.099356578620222
100
AcDbArc
 50
25.28787799298925
 51
64.75201981547413
  0
ARC
  5
DE
330
1E
100
AcDbEntity
  8
0
100
AcDbCircle
 10
327.8550842538665
 20
374.3443705248107
 30
0.0
 40
1.320259658742737
100
AcDbArc
 50
29.5261973289795
 51
60.51338653673671
  0
ARC
  5
DF
330
1E
100
AcDbEntity
  8
0
100
AcDbCircle
 10
328.091123552614
 20
360.4130283058843
 30
0.0
 40
0.9995702058125178
100
AcDbArc
 50
294.2762830391362
 51
335.6837940000537
  0
ARC
  5
E0
330
1E
100
AcDbEntity
  8
0
100
AcDbCircle
 10
328.1540225457074
 20
360.3431126906276
 30
0.0
 40
2.030353874304071
100
AcDbArc
 50
294.6868975003262
 51
335.5219512560267
  0
LINE
  5
E1
330
1E
100
AcDbEntity
  8
0
100
AcDbLine
 10
325.0
 20
372.5
 30
0.0
 11
328.0
 21
372.9999999999999
 31
0.0
  0
LINE
  5
E2
330
1E
100
AcDbEntity
  8
0
100
AcDbLine
 10
328.0
 20
372.9999999999999
 30
0.0
 11
330.5
 21
374.5
 31
0.0
  0
LINE
  5
E3
330
1E
100
AcDbEntity
  8
0
100
AcDbLine
 10
325.0
 20
362.5
 30
0.0
 11
328.0
 21
362.0
 31
0.0
  0
LINE
  5
E4
330
1E
100
AcDbEntity
  8
0
100
AcDbLine
 10
328.0
 20
362.0
 30
0.0
 11
330.5
 21
360.4999999999999
 31
0.0
  0
LINE
  5
E5
330
1E
100
AcDbEntity
  8
0
100
AcDbLine
 10
321.4999999999998
 20
373.4206073072396
 30
0.0
 11
321.4999999999998
 21
361.5790769482613
 31
0.0
  0
LINE
  5
E6
330
1E
100
AcDbEntity
  8
0
100
AcDbLine
 10
320.5
 20
361.5818062771671
 30
0.0
 11
320.5
 21
373.4206073072396
 31
0.0
  0
LINE
  5
E7
330
1E
100
AcDbEntity
  8
0
100
AcDbLine
 10
333.9999999999998
 20
365.5
 30
0.0
 11
333.9999999999998
 21
369.5
 31
0.0
  0
LINE
  5
E8
330
1E
100
AcDbEntity
  8
0
100
AcDbLine
 10
343.9999999999998
 20
365.5
 30
0.0
 11
343.9999999999998
 21
369.5
 31
0.0
  0
LINE
  5
E9
330
1E
100
AcDbEntity
  8
0
100
AcDbLine
 10
343.5
 20
370.0
 30
0.0
 11
334.5
 21
370.0
 31
0.0
  0
LINE
  5
EA
330
1E
100
AcDbEntity
  8
0
100
AcDbLine
 10
334.5
 20
364.9999999999999
 30
0.0
 11
343.5
 21
364.9999999999999
 31
0.0
  0
ARC
  5
EB
330
1E
100
AcDbEntity
  8
0
100
AcDbCircle
 10
343.5272189895505
 20
369.5272189895505
 30
0.0
 40
0.4735638892839276
100
AcDbArc
 50
356.7049996505569
 51
93.29500034944295
  0
ARC
  5
EC
330
1E
100
AcDbEntity
  8
0
100
AcDbCircle
 10
334.499619056061
 20
369.5003809439389
 30
0.0
 40
0.4996192012899903
100
AcDbArc
 50
89.95631376458355
 51
180.0436862354164
  0
ARC
  5
ED
330
1E
100
AcDbEntity
  8
0
100
AcDbCircle
 10
343.4926670937412
 20
365.5073329062588
 30
0.0
 40
0.5073858978008717
100
AcDbArc
 50
270.8280860964077
 51
359.1719139035921
  0
ARC
  5
EE
330
1E
100
AcDbEntity
  8
0
100
AcDbCircle
 10
334.4902415150668
 20
365.4902415150668
 30
0.0
 40
0.4903386290343836
100
AcDbArc
 50
178.8596515080126
 51
271.1403484919872
  0
LINE
  5
EF
330
1E
100
AcDbEntity
  8
0
100
AcDbLine
 10
335.0
 20
369.5
 30
0.0
 11
335.0
 21
365.5
 31
0.0
  0
LINE
  5
F0
330
1E
100
AcDbEntity
  8
0
100
AcDbLine
 10
335.0
 20
366.9999999999999
 30
0.0
 11
337.5
 21
369.5
 31
0.0
  0
LINE
  5
F1
330
1E
100
AcDbEntity
  8
0
100
AcDbLine
 10
337.5
 20
369.5
 30
0.0
 11
343.0
 21
369.5
 31
0.0
  0
ARC
  5
F2
330
1E
100
AcDbEntity
  8
0
100
AcDbCircle
 10
335.8999999999999
 20
364.85
 30
0.0
 40
2.680018656651494
100
AcDbArc
 50
14.03624346792592
 51
98.58362148011361
  0
LINE
  5
F3
330
1E
100
AcDbEntity
  8
0
100
AcDbLine
 10
339.0
 20
365.5
 30
0.0
 11
339.0
 21
368.5
 31
0.0
  0
LINE
  5
F4
330
1E
100
AcDbEntity
  8
0
100
AcDbLine
 10
339.0
 20
368.5
 30
0.0
 11
341.0
 21
365.5
 31
0.0
  0
LINE
  5
F5
330
1E
100
AcDbEntity
  8
0
100
AcDbLine
 10
341.0
 20
365.5
 30
0.0
 11
341.0
 21
368.5
 31
0.0
  0
ARC
  5
F6
330
1E
100
AcDbEntity
  8
0
100
AcDbCircle
 10
342.4137715026601
 20
367.6157812907238
 30
0.0
 40
0.950594894659692
100
AcDbArc
 50
52.62499460472939
 51
173.3973119928633
  0
ARC
  5
F7
330
1E
100
AcDbEntity
  8
0
100
AcDbCircle
 10
343.054296566229
 20
368.2900481292477
 30
0.0
 40
1.682504920871441
100
AcDbArc
 50
199.6204234047168
 51
257.3747302701601
  0
ARC
  5
F8
330
1E
100
AcDbEntity
  8
0
100
AcDbCircle
 10
342.3667094423179
 20
365.944973065935
 30
0.0
 40
0.7725664119640796
100
AcDbArc
 50
308.8525360291843
 51
65.544179651821
  0
ARC
  5
F9
330
1E
100
AcDbEntity
  8
0
100
AcDbCircle
 10
342.4256610641888
 20
366.3440868130275
 30
0.0
 40
1.092560556810781
100
AcDbArc
 50
201.0624692052451
 51
293.6551937218087
  0
ARC
  5
FA
330
1E
100
AcDbEntity
  8
0
100
AcDbCircle
 10
397.0323535871871
 20
370.5323535871871
 30
0.0
 40
0.9681871383330364
100
AcDbArc
 50
358.0850094999329
 51
91.91499050006699
  0
ARC
  5
FB
330
1E
100
AcDbEntity
  8
0
100
AcDbCircle
 10
397.1357933151013
 20
364.3642066848985
 30
0.0
 40
0.8748102758025451
100
AcDbArc
 50
261.0700952476718
 51
8.929904752328107
  0
ARC
  5
FC
330
1E
100
AcDbEntity
  8
0
100
AcDbCircle
 10
398.1380607105197
 20
370.5658054813266
 30
0.0
 40
8.066986972989827
100
AcDbArc
 50
269.0193758513093
 51
287.3487963676429
  0
ARC
  5
FD
330
1E
100
AcDbEntity
  8
0
100
AcDbCircle
 10
397.2246167481926
 20
356.9010569663257
 30
0.0
 40
15.61820229587896
100
AcDbArc
 50
77.7308988745923
 51
87.1543166696699
  0
ARC
  5
FE
330
1E
100
AcDbEntity
  8
0
100
AcDbCircle
 10
400.2013203848097
 20
371.4380991491945
 30
0.0
 40
0.8010748049033409
100
AcDbArc
 50
4.431791526393363
 51
64.7930682863402
  0
ARC
  5
FF
330
1E
100
AcDbEntity
  8
0
100
AcDbCircle
 10
400.3568714178858
 20
363.4830116848655
 30
0.0
 40
0.6433529171326937
100
AcDbArc
 50
286.4328443613389
 51
1.513122710337251
  0
ARC
  5
100
330
1E
100
AcDbEntity
  8
0
100
AcDbCircle
 10
317.9375
 20
367.5
 30
0.0
 40
11.5625
100
AcDbArc
 50
28.81292868500635
 51
34.20545793810474
  0
ARC
  5
101
330
1E
100
AcDbEntity
  8
0
100
AcDbCircle
 10
315.9375
 20
367.5
 30
0.0
 40
15.0625
100
AcDbArc
 50
25.30542221603796
 51
29.86283435627507
  0
ARC
  5
102
330
1E
100
AcDbEntity
  8
0
100
AcDbCircle
 10
314.9999999999999
 20
367.5
 30
0.0
 40
17.0
100
AcDbArc
 50
24.45313848398418
 51
28.07248693585297
  0
LINE
  5
103
330
1E
100
AcDbEntity
  8
0
100
AcDbLine
 10
330.474906894532
 20
374.5381949963304
 30
0.0
 11
330.5011103101122
 21
374.5015366974655
 31
0.0
  0
LINE
  5
104
330
1E
100
AcDbEntity
  8
0
100
AcDbLine
 10
330.5011103101122
 20
374.5015366974655
 30
0.0
 11
330.9989679686227
 21
374.4989182475467
 31
0.0
  0
LINE
  5
105
330
1E
100
AcDbEntity
  8
0
100
AcDbLine
 10
330.4951574557232
 20
360.501525102556
 30
0.0
 11
330.9996700073773
 21
360.499264877056
 31
0.0
  0
LINE
  5
106
330
1E
100
AcDbEntity
  8
0
100
AcDbLine
 10
329.5548959628082
 20
373.9380944646276
 30
0.0
 11
329.5571432105743
 21
373.9330452061519
 31
0.0
  0
LINE
  5
107
330
1E
100
AcDbEntity
  8
0
100
AcDbLine
 10
328.0683216622845
 20
373.0721466360671
 30
0.0
 11
328.082735169294
 21
373.0505444242361
 31
0.0
  0
LINE
  5
108
330
1E
100
AcDbEntity
  8
0
100
AcDbLine
 10
329.5458924967173
 20
361.0424589010749
 30
0.0
 11
329.5583374002087
 21
361.0653724701536
 31
0.0
  0
LINE
  5
109
330
1E
100
AcDbEntity
  8
0
100
AcDbLine
 10
330.482108219902
 20
360.4777799410763
 30
0.0
 11
330.495023561734
 21
360.5013459903465
 31
0.0
  0
LINE
  5
10A
330
1E
100
AcDbEntity
  8
0
100
AcDbLine
 10
398.0
 20
110.4999999999999
 30
0.0
 11
331.0
 21
108.4999999999999
 31
0.0
  0
LINE
  5
10B
330
1E
100
AcDbEntity
  8
0
100
AcDbLine
 10
398.0
 20
120.5
 30
0.0
 11
331.0
 21
122.5
 31
0.0
  0
LINE
  5
10C
330
1E
100
AcDbEntity
  8
1
100
AcDbLine
 10
306.0
 20
115.5
 30
0.0
 11
404.9999999999999
 21
115.5
 31
0.0
  0
ARC
  5
10D
330
1E
100
AcDbEntity
  8
0
100
AcDbCircle
 10
320.9999999999999
 20
109.4999999999999
 30
0.0
 40
17.0
100
AcDbArc
 50
61.92751306414704
 51
118.0724869358528
  0
ARC
  5
10E
330
1E
100
AcDbEntity
  8
0
100
AcDbCircle
 10
320.9999999999999
 20
121.5
 30
0.0
 40
17.0
100
AcDbArc
 50
241.927513064147
 51
298.0724869358529
  0
ARC
  5
10F
330
1E
100
AcDbEntity
  8
0
100
AcDbCircle
 10
327.0
 20
115.5
 30
0.0
 40
17.0
100
AcDbArc
 50
151.927513064147
 51
208.0724869358528
  0
ARC
  5
110
330
1E
100
AcDbEntity
  8
0
100
AcDbCircle
 10
314.2802026941436
 20
108.7980579348748
 30
0.0
 40
2.626495231359466
100
AcDbArc
 50
209.6465310415994
 51
240.9749565056056
  0
ARC
  5
111
330
1E
100
AcDbEntity
  8
0
100
AcDbCircle
 10
314.0463711379097
 20
122.4399594607609
 30
0.0
 40
2.308495692745526
100
AcDbArc
 50
116.6562816489278
 51
152.5832590836202
  0
LINE
  5
112
330
1E
100
AcDbEntity
  8
1
100
AcDbLine
 10
320.9999999999999
 20
134.0
 30
0.0
 11
320.9999999999999
 21
97.5
 31
0.0
  0
LINE
  5
113
330
1E
100
AcDbEntity
  8
0
100
AcDbLine
 10
330.482108219902
 20
108.4777799410764
 30
0.0
 11
330.495023561734
 21
108.5013459903467
 31
0.0
  0
LINE
  5
114
330
1E
100
AcDbEntity
  8
0
100
AcDbLine
 10
329.5458924967173
 20
109.0424589010748
 30
0.0
 11
329.5583374002087
 21
109.0653724701535
 31
0.0
  0
LINE
  5
115
330
1E
100
AcDbEntity
  8
0
100
AcDbLine
 10
330.4951574557232
 20
108.5015251025561
 30
0.0
 11
330.9996700073773
 21
108.4992648770561
 31
0.0
  0
ARC
  5
116
330
1E
100
AcDbEntity
  8
0
100
AcDbCircle
 10
314.9999999999999
 20
115.5
 30
0.0
 40
17.0
100
AcDbArc
 50
331.9275130641469
 51
335.6031876630544
  0
ARC
  5
117
330
1E
100
AcDbEntity
  8
0
100
AcDbCircle
 10
328.1540225457074
 20
108.3431126906275
 30
0.0
 40
2.030353874304071
100
AcDbArc
 50
294.6868975003262
 51
335.5219512560267
  0
ARC
  5
118
330
1E
100
AcDbEntity
  8
0
100
AcDbCircle
 10
328.1035839222425
 20
122.6016832311086
 30
0.0
 40
2.099356578620222
100
AcDbArc
 50
25.28787799298925
 51
64.75201981547413
  0
LINE
  5
119
330
1E
100
AcDbEntity
  8
0
100
AcDbLine
 10
330.5011103101122
 20
122.5015366974655
 30
0.0
 11
330.9989679686227
 21
122.4989182475467
 31
0.0
  0
LINE
  5
11A
330
1E
100
AcDbEntity
  8
0
100
AcDbLine
 10
330.474906894532
 20
122.5381949963304
 30
0.0
 11
330.5011103101122
 21
122.5015366974655
 31
0.0
  0
ARC
  5
11B
330
1E
100
AcDbEntity
  8
0
100
AcDbCircle
 10
314.9999999999999
 20
115.5
 30
0.0
 40
17.0
100
AcDbArc
 50
24.45313848398418
 51
28.07248693585297
  0
LINE
  5
11C
330
1E
100
AcDbEntity
  8
0
100
AcDbLine
 10
400.9999999999999
 20
111.4999999999999
 30
0.0
 11
400.9999999999999
 21
119.5
 31
0.0
  0
ARC
  5
11D
330
1E
100
AcDbEntity
  8
0
100
AcDbCircle
 10
400.3568714178858
 20
111.4830116848654
 30
0.0
 40
0.6433529171326937
100
AcDbArc
 50
286.4328443613389
 51
1.513122710337251
  0
ARC
  5
11E
330
1E
100
AcDbEntity
  8
0
100
AcDbCircle
 10
398.1380607105197
 20
118.5658054813266
 30
0.0
 40
8.066986972989827
100
AcDbArc
 50
269.0193758513093
 51
287.3487963676429
  0
ARC
  5
11F
330
1E
100
AcDbEntity
  8
0
100
AcDbCircle
 10
400.2013203848097
 20
119.4380991491946
 30
0.0
 40
0.8010748049033409
100
AcDbArc
 50
4.431791526393363
 51
64.7930682863402
  0
ARC
  5
120
330
1E
100
AcDbEntity
  8
0
100
AcDbCircle
 10
397.2246167481926
 20
104.9010569663257
 30
0.0
 40
15.61820229587896
100
AcDbArc
 50
77.7308988745923
 51
87.1543166696699
  0
LINE
  5
121
330
1E
100
AcDbEntity
  8
0
100
AcDbLine
 10
398.0
 20
117.9999999999999
 30
0.0
 11
398.0
 21
118.5
 31
0.0
  0
CIRCLE
  5
122
330
1E
100
AcDbEntity
  8
0
100
AcDbCircle
 10
320.9999999999999
 20
115.5
 30
0.0
 40
10.5
  0
CIRCLE
  5
123
330
1E
100
AcDbEntity
  8
0
100
AcDbCircle
 10
320.9999999999999
 20
115.5
 30
0.0
 40
8.0
  0
CIRCLE
  5
124
330
1E
100
AcDbEntity
  8
0
100
AcDbCircle
 10
320.9999999999999
 20
115.5
 30
0.0
 40
4.0
  0
CIRCLE
  5
125
330
1E
100
AcDbEntity
  8
11
100
AcDbCircle
 10
320.9999999999999
 20
115.5
 30
0.0
 40
5.0
  0
POLYLINE
  5
126
330
1E
100
AcDbEntity
  8
0
100
AcDb2dPolyline
 66
     1
 10
0.0
 20
0.0
 30
0.0
 70
   129
  0
VERTEX
  5
127
330
126
100
AcDbEntity
  8
0
100
AcDbVertex
100
AcDb2dVertex
 10
398.0
 20
115.5
 30
0.0
 42
0.0720393825137626
  0
VERTEX
  5
128
330
126
100
AcDbEntity
  8
0
100
AcDbVertex
100
AcDb2dVertex
 10
397.7993455053163
 20
116.8854447149503
 30
0.0
 42
0.0833393656924974
  0
VERTEX
  5
129
330
126
100
AcDbEntity
  8
0
100
AcDbVertex
100
AcDb2dVertex
 10
397.2677669529663
 20
117.9748737341528
 30
0.0
 42
0.1066614036292957
 70
     2
 50
125.5376777919743
  0
VERTEX
  5
12A
330
126
100
AcDbEntity
  8
0
100
AcDbVertex
100
AcDb2dVertex
 10
396.4096252424681
 20
118.7553356293738
 30
0.0
 42
0.132138159127633
 50
125.5376777919743
  0
VERTEX
  5
12B
330
126
100
AcDbEntity
  8
0
100
AcDbVertex
100
AcDb2dVertex
 10
395.5
 20
118.9999999999999
 30
0.0
 42
0.1321381591276479
  0
VERTEX
  5
12C
330
126
100
AcDbEntity
  8
0
100
AcDbVertex
100
AcDb2dVertex
 10
394.5903747575317
 20
118.7553356293738
 30
0.0
 42
0.1066614036293049
  0
VERTEX
  5
12D
330
126
100
AcDbEntity
  8
0
100
AcDbVertex
100
AcDb2dVertex
 10
393.7322330470336
 20
117.9748737341528
 30
0.0
 42
0.083339365692545
 70
     2
 50
234.4623222080256
  0
VERTEX
  5
12E
330
126
100
AcDbEntity
  8
0
100
AcDbVertex
100
AcDb2dVertex
 10
393.2006544946838
 20
116.8854447149503
 30
0.0
 42
0.0720393825138045
 50
234.4623222080256
  0
VERTEX
  5
12F
330
126
100
AcDbEntity
  8
0
100
AcDbVertex
100
AcDb2dVertex
 10
393.0
 20
115.5
 30
0.0
 42
0.0720393825138045
  0
VERTEX
  5
130
330
126
100
AcDbEntity
  8
0
100
AcDbVertex
100
AcDb2dVertex
 10
393.2006544946838
 20
114.1145552850495
 30
0.0
 42
0.083339365692545
  0
VERTEX
  5
131
330
126
100
AcDbEntity
  8
0
100
AcDbVertex
100
AcDb2dVertex
 10
393.7322330470336
 20
113.0251262658469
 30
0.0
 42
0.1066614036292715
 70
     2
 50
305.5376777919743
  0
VERTEX
  5
132
330
126
100
AcDbEntity
  8
0
100
AcDbVertex
100
AcDb2dVertex
 10
394.5903747575316
 20
112.244664370626
 30
0.0
 42
0.1321381591276319
 50
305.5376777919743
  0
VERTEX
  5
133
330
126
100
AcDbEntity
  8
0
100
AcDbVertex
100
AcDb2dVertex
 10
395.5
 20
112.0
 30
0.0
 42
0.1321381591276399
  0
VERTEX
  5
134
330
126
100
AcDbEntity
  8
0
100
AcDbVertex
100
AcDb2dVertex
 10
396.4096252424683
 20
112.244664370626
 30
0.0
 42
0.1066614036292886
  0
VERTEX
  5
135
330
126
100
AcDbEntity
  8
0
100
AcDbVertex
100
AcDb2dVertex
 10
397.2677669529663
 20
113.0251262658469
 30
0.0
 42
0.0833393656925234
 70
     2
 50
54.46232220802566
  0
VERTEX
  5
136
330
126
100
AcDbEntity
  8
0
100
AcDbVertex
100
AcDb2dVertex
 10
397.7993455053161
 20
114.1145552850495
 30
0.0
 42
0.0720393825137843
 50
54.46232220802566
  0
SEQEND
  5
137
330
126
100
AcDbEntity
  8
0
  0
POLYLINE
  5
138
330
1E
100
AcDbEntity
  8
0
100
AcDb2dPolyline
 66
     1
 10
0.0
 20
0.0
 30
0.0
 70
   129
  0
VERTEX
  5
139
330
138
100
AcDbEntity
  8
0
100
AcDbVertex
100
AcDb2dVertex
 10
345.0
 20
115.5
 30
0.0
 42
0.1103279783962928
  0
VERTEX
  5
13A
330
138
100
AcDbEntity
  8
0
100
AcDbVertex
100
AcDb2dVertex
 10
344.5372810683906
 20
117.5714899421141
 30
0.0
 42
0.1026319269261447
  0
VERTEX
  5
13B
330
138
100
AcDbEntity
  8
0
100
AcDbVertex
100
AcDb2dVertex
 10
343.1694173824158
 20
119.3931028755992
 30
0.0
 42
0.0933431748057406
 70
     2
 50
138.6228963927879
  0
VERTEX
  5
13C
330
138
100
AcDbEntity
  8
0
100
AcDbVertex
100
AcDb2dVertex
 10
341.1768537736571
 20
120.5767494578656
 30
0.0
 42
0.0876919365995836
 50
138.6228963927879
  0
VERTEX
  5
13D
330
138
100
AcDbEntity
  8
0
100
AcDbVertex
100
AcDb2dVertex
 10
338.75
 20
121.0056788863863
 30
0.0
 42
0.0876919365995914
  0
VERTEX
  5
13E
330
138
100
AcDbEntity
  8
0
100
AcDbVertex
100
AcDb2dVertex
 10
336.3231462263428
 20
120.5767494578656
 30
0.0
 42
0.0933431748057522
  0
VERTEX
  5
13F
330
138
100
AcDbEntity
  8
0
100
AcDbVertex
100
AcDb2dVertex
 10
334.330582617584
 20
119.3931028755992
 30
0.0
 42
0.1026319269261548
 70
     2
 50
221.3771036072119
  0
VERTEX
  5
140
330
138
100
AcDbEntity
  8
0
100
AcDbVertex
100
AcDb2dVertex
 10
332.9627189316094
 20
117.5714899421141
 30
0.0
 42
0.110327978396306
 50
221.3771036072119
  0
VERTEX
  5
141
330
138
100
AcDbEntity
  8
0
100
AcDbVertex
100
AcDb2dVertex
 10
332.5
 20
115.5
 30
0.0
 42
0.1103279783962928
  0
VERTEX
  5
142
330
138
100
AcDbEntity
  8
0
100
AcDbVertex
100
AcDb2dVertex
 10
332.9627189316094
 20
113.4285100578857
 30
0.0
 42
0.1026319269261447
  0
VERTEX
  5
143
330
138
100
AcDbEntity
  8
0
100
AcDbVertex
100
AcDb2dVertex
 10
334.330582617584
 20
111.6068971244006
 30
0.0
 42
0.0933431748057586
 70
     2
 50
318.6228963927878
  0
VERTEX
  5
144
330
138
100
AcDbEntity
  8
0
100
AcDbVertex
100
AcDb2dVertex
 10
336.323146226343
 20
110.4232505421342
 30
0.0
 42
0.0876919365995934
 50
318.6228963927878
  0
VERTEX
  5
145
330
138
100
AcDbEntity
  8
0
100
AcDbVertex
100
AcDb2dVertex
 10
338.75
 20
109.9943211136135
 30
0.0
 42
0.0876919365995914
  0
VERTEX
  5
146
330
138
100
AcDbEntity
  8
0
100
AcDbVertex
100
AcDb2dVertex
 10
341.176853773657
 20
110.4232505421342
 30
0.0
 42
0.0933431748057522
  0
VERTEX
  5
147
330
138
100
AcDbEntity
  8
0
100
AcDbVertex
100
AcDb2dVertex
 10
343.1694173824158
 20
111.6068971244006
 30
0.0
 42
0.1026319269261485
 70
     2
 50
41.3771036072121
  0
VERTEX
  5
148
330
138
100
AcDbEntity
  8
0
100
AcDbVertex
100
AcDb2dVertex
 10
344.5372810683906
 20
113.4285100578857
 30
0.0
 42
0.1103279783962942
 50
41.3771036072121
  0
SEQEND
  5
149
330
138
100
AcDbEntity
  8
0
  0
ARC
  5
14A
330
1E
100
AcDbEntity
  8
0
100
AcDbCircle
 10
314.9166666666666
 20
115.5
 30
0.0
 40
17.08333333333331
100
AcDbArc
 50
335.8104858459773
 51
24.18951415402265
  0
LINE
  5
14B
330
1E
100
AcDbEntity
  8
1
100
AcDbLine
 10
184.0
 20
311.5
 30
0.0
 11
184.0
 21
206.0
 31
0.0
  0
LINE
  5
14C
330
1E
100
AcDbEntity
  8
0
100
AcDbLine
 10
189.0
 20
242.0
 30
0.0
 11
189.0
 21
212.9999999999999
 31
0.0
  0
LINE
  5
14D
330
1E
100
AcDbEntity
  8
0
100
AcDbLine
 10
188.0
 20
242.0
 30
0.0
 11
188.0
 21
212.0
 31
0.0
  0
LINE
  5
14E
330
1E
100
AcDbEntity
  8
1
100
AcDbLine
 10
320.9999999999999
 20
293.9999999999999
 30
0.0
 11
320.9999999999999
 21
206.0
 31
0.0
  0
LINE
  5
14F
330
1E
100
AcDbEntity
  8
0
100
AcDbLine
 10
326.0
 20
242.0
 30
0.0
 11
326.0
 21
212.9999999999999
 31
0.0
  0
LINE
  5
150
330
1E
100
AcDbEntity
  8
0
100
AcDbLine
 10
325.0
 20
242.0
 30
0.0
 11
325.0
 21
212.0
 31
0.0
  0
LINE
  5
151
330
1E
100
AcDbEntity
  8
1
100
AcDbLine
 10
538.9999999999998
 20
312.0
 30
0.0
 11
538.9999999999998
 21
204.9999999999998
 31
0.0
  0
LINE
  5
152
330
1E
100
AcDbEntity
  8
0
100
AcDbLine
 10
544.0
 20
242.0
 30
0.0
 11
544.0
 21
212.9999999999999
 31
0.0
  0
LINE
  5
153
330
1E
100
AcDbEntity
  8
0
100
AcDbLine
 10
542.9999999999998
 20
242.0
 30
0.0
 11
542.9999999999998
 21
212.0
 31
0.0
  0
LINE
  5
155
330
1E
100
AcDbEntity
  8
0
100
AcDbLine
 10
180.0
 20
212.0
 30
0.0
 11
180.0
 21
242.0
 31
0.0
  0
LINE
  5
156
330
1E
100
AcDbEntity
  8
0
100
AcDbLine
 10
179.0
 20
212.9999999999999
 30
0.0
 11
179.0
 21
242.0
 31
0.0
  0
LINE
  5
157
330
1E
100
AcDbEntity
  8
0
100
AcDbLine
 10
189.0
 20
212.9999999999999
 30
0.0
 11
179.0
 21
212.9999999999999
 31
0.0
  0
LINE
  5
158
330
1E
100
AcDbEntity
  8
0
100
AcDbLine
 10
179.0
 20
212.9999999999999
 30
0.0
 11
180.0
 21
212.0
 31
0.0
  0
LINE
  5
159
330
1E
100
AcDbEntity
  8
0
100
AcDbLine
 10
180.0
 20
212.0
 30
0.0
 11
188.0
 21
212.0
 31
0.0
  0
LINE
  5
15A
330
1E
100
AcDbEntity
  8
0
100
AcDbLine
 10
188.0
 20
212.0
 30
0.0
 11
189.0
 21
212.9999999999999
 31
0.0
  0
LINE
  5
15B
330
1E
100
AcDbEntity
  8
0
100
AcDbLine
 10
316.9999999999999
 20
212.0
 30
0.0
 11
316.9999999999999
 21
242.0
 31
0.0
  0
LINE
  5
15C
330
1E
100
AcDbEntity
  8
0
100
AcDbLine
 10
316.0
 20
212.9999999999999
 30
0.0
 11
316.0
 21
242.0
 31
0.0
  0
LINE
  5
15D
330
1E
100
AcDbEntity
  8
0
100
AcDbLine
 10
326.0
 20
212.9999999999999
 30
0.0
 11
316.0
 21
212.9999999999999
 31
0.0
  0
LINE
  5
15E
330
1E
100
AcDbEntity
  8
0
100
AcDbLine
 10
316.0
 20
212.9999999999999
 30
0.0
 11
316.9999999999999
 21
212.0
 31
0.0
  0
LINE
  5
15F
330
1E
100
AcDbEntity
  8
0
100
AcDbLine
 10
316.9999999999999
 20
212.0
 30
0.0
 11
325.0
 21
212.0
 31
0.0
  0
LINE
  5
160
330
1E
100
AcDbEntity
  8
0
100
AcDbLine
 10
325.0
 20
212.0
 30
0.0
 11
326.0
 21
212.9999999999999
 31
0.0
  0
LINE
  5
161
330
1E
100
AcDbEntity
  8
0
100
AcDbLine
 10
535.0
 20
212.0
 30
0.0
 11
535.0
 21
242.0
 31
0.0
  0
LINE
  5
162
330
1E
100
AcDbEntity
  8
0
100
AcDbLine
 10
533.9999999999998
 20
212.9999999999999
 30
0.0
 11
533.9999999999998
 21
242.0
 31
0.0
  0
LINE
  5
163
330
1E
100
AcDbEntity
  8
0
100
AcDbLine
 10
544.0
 20
212.9999999999999
 30
0.0
 11
533.9999999999998
 21
212.9999999999999
 31
0.0
  0
LINE
  5
164
330
1E
100
AcDbEntity
  8
0
100
AcDbLine
 10
533.9999999999998
 20
212.9999999999999
 30
0.0
 11
535.0
 21
212.0
 31
0.0
  0
LINE
  5
165
330
1E
100
AcDbEntity
  8
0
100
AcDbLine
 10
535.0
 20
212.0
 30
0.0
 11
542.9999999999998
 21
212.0
 31
0.0
  0
LINE
  5
166
330
1E
100
AcDbEntity
  8
0
100
AcDbLine
 10
542.9999999999998
 20
212.0
 30
0.0
 11
544.0
 21
212.9999999999999
 31
0.0
  0
TEXT
  5
276
330
1E
100
AcDbEntity
  8
0
100
AcDbText
 10
415.2907402485466
 20
137.7154063196407
 30
0.0
 40
10.0
  1
KR10-30H
 41
0.8
  7
BIGFONT
100
AcDbText
  0
ENDSEC
  0
SECTION
  2
OBJECTS
  0
DICTIONARY
  5
C
330
0
100
AcDbDictionary
281
     1
  3
ACAD_GROUP
350
D
  3
ACAD_LAYOUT
350
19
  3
ACAD_MLINESTYLE
350
16
  3
ACAD_PLOTSETTINGS
350
18
  3
ACAD_PLOTSTYLENAME
350
E
  3
AcDbVariableDictionary
350
271
  3
AcmDictionary
350
224
  3
AMG
350
169
  3
AMGSNAPSETTINGS
350
262
  3
DWGPROPS
350
227
  3
MAPISURF_MODULE
350
1F6
  0
DICTIONARY
  5
269
330
1E
100
AcDbDictionary
280
     1
281
     1
  3
ACAD_INDEX
360
26A
  0
DICTIONARY
  5
D
102
{ACAD_REACTORS
330
C
102
}
330
C
100
AcDbDictionary
281
     1
  0
DICTIONARY
  5
19
102
{ACAD_REACTORS
330
C
102
}
330
C
100
AcDbDictionary
281
     1
  3
Model
350
21
  3
ﾚｲｱｳﾄ1
350
1D
  0
DICTIONARY
  5
16
102
{ACAD_REACTORS
330
C
102
}
330
C
100
AcDbDictionary
281
     1
  3
Standard
350
17
  0
DICTIONARY
  5
18
102
{ACAD_REACTORS
330
C
102
}
330
C
100
AcDbDictionary
281
     1
  0
ACDBDICTIONARYWDFLT
  5
E
102
{ACAD_REACTORS
330
C
102
}
330
C
100
AcDbDictionary
281
     1
  3
Normal
350
F
100
AcDbDictionaryWithDefault
340
F
  0
DICTIONARY
  5
271
102
{ACAD_REACTORS
330
C
102
}
330
C
100
AcDbDictionary
281
     1
  3
DIMASSOC
350
273
  3
INDEXCTL
350
272
  0
DICTIONARY
  5
224
102
{ACAD_REACTORS
330
C
102
}
330
C
100
AcDbDictionary
281
     1
  3
AcmBOMDATA
350
225
  3
AcmStdDictionary
350
233
  0
DICTIONARY
  5
169
102
{ACAD_REACTORS
330
C
102
}
330
C
100
AcDbDictionary
281
     1
  3
AcMgSettings
350
16A
  3
AMGLAYCFG
350
235
  0
DICTIONARY
  5
262
102
{ACAD_REACTORS
330
C
102
}
330
C
100
AcDbDictionary
281
     1
  3
DIMENSION
350
267
  3
FEA
350
266
  3
HATCH (1)
350
263
  3
HATCH (2)
350
264
  3
SIMPLE WELD
350
268
  3
SYMBOLS
350
265
  0
XRECORD
  5
227
102
{ACAD_REACTORS
330
C
102
}
330
C
100
AcDbXrecord
280
     1
  1
DWGPROPS COOKIE
  2

  3

  4

  6

  7

  8

  9

300
AmdtFileType=84
301
=
302
=
303
=
304
=
305
=
306
=
307
=
308
=
309
=
 40
0.0000012731481481
 41
2450683.50005787
 42
2450683.50005787
  1

 90
        1
  0
DICTIONARY
  5
26A
102
{ACAD_REACTORS
330
269
102
}
330
269
100
AcDbDictionary
281
     1
  3
*A1
350
26B
  0
LAYOUT
  5
21
102
{ACAD_REACTORS
330
19
102
}
330
19
100
AcDbPlotSettings
  1

  2
EPSON PM-3700C
  4

  6

 40
0.0
 41
0.0
 42
0.0
 43
0.0
 44
0.0
 45
0.0
 46
0.0
 47
0.0
 48
0.0
 49
0.0
140
0.0
141
0.0
142
1.0
143
1.0
 70
  1712
 72
     0
 73
     0
 74
     0
  7

 75
     0
147
1.0
148
0.0
149
0.0
100
AcDbLayout
  1
Model
 70
     1
 71
     0
 10
0.0
 20
0.0
 11
12.0
 21
9.0
 12
0.0
 22
0.0
 32
0.0
 14
0.0
 24
0.0
 34
0.0
 15
0.0
 25
0.0
 35
0.0
146
0.0
 13
0.0
 23
0.0
 33
0.0
 16
1.0
 26
0.0
 36
0.0
 17
0.0
 27
1.0
 37
0.0
 76
     0
330
1E
  0
LAYOUT
  5
1D
102
{ACAD_REACTORS
330
19
102
}
330
19
100
AcDbPlotSettings
  1

  2
EPSON PM-3700C
  4

  6

 40
0.0
 41
0.0
 42
0.0
 43
0.0
 44
0.0
 45
0.0
 46
0.0
 47
0.0
 48
0.0
 49
0.0
140
0.0
141
0.0
142
1.0
143
1.0
 70
   688
 72
     0
 73
     0
 74
     5
  7

 75
    16
147
1.0
148
0.0
149
0.0
100
AcDbLayout
  1
ﾚｲｱｳﾄ1
 70
     0
 71
     1
 10
0.0
 20
0.0
 11
12.0
 21
9.0
 12
0.0
 22
0.0
 32
0.0
 14
1.000000000000000E+20
 24
1.000000000000000E+20
 34
1.000000000000000E+20
 15
-1.000000000000000E+20
 25
-1.000000000000000E+20
 35
-1.000000000000000E+20
146
0.0
 13
0.0
 23
0.0
 33
0.0
 16
1.0
 26
0.0
 36
0.0
 17
0.0
 27
1.0
 37
0.0
 76
     0
330
1A
  0
MLINESTYLE
  5
17
102
{ACAD_REACTORS
330
16
102
}
330
16
100
AcDbMlineStyle
  2
STANDARD
 70
     0
  3

 62
   256
 51
90.0
 52
90.0
 71
     2
 49
0.5
 62
   256
  6
BYLAYER
 49
-0.5
 62
   256
  6
BYLAYER
  0
ACDBPLACEHOLDER
  5
F
102
{ACAD_REACTORS
330
E
102
}
330
E
  0
DICTIONARYVAR
  5
273
102
{ACAD_REACTORS
330
271
102
}
330
271
100
DictionaryVariables
280
     0
  1
0
  0
DICTIONARYVAR
  5
272
102
{ACAD_REACTORS
330
271
102
}
330
271
100
DictionaryVariables
280
     0
  1
1
  0
ACMDATADICTIONARY
  5
225
102
{ACAD_REACTORS
330
224
102
}
330
224
100
AcDbDictionary
281
     1
  3
*A1
350
226
100
AcmDataDictionary
  0
DICTIONARY
  5
233
102
{ACAD_REACTORS
330
224
102
}
330
224
100
AcDbDictionary
281
     1
  3
ANSI
350
234
  0
DICTIONARY
  5
16A
102
{ACAD_REACTORS
330
169
102
}
330
169
100
AcDbDictionary
281
     1
  3
DWGSETTINGS
350
16B
  3
TRANSSETTINGS
350
16F
  0
ACAMGFILTERDAT
  5
267
102
{ACAD_REACTORS
330
262
102
}
330
262
100
AcAmgFilterDat
 70
    15
  1
DIMENSION,AMDT_*_DIM
  2
*
  3
*
  4
*
  5
*
290
     1
  0
ACAMGFILTERDAT
  5
266
102
{ACAD_REACTORS
330
262
102
}
330
262
100
AcAmgFilterDat
 70
    15
  1
*
  2
AM_FEA-AM_*
  3
*
  4
*
  5
*
290
     1
  0
ACAMGFILTERDAT
  5
263
102
{ACAD_REACTORS
330
262
102
}
330
262
100
AcAmgFilterDat
 70
    15
  1
HATCH
  2
*
  3
*
  4
*
  5
*
290
     1
  0
ACAMGFILTERDAT
  5
264
102
{ACAD_REACTORS
330
262
102
}
330
262
100
AcAmgFilterDat
 70
    15
  1
LINE
  2
8,8N,*-8,*-8N,AM_8,AM_8N,*-AM_8,*-AM_8N
  3
*
  4
*
  5
INSERT,STDPART2D
290
     1
  0
ACAMGFILTERDAT
  5
268
102
{ACAD_REACTORS
330
262
102
}
330
262
100
AcAmgFilterDat
 70
    15
  1
ARC
  2
AM_5
  3
*
  4
2
  5
INSERT
290
     0
  0
ACAMGFILTERDAT
  5
265
102
{ACAD_REACTORS
330
262
102
}
330
262
100
AcAmgFilterDat
 70
    15
  1
ACMFCFRAME,ACMDATUMTARGET,ACMDATUMID,ACMWELDSYM,ACMSURFSYM,ACMFEATID,ACMPARTREF,ACMBALLOON,AMDTEDGESYM,AMGSCREWCALCTABLE
  2
*
  3
*
  4
*
  5
*
290
     1
  0
LAYER_INDEX
  5
26B
102
{ACAD_REACTORS
330
26A
102
}
330
26A
100
AcDbIndex
 40
2454383.751338611
100
AcDbLayerIndex
  8
0
360
26C
 90
      238
  8
1
360
26D
 90
        7
  8
10
360
26E
 90
        0
  8
11
360
26F
 90
        1
  8
2
360
270
 90
       13
  0
ACMDATAENTRYBLOCK
  5
226
102
{ACAD_REACTORS
330
225
102
}
330
225
100
AcmDataEntry
100
AcmDataEntryBlock
  0
IDBUFFER
  5
26C
330
0
100
AcDbIdBuffer
330
C1
330
C2
330
C3
330
C4
330
C5
330
C6
330
C7
330
C8
330
C9
330
CA
330
CB
330
CC
330
CD
330
CE
330
CF
330
D0
330
D1
330
D2
330
D3
330
D4
330
D5
330
D6
330
D7
330
D8
330
D9
330
DA
330
DB
330
DC
330
DD
330
DE
330
DF
330
E0
330
E1
330
E2
330
E3
330
E4
330
E5
330
E6
330
E7
330
E8
330
E9
330
EA
330
EB
330
EC
330
ED
330
EE
330
EF
330
F0
330
F1
330
F2
330
F3
330
F4
330
F5
330
F6
330
F7
330
F8
330
F9
330
FA
330
FB
330
FC
330
FD
330
FE
330
FF
330
100
330
101
330
102
330
103
330
104
330
105
330
106
330
107
330
108
330
109
330
10A
330
10B
330
10D
330
10E
330
10F
330
110
330
111
330
113
330
114
330
115
330
116
330
117
330
118
330
119
330
11A
330
11B
330
11C
330
11D
330
11E
330
11F
330
120
330
121
330
122
330
123
330
124
330
126
330
138
330
14A
330
14C
330
14D
330
14F
330
150
330
152
330
153
330
155
330
156
330
157
330
158
330
159
330
15A
330
15B
330
15C
330
15D
330
15E
330
15F
330
160
330
161
330
162
330
163
330
164
330
165
330
166
330
276
330
42
330
43
330
44
330
45
330
46
330
47
330
48
330
49
330
4A
330
4B
330
4C
330
4D
330
4E
330
4F
330
50
330
51
330
52
330
53
330
54
330
55
330
56
330
59
330
5A
330
5B
330
5C
330
5D
330
5E
330
5F
330
60
330
61
330
62
330
63
330
64
330
65
330
66
330
67
330
68
330
6E
330
6F
330
70
330
71
330
72
330
73
330
74
330
75
330
76
330
77
330
78
330
7A
330
7B
330
7C
330
7D
330
7E
330
7F
330
80
330
81
330
82
330
83
330
84
330
85
330
86
330
87
330
88
330
89
330
8B
330
8C
330
8D
330
8E
330
8F
330
90
330
91
330
94
330
95
330
96
330
97
330
98
330
99
330
9A
330
9B
330
9C
330
9E
330
9F
330
A0
330
A1
330
A2
330
A3
330
A4
330
A5
330
A7
330
A8
330
A9
330
AA
330
AB
330
AC
330
AD
330
AE
330
AF
330
B0
330
B1
330
B2
330
B3
330
B4
330
B5
330
B6
330
B7
330
B8
330
B9
330
BA
330
BB
330
BC
330
BD
330
C0
  0
IDBUFFER
  5
26D
330
0
100
AcDbIdBuffer
330
BE
330
BF
330
10C
330
112
330
14B
330
14E
330
151
  0
IDBUFFER
  5
26E
330
0
100
AcDbIdBuffer
  0
IDBUFFER
  5
26F
330
0
100
AcDbIdBuffer
330
125
  0
IDBUFFER
  5
270
330
0
100
AcDbIdBuffer
330
57
330
58
330
69
330
6A
330
6B
330
6C
330
6D
330
79
330
8A
330
92
330
93
330
9D
330
A6
  0
ENDSEC
  0
EOF
