  0
SECTION
  2
HEADER
  9
$ACADVER
  1
AC1015
  9
$ACADMAINTVER
 70
    13
  9
$DWGCODEPAGE
  3
ANSI_932
  9
$INSBASE
 10
0.0
 20
0.0
 30
0.0
  9
$EXTMIN
 10
174.7832491350991
 20
151.74324380513
 30
0.0
  9
$EXTMAX
 10
477.4922600448284
 20
426.6891908878164
 30
0.0
  9
$LIMMIN
 10
0.0
 20
0.0
  9
$LIMMAX
 10
750.0
 20
540.0
  9
$ORTHOMODE
 70
     1
  9
$REGENMODE
 70
     1
  9
$FILLMODE
 70
     1
  9
$QTEXTMODE
 70
     0
  9
$MIRRTEXT
 70
     1
  9
$LTSCALE
 40
20.0
  9
$ATTMODE
 70
     1
  9
$TEXTSIZE
 40
10.0
  9
$TRACEWID
 40
0.05
  9
$TEXTSTYLE
  7
BIGFONT
  9
$CLAYER
  8
0
  9
$CELTYPE
  6
ByLayer
  9
$CECOLOR
 62
   256
  9
$CELTSCALE
 40
1.0
  9
$DISPSILH
 70
     0
  9
$DIMSCALE
 40
2.0
  9
$DIMASZ
 40
3.0
  9
$DIMEXO
 40
2.0
  9
$DIMDLI
 40
0.3799999999999999
  9
$DIMRND
 40
0.0
  9
$DIMDLE
 40
0.0
  9
$DIMEXE
 40
2.0
  9
$DIMTP
 40
0.0
  9
$DIMTM
 40
0.0
  9
$DIMTXT
 40
3.2
  9
$DIMCEN
 40
0.09
  9
$DIMTSZ
 40
0.0
  9
$DIMTOL
 70
     0
  9
$DIMLIM
 70
     0
  9
$DIMTIH
 70
     0
  9
$DIMTOH
 70
     0
  9
$DIMSE1
 70
     0
  9
$DIMSE2
 70
     0
  9
$DIMTAD
 70
     1
  9
$DIMZIN
 70
     0
  9
$DIMBLK
  1

  9
$DIMASO
 70
     0
  9
$DIMSHO
 70
     0
  9
$DIMPOST
  1

  9
$DIMAPOST
  1

  9
$DIMALT
 70
     0
  9
$DIMALTD
 70
     2
  9
$DIMALTF
 40
25.4
  9
$DIMLFAC
 40
1.0
  9
$DIMTOFL
 70
     0
  9
$DIMTVP
 40
1.6
  9
$DIMTIX
 70
     1
  9
$DIMSOXD
 70
     0
  9
$DIMSAH
 70
     0
  9
$DIMBLK1
  1

  9
$DIMBLK2
  1

  9
$DIMSTYLE
  2
STANDARD
  9
$DIMCLRD
 70
     0
  9
$DIMCLRE
 70
     0
  9
$DIMCLRT
 70
     0
  9
$DIMTFAC
 40
1.0
  9
$DIMGAP
 40
0.09
  9
$DIMJUST
 70
     0
  9
$DIMSD1
 70
     0
  9
$DIMSD2
 70
     0
  9
$DIMTOLJ
 70
     1
  9
$DIMTZIN
 70
     0
  9
$DIMALTZ
 70
     0
  9
$DIMALTTZ
 70
     0
  9
$DIMUPT
 70
     0
  9
$DIMDEC
 70
     4
  9
$DIMTDEC
 70
     4
  9
$DIMALTU
 70
     2
  9
$DIMALTTD
 70
     2
  9
$DIMTXSTY
  7
STANDARD
  9
$DIMAUNIT
 70
     0
  9
$DIMADEC
 70
     0
  9
$DIMALTRND
 40
0.0
  9
$DIMAZIN
 70
     0
  9
$DIMDSEP
 70
    46
  9
$DIMATFIT
 70
     3
  9
$DIMFRAC
 70
     0
  9
$DIMLDRBLK
  1

  9
$DIMLUNIT
 70
     2
  9
$DIMLWD
 70
    -2
  9
$DIMLWE
 70
    -2
  9
$DIMTMOVE
 70
     0
  9
$LUNITS
 70
     2
  9
$LUPREC
 70
     4
  9
$SKETCHINC
 40
0.1
  9
$FILLETRAD
 40
0.0
  9
$AUNITS
 70
     0
  9
$AUPREC
 70
     0
  9
$MENU
  1
ACAD
  9
$ELEVATION
 40
0.0
  9
$PELEVATION
 40
0.0
  9
$THICKNESS
 40
0.0
  9
$LIMCHECK
 70
     0
  9
$CHAMFERA
 40
0.0
  9
$CHAMFERB
 40
0.0
  9
$CHAMFERC
 40
0.0
  9
$CHAMFERD
 40
0.0
  9
$SKPOLY
 70
     0
  9
$TDCREATE
 40
2450683.498032407
  9
$TDUCREATE
 40
2450683.123032407
  9
$TDUPDATE
 40
2457919.466691979
  9
$TDUUPDATE
 40
2457919.091691979
  9
$TDINDWG
 40
0.0040330324
  9
$TDUSRTIMER
 40
0.0040328472
  9
$USRTIMER
 70
     1
  9
$ANGBASE
 50
0.0
  9
$ANGDIR
 70
     0
  9
$PDMODE
 70
     0
  9
$PDSIZE
 40
0.0
  9
$PLINEWID
 40
0.0
  9
$SPLFRAME
 70
     0
  9
$SPLINETYPE
 70
     6
  9
$SPLINESEGS
 70
     8
  9
$HANDSEED
  5
4C6
  9
$SURFTAB1
 70
     6
  9
$SURFTAB2
 70
     6
  9
$SURFTYPE
 70
     6
  9
$SURFU
 70
     6
  9
$SURFV
 70
     6
  9
$UCSBASE
  2

  9
$UCSNAME
  2

  9
$UCSORG
 10
0.0
 20
0.0
 30
0.0
  9
$UCSXDIR
 10
1.0
 20
0.0
 30
0.0
  9
$UCSYDIR
 10
0.0
 20
1.0
 30
0.0
  9
$UCSORTHOREF
  2

  9
$UCSORTHOVIEW
 70
     0
  9
$UCSORGTOP
 10
0.0
 20
0.0
 30
0.0
  9
$UCSORGBOTTOM
 10
0.0
 20
0.0
 30
0.0
  9
$UCSORGLEFT
 10
0.0
 20
0.0
 30
0.0
  9
$UCSORGRIGHT
 10
0.0
 20
0.0
 30
0.0
  9
$UCSORGFRONT
 10
0.0
 20
0.0
 30
0.0
  9
$UCSORGBACK
 10
0.0
 20
0.0
 30
0.0
  9
$PUCSBASE
  2

  9
$PUCSNAME
  2

  9
$PUCSORG
 10
0.0
 20
0.0
 30
0.0
  9
$PUCSXDIR
 10
1.0
 20
0.0
 30
0.0
  9
$PUCSYDIR
 10
0.0
 20
1.0
 30
0.0
  9
$PUCSORTHOREF
  2

  9
$PUCSORTHOVIEW
 70
     0
  9
$PUCSORGTOP
 10
0.0
 20
0.0
 30
0.0
  9
$PUCSORGBOTTOM
 10
0.0
 20
0.0
 30
0.0
  9
$PUCSORGLEFT
 10
0.0
 20
0.0
 30
0.0
  9
$PUCSORGRIGHT
 10
0.0
 20
0.0
 30
0.0
  9
$PUCSORGFRONT
 10
0.0
 20
0.0
 30
0.0
  9
$PUCSORGBACK
 10
0.0
 20
0.0
 30
0.0
  9
$USERI1
 70
     0
  9
$USERI2
 70
     0
  9
$USERI3
 70
     0
  9
$USERI4
 70
     0
  9
$USERI5
 70
     0
  9
$USERR1
 40
0.0
  9
$USERR2
 40
0.0
  9
$USERR3
 40
0.0
  9
$USERR4
 40
0.0
  9
$USERR5
 40
0.0
  9
$WORLDVIEW
 70
     1
  9
$SHADEDGE
 70
     3
  9
$SHADEDIF
 70
    70
  9
$TILEMODE
 70
     1
  9
$MAXACTVP
 70
    16
  9
$PINSBASE
 10
0.0
 20
0.0
 30
0.0
  9
$PLIMCHECK
 70
     0
  9
$PEXTMIN
 10
1.000000000000000E+20
 20
1.000000000000000E+20
 30
1.000000000000000E+20
  9
$PEXTMAX
 10
-1.000000000000000E+20
 20
-1.000000000000000E+20
 30
-1.000000000000000E+20
  9
$PLIMMIN
 10
0.0
 20
0.0
  9
$PLIMMAX
 10
12.0
 20
9.0
  9
$UNITMODE
 70
     0
  9
$VISRETAIN
 70
     0
  9
$PLINEGEN
 70
     1
  9
$PSLTSCALE
 70
     0
  9
$TREEDEPTH
 70
  3020
  9
$CMLSTYLE
  2
Standard
  9
$CMLJUST
 70
     0
  9
$CMLSCALE
 40
1.0
  9
$PROXYGRAPHICS
 70
     1
  9
$MEASUREMENT
 70
     0
  9
$CELWEIGHT
370
    -1
  9
$ENDCAPS
280
     0
  9
$JOINSTYLE
280
     0
  9
$LWDISPLAY
290
     0
  9
$INSUNITS
 70
     0
  9
$HYPERLINKBASE
  1

  9
$STYLESHEET
  1

  9
$XEDIT
290
     1
  9
$CEPSNTYPE
380
     0
  9
$PSTYLEMODE
290
     1
  9
$FINGERPRINTGUID
  2
{F6A2CFC7-8280-4B46-B939-81AB7BE7ED3C}
  9
$VERSIONGUID
  2
{BD51CAC8-2E2D-447E-8C23-029DE4041687}
  9
$EXTNAMES
290
     1
  9
$PSVPSCALE
 40
0.0
  9
$OLESTARTUP
290
     0
  0
ENDSEC
  0
SECTION
  2
CLASSES
  0
CLASS
  1
ACDBDICTIONARYWDFLT
  2
AcDbDictionaryWithDefault
  3
AutoCAD 2000
 90
        0
280
     0
281
     0
  0
CLASS
  1
ACDBPLACEHOLDER
  2
AcDbPlaceHolder
  3
AutoCAD 2000
 90
        0
280
     0
281
     0
  0
CLASS
  1
LAYOUT
  2
AcDbLayout
  3
AutoCAD 2000
 90
        0
280
     0
281
     0
  0
CLASS
  1
AMGSETTINGSOBJ
  2
AmgSettingsObj
  3
"AcadM|Product Description: AutoCAD Mechanical 2000|Company: Autodesk"
 90
        0
280
     0
281
     0
  0
CLASS
  1
ACME_DOCUMENT
  2
AcMeDbDoc
  3
AcMeServices
 90
        0
280
     0
281
     0
  0
CLASS
  1
ACMESCOPE
  2
AcMeScope
  3
AcMeServices
 90
        0
280
     0
281
     0
  0
CLASS
  1
ACMECOMMANDHISTORY
  2
AcMeCommandHistory
  3
AcMeServices
 90
        0
280
     0
281
     0
  0
CLASS
  1
ACIMSYSVARMAN
  2
AcImSysVarManager
  3
AcMeServices
 90
        0
280
     0
281
     0
  0
CLASS
  1
ACIMREALSYSVAR
  2
AcImRealSysVar
  3
AcMeServices
 90
        0
280
     0
281
     0
  0
CLASS
  1
ACIMINTSYSVAR
  2
AcImIntSysVar
  3
AcMeServices
 90
        0
280
     0
281
     0
  0
CLASS
  1
ACMEDRAWINGMAN
  2
AcMeDrawingMan
  3
AcMeServices
 90
        0
280
     0
281
     0
  0
CLASS
  1
ACMEVIEW
  2
AcMeView
  3
AcMeServices
 90
        0
280
     0
281
     0
  0
CLASS
  1
ACDBENTITYCACHE
  2
AcMeEntityCache
  3
AcMeServices
 90
        0
280
     0
281
     0
  0
CLASS
  1
GSMANAGER
  2
AcMeGSManager
  3
AcMeServices
 90
        0
280
     0
281
     0
  0
CLASS
  1
AMDTINTERNALREACTOR
  2
AmdtInternalReactor
  3
AcMeServices
 90
        0
280
     0
281
     0
  0
CLASS
  1
ACMESTATEMGR
  2
AcMeStateMgr
  3
AcMeServices
 90
        0
280
     0
281
     0
  0
CLASS
  1
ACGREFMASTER
  2
AcGrefMaster
  3
AcAttribServices
 90
        0
280
     0
281
     0
  0
CLASS
  1
AM_DRAWING_MGR
  2
AcDmDwgMgr
  3
AcMechDwgViewMgmt
 90
        0
280
     0
281
     0
  0
CLASS
  1
AM_DWG_DOCUMENT
  2
AcDmDwgDocument
  3
AcMechDwgViewMgmt
 90
        0
280
     0
281
     0
  0
CLASS
  1
AM_DWG_SHEET
  2
AcDmSheet
  3
AcMechDwgViewMgmt
 90
        0
280
     0
281
     0
  0
CLASS
  1
AM_VIEWDIMPARMAP
  2
AcDmViewDimParMap
  3
AcMechDwgViewMgmt
 90
        0
280
     0
281
     0
  0
CLASS
  1
AM_DWGMGR_NAME
  2
AcDmDwgMgrName
  3
AcMechDwgViewMgmt
 90
        0
280
     0
281
     0
  0
CLASS
  1
ACME_DATABASE
  2
AcMeDbDatabase
  3
AcMeServices
 90
        0
280
     0
281
     0
  0
CLASS
  1
ACRFINSADJUSTERMGR
  2
AcRfInsAdjusterMgr
  3
AcMeServices
 90
        0
280
     0
281
     0
  0
CLASS
  1
ACGREFACADMASTER
  2
AcGrefacadMaster
  3
AcGrefServices
 90
        0
280
     0
281
     0
  0
CLASS
  1
AMDTMENUSTATEMGR
  2
AmdtMenuStateMgr
  3
McadcomServices
 90
        0
280
     0
281
     0
  0
CLASS
  1
AMDTMCOMMENUSTATE
  2
AmdtMcomMenuState
  3
McadcomServices
 90
        0
280
     0
281
     0
  0
CLASS
  1
AMIMASTER
  2
AmiMaster
  3
AmiServices
 90
        0
280
     0
281
     0
  0
CLASS
  1
ASAPP
  2
AcAsAppObject
  3
AutoSurfServices
 90
        0
280
     0
281
     0
  0
CLASS
  1
IM_STATIC_MAN
  2
AcImStaticVarManager
  3
AcMeServices
 90
        0
280
     0
281
     0
  0
CLASS
  1
ACIMSTRSYSVAR
  2
AcImStrSysVar
  3
AcMeServices
 90
        0
280
     0
281
     0
  0
CLASS
  1
ACIMDBLSTATICVAR
  2
AcImDblStaticVar
  3
AcMeServices
 90
        0
280
     0
281
     0
  0
CLASS
  1
ACIMSTRSTATICVAR
  2
AcImStrStaticVar
  3
AcMeServices
 90
        0
280
     0
281
     0
  0
CLASS
  1
ACIMINTSTATICVAR
  2
AcImIntStaticVar
  3
AcMeServices
 90
        0
280
     0
281
     0
  0
CLASS
  1
ACASGREFMASTER
  2
AcAsGrefMaster
  3
AutoSurfResolverServices
 90
        0
280
     0
281
     0
  0
CLASS
  1
ACADGREFMODULE
  2
AcAdGrefModule
  3
AdGrefServices
 90
        0
280
     0
281
     0
  0
CLASS
  1
AMDTMAPISURFMOUDULE
  2
AmdtMApiSurfModule
  3
MApiSurfServices
 90
    32768
280
     0
281
     0
  0
CLASS
  1
MAPIAMMOUDLE
  2
MApiAmModule
  3
MApiAmServices
 90
        0
280
     0
281
     0
  0
CLASS
  1
AMDTADMENUSTATE
  2
AmdtAdMenuState
  3
DesignerServices
 90
        0
280
     0
281
     0
  0
CLASS
  1
ADAPPL
  2
AcAdAppl
  3
DesignerServices
 90
        0
280
     0
281
     0
  0
CLASS
  1
DEPMGR
  2
AcAdDepMgr
  3
DesignerServices
 90
        0
280
     0
281
     0
  0
CLASS
  1
PARAMMGR
  2
AcAdParamMgr
  3
DesignerServices
 90
        0
280
     0
281
     0
  0
CLASS
  1
PARAMSCOPE
  2
AcAdParamScope
  3
DesignerServices
 90
        0
280
     0
281
     0
  0
CLASS
  1
NAMEDAPPL
  2
AcAdNamedAppl
  3
DesignerServices
 90
        0
280
     0
281
     0
  0
CLASS
  1
AMDTDMMENUSTATE
  2
AmdtDmMenuState
  3
AcMechDwgViewMgmt
 90
        0
280
     0
281
     0
  0
CLASS
  1
MAPIADMODULE
  2
MApiAdModule
  3
MApiAdServices
 90
        0
280
     0
281
     0
  0
CLASS
  1
AMDTAMMENUSTATE
  2
AmdtAmMenuState
  3
DesignerAssemblies
 90
        0
280
     0
281
     0
  0
CLASS
  1
ACAMPROJECT
  2
AcAmProject
  3
DesignerAssemblies
 90
        0
280
     0
281
     0
  0
CLASS
  1
ACAMGRCOMPDEF
  2
AcAmGrCompDef
  3
DesignerAssemblies
 90
        0
280
     0
281
     0
  0
CLASS
  1
ACCMCONTEXT
  2
AcCmContext
  3
DesignerAssemblies
 90
        0
280
     0
281
     0
  0
CLASS
  1
ACAMCOMPDEF
  2
AcAmCompDef
  3
DesignerAssemblies
 90
        0
280
     0
281
     0
  0
CLASS
  1
ACAMCOMPDEFMGR
  2
AcAmCompDefMgr
  3
DesignerAssemblies
 90
        0
280
     0
281
     0
  0
CLASS
  1
AMCONTEXTMGR
  2
AcAmContextMgr
  3
DesignerAssemblies
 90
        0
280
     0
281
     0
  0
CLASS
  1
ACAMCONTEXTMODELER
  2
AcAmContextModeler
  3
DesignerAssemblies
 90
        0
280
     0
281
     0
  0
CLASS
  1
ACMDATADICTIONARY
  2
AcmDataDictionary
  3
"AcmSymBB|Product Description: AutoCAD Mechanical 2000|Company: Autodesk"
 90
        0
280
     0
281
     0
  0
CLASS
  1
ACMDATAENTRYBLOCK
  2
AcmDataEntryBlock
  3
"AcmSymBB|Product Description: AutoCAD Mechanical 2000|Company: Autodesk"
 90
        0
280
     0
281
     0
  0
CLASS
  1
CATALOGSTATE
  2
AcAmCatalogState
  3
DesignerAssemblies
 90
        0
280
     0
281
     0
  0
CLASS
  1
ACAMGRCOMPDEFSET
  2
AcAmGrCompDefSet
  3
DesignerAssemblies
 90
        0
280
     0
281
     0
  0
CLASS
  1
AMDTBROWSERDBTAB
  2
AmdtBrowserDbTab
  3
McadcomServices
 90
        0
280
     0
281
     0
  0
CLASS
  1
CBROWSERAPPOBJECT
  2
CBrowserAppObject
  3
McadcomServices
 90
        0
280
     0
281
     0
  0
CLASS
  1
DM_PLACEHOLDER
  2
AcDmSelsetPlaceholder
  3
AcMechDwgViewMgmt
 90
        0
280
     0
281
     0
  0
CLASS
  1
ACMSTANDARDANSI
  2
AcmStandardANSI
  3
"Amdt_StdImp|Product Description: AutoCAD Mechanical 2000|Company: Autodesk"
 90
    32768
280
     0
281
     0
  0
CLASS
  1
AMGOBJPROPCFG
  2
AmgObjPropCfg
  3
"AmgLay|Product Description: AutoCAD Mechanical 2000|Company: Autodesk"
 90
        1
280
     0
281
     0
  0
CLASS
  1
ACMSURFSTANDARDANSI
  2
AcmSurfTextStdANSI
  3
"Amdt_StdImp|Product Description: AutoCAD Mechanical 2000|Company: Autodesk"
 90
    32768
280
     0
281
     0
  0
CLASS
  1
ACMFCFSTANDARDANSI
  2
AcmFCFStdANSI
  3
"Amdt_StdImp|Product Description: AutoCAD Mechanical 2000|Company: Autodesk"
 90
    32768
280
     0
281
     0
  0
CLASS
  1
ACMWELDSTANDARDANSI
  2
AcmWeldingStdANSI
  3
"Amdt_StdImp|Product Description: AutoCAD Mechanical 2000|Company: Autodesk"
 90
    32768
280
     0
281
     0
  0
CLASS
  1
ACMIDSTANDARDANSI
  2
AcmIdStdANSI
  3
"Amdt_StdImp|Product Description: AutoCAD Mechanical 2000|Company: Autodesk"
 90
    32768
280
     0
281
     0
  0
CLASS
  1
ACMDATUMSTANDARDANSI
  2
AcmDatumStdANSI
  3
"Amdt_StdImp|Product Description: AutoCAD Mechanical 2000|Company: Autodesk"
 90
    32768
280
     0
281
     0
  0
CLASS
  1
ACMBOMSTANDARDANSI
  2
AcmBOMStdANSI
  3
"Amdt_StdImp|Product Description: AutoCAD Mechanical 2000|Company: Autodesk"
 90
    32768
280
     0
281
     0
  0
CLASS
  1
ACMDETAILSTANDARDANSI
  2
AmdtDetailSymStdANSI
  3
"Amdt_StdImp|Product Description: AutoCAD Mechanical 2000|Company: Autodesk"
 90
    32768
280
     0
281
     0
  0
CLASS
  1
ACMSECTIONSTANDARDANSI
  2
AmdtSectionSymStdANSI
  3
"Amdt_StdImp|Product Description: AutoCAD Mechanical 2000|Company: Autodesk"
 90
    32768
280
     0
281
     0
  0
CLASS
  1
ACMCENTERLINESTANDARDANSI
  2
AmdtCenterLineStdANSI
  3
"Amdt_StdImp|Product Description: AutoCAD Mechanical 2000|Company: Autodesk"
 90
    32768
280
     0
281
     0
  0
CLASS
  1
ACMTHREADLINESTANDARDANSI
  2
AmdtThreadLineStdANSI
  3
"Amdt_StdImp|Product Description: AutoCAD Mechanical 2000|Company: Autodesk"
 90
    32768
280
     0
281
     0
  0
CLASS
  1
ACMNOTESTANDARDANSI
  2
AmdtNoteStdANSI
  3
"Amdt_StdImp|Product Description: AutoCAD Mechanical 2000|Company: Autodesk"
 90
    32768
280
     0
281
     0
  0
CLASS
  1
ACAMGLAYSTD
  2
AcAmgLayStd
  3
"AcAmgLayStd|Product Description: AutoCAD Mechanical 2000|Company: Autodesk"
 90
    32768
280
     0
281
     0
  0
CLASS
  1
ACAMGDIMSTD
  2
AcAmgDimStd
  3
"AcAmgDimStd|Product Description: AutoCAD Mechanical 2000|Company: Autodesk"
 90
    32768
280
     0
281
     0
  0
CLASS
  1
ACAMGHOLECHARTSTDANSI
  2
AcAmgHoleChartStdANSI
  3
ACMSYMBB_MODULE_NAME
 90
    32768
280
     0
281
     0
  0
CLASS
  1
ACAMGTITLESTD
  2
AcAmgTitleStd
  3
"TITLEAPP"
 90
    32768
280
     0
281
     0
  0
CLASS
  1
ACAMGFILTERDAT
  2
AcAmgFilterDat
  3
"AcadM|Product Description: AutoCAD Mechanical 2000|Company: Autodesk"
 90
        0
280
     0
281
     0
  0
CLASS
  1
LAYER_INDEX
  2
AcDbLayerIndex
  3
AutoCAD 2000
 90
        0
280
     0
281
     0
  0
CLASS
  1
IDBUFFER
  2
AcDbIdBuffer
  3
AutoCAD 2000
 90
        0
280
     0
281
     0
  0
CLASS
  1
DICTIONARYVAR
  2
AcDbDictionaryVar
  3
AutoCAD 2000
 90
        0
280
     0
281
     0
  0
CLASS
  1
AMDTFORMULAUPDATEDISPATCHER
  2
AmdtFormulaUpdateDispatcher
  3
AcMeServices
 90
        0
280
     0
281
     0
  0
ENDSEC
  0
SECTION
  2
TABLES
  0
TABLE
  2
VPORT
  5
8
330
0
100
AcDbSymbolTable
 70
     3
  0
VPORT
  5
4C5
330
8
100
AcDbSymbolTableRecord
100
AcDbViewportTableRecord
  2
*Active
 70
     0
 10
0.0
 20
0.0
 11
1.0
 21
1.0
 12
0.0
 22
0.0
 13
0.0
 23
0.0
 14
0.5
 24
0.5
 15
1.0
 25
1.0
 16
0.0
 26
0.0
 36
1.0
 17
347.5747877228742
 27
280.4030091962165
 37
0.0
 40
377.0561545368904
 41
1.489721886336154
 42
50.0
 43
0.0
 44
0.0
 50
0.0
 51
0.0
 71
     0
 72
   500
 73
     1
 74
     1
 75
     0
 76
     0
 77
     0
 78
     0
281
     0
 65
     0
110
0.0
120
0.0
130
0.0
111
1.0
121
0.0
131
0.0
112
0.0
122
1.0
132
0.0
 79
     0
146
0.0
  0
ENDTAB
  0
TABLE
  2
LTYPE
  5
5
330
0
100
AcDbSymbolTable
 70
    19
  0
LTYPE
  5
13
330
5
100
AcDbSymbolTableRecord
100
AcDbLinetypeTableRecord
  2
ByBlock
 70
     0
  3

 72
    65
 73
     0
 40
0.0
  0
LTYPE
  5
14
330
5
100
AcDbSymbolTableRecord
100
AcDbLinetypeTableRecord
  2
ByLayer
 70
     0
  3

 72
    65
 73
     0
 40
0.0
  0
LTYPE
  5
15
330
5
100
AcDbSymbolTableRecord
100
AcDbLinetypeTableRecord
  2
CONTINUOUS
 70
     0
  3
実線
 72
    65
 73
     0
 40
0.0
  0
LTYPE
  5
24
330
5
100
AcDbSymbolTableRecord
100
AcDbLinetypeTableRecord
  2
CENTER
 70
     0
  3
____ _ ____ _ ____ _ ____ _ ____ _ ____ _ ____
 72
    65
 73
     4
 40
2.0
 49
1.25
 74
     0
 49
-0.25
 74
     0
 49
0.25
 74
     0
 49
-0.25
 74
     0
  0
LTYPE
  5
25
330
5
100
AcDbSymbolTableRecord
100
AcDbLinetypeTableRecord
  2
TENSEN1
 70
     0
  3

 72
    65
 73
     2
 40
0.4
 49
0.3
 74
     0
 49
-0.1
 74
     0
  0
LTYPE
  5
171
330
5
100
AcDbSymbolTableRecord
100
AcDbLinetypeTableRecord
  2
HIDDEN
 70
     0
  3
Hidden __ __ __ __ __ __ __ __ __ __ __ __ __ _
 72
    65
 73
     2
 40
0.375
 49
0.25
 74
     0
 49
-0.125
 74
     0
  0
LTYPE
  5
172
330
5
100
AcDbSymbolTableRecord
100
AcDbLinetypeTableRecord
  2
PHANTOM2
 70
     0
  3
Phantom (.5x) ___ _ _ ___ _ _ ___ _ _ ___ _ _
 72
    65
 73
     6
 40
1.25
 49
0.625
 74
     0
 49
-0.125
 74
     0
 49
0.125
 74
     0
 49
-0.125
 74
     0
 49
0.125
 74
     0
 49
-0.125
 74
     0
  0
LTYPE
  5
1D4
330
5
100
AcDbSymbolTableRecord
100
AcDbLinetypeTableRecord
  2
ASULTYPE
 70
     0
  3
実線
 72
    65
 73
     2
 40
3.0
 49
2.5
 74
     0
 49
0.5
 74
     0
  0
LTYPE
  5
1D5
330
5
100
AcDbSymbolTableRecord
100
AcDbLinetypeTableRecord
  2
ASVLTYPE
 70
     0
  3
__ __ __ __ __ __ __ __ __ __ __ __ __ __ __ __ __ __ __ __ __
 72
    65
 73
     2
 40
0.75
 49
0.5
 74
     0
 49
-0.25
 74
     0
  0
LTYPE
  5
219
330
5
100
AcDbSymbolTableRecord
100
AcDbLinetypeTableRecord
  2
AM_ISO02W050
 70
     0
  3
__ __ __ __ __ __ __ __ __ __ __ __ __ __ __
 72
    65
 73
     2
 40
7.5
 49
6.0
 74
     0
 49
-1.5
 74
     0
  0
LTYPE
  5
21A
330
5
100
AcDbSymbolTableRecord
100
AcDbLinetypeTableRecord
  2
AM_ISO08W050
 70
     0
  3
____ . ____ . ____ . ____ . ____ . ____ . ____
 72
    65
 73
     4
 40
18.0
 49
12.0
 74
     0
 49
-1.5
 74
     0
 49
3.0
 74
     0
 49
-1.5
 74
     0
  0
LTYPE
  5
21B
330
5
100
AcDbSymbolTableRecord
100
AcDbLinetypeTableRecord
  2
AM_ISO09W050
 70
     0
  3
_____ . . _____ . . _____ . . ____ .. ____
 72
    65
 73
     6
 40
22.5
 49
12.0
 74
     0
 49
-1.5
 74
     0
 49
3.0
 74
     0
 49
-1.5
 74
     0
 49
3.0
 74
     0
 49
-1.5
 74
     0
  0
LTYPE
  5
21C
330
5
100
AcDbSymbolTableRecord
100
AcDbLinetypeTableRecord
  2
Amconstr
 70
     0
  3
_______________________
 72
    65
 73
     2
 40
9999.0
 49
9999.0
 74
     0
 49
0.0
 74
     0
  0
LTYPE
  5
21D
330
5
100
AcDbSymbolTableRecord
100
AcDbLinetypeTableRecord
  2
AM_ISO08W050x2
 70
     0
  3
__ . __ . __ . __ . __ . __
 72
    65
 73
     4
 40
9.0
 49
6.0
 74
     0
 49
-0.75
 74
     0
 49
1.5
 74
     0
 49
-0.75
 74
     0
  0
LTYPE
  5
21E
330
5
100
AcDbSymbolTableRecord
100
AcDbLinetypeTableRecord
  2
AM_ISO02W050x2
 70
     0
  3
 _ _ _ _ _ _ _ _ _ _ _ _
 72
    65
 73
     2
 40
3.75
 49
3.0
 74
     0
 49
-0.75
 74
     0
  0
LTYPE
  5
221
330
5
100
AcDbSymbolTableRecord
100
AcDbLinetypeTableRecord
  2
Amzigzag
 70
     0
  3
/\/-/\/-/\/-/\/-/\/-/\/
 72
    65
 73
     2
 40
11.00009999999999
 49
0.0001
 74
     4
 75
   135
340
220
 46
0.04
 50
0.0
 44
0.0
 45
0.0
 49
-11.0
 74
     0
  0
LTYPE
  5
222
330
5
100
AcDbSymbolTableRecord
100
AcDbLinetypeTableRecord
  2
CENTER2
 70
     0
  3
Center (.5x) ___ _ ___ _ ___ _ ___ _ ___ _ ___
 72
    65
 73
     4
 40
1.125
 49
0.75
 74
     0
 49
-0.125
 74
     0
 49
0.125
 74
     0
 49
-0.125
 74
     0
  0
LTYPE
  5
223
330
5
100
AcDbSymbolTableRecord
100
AcDbLinetypeTableRecord
  2
HIDDEN2
 70
     0
  3
Hidden (.5x) _ _ _ _ _ _ _ _ _ _ _ _ _ _ _ _ _
 72
    65
 73
     2
 40
0.1875
 49
0.125
 74
     0
 49
-0.0625
 74
     0
  0
LTYPE
  5
224
330
5
100
AcDbSymbolTableRecord
100
AcDbLinetypeTableRecord
  2
Amzigzag2
 70
     0
  3
/\/-/\/-/\/-/\/-/\/-/\/
 72
    65
 73
     2
 40
0.4401
 49
0.0001
 74
     4
 75
   135
340
220
 46
0.0016
 50
0.0
 44
0.0
 45
0.0
 49
-0.4400000000000003
 74
     0
  0
LTYPE
  5
232
330
5
100
AcDbSymbolTableRecord
100
AcDbLinetypeTableRecord
  2
ACANSTGB
 70
     0
  3
__ . . __ . .
 72
    65
 73
     6
 40
0.35433070866
 49
0.15748031496
 74
     0
 49
-0.03937007874
 74
     0
 49
0.03937007874
 74
     0
 49
-0.03937007874
 74
     0
 49
0.03937007874
 74
     0
 49
-0.03937007874
 74
     0
  0
LTYPE
  5
233
330
5
100
AcDbSymbolTableRecord
100
AcDbLinetypeTableRecord
  2
ACANSTGL
 70
     0
  3
_ _ _ _ _
 72
    65
 73
     2
 40
0.11811023622
 49
0.07874015748
 74
     0
 49
-0.03937007874
 74
     0
  0
ENDTAB
  0
TABLE
  2
LAYER
  5
2
330
0
100
AcDbSymbolTable
 70
     5
  0
LAYER
  5
10
330
2
100
AcDbSymbolTableRecord
100
AcDbLayerTableRecord
  2
0
 70
     0
 62
     7
  6
CONTINUOUS
370
    -3
390
F
  0
LAYER
  5
26
330
2
100
AcDbSymbolTableRecord
100
AcDbLayerTableRecord
  2
1
 70
     0
 62
     1
  6
CENTER
370
    -3
390
F
  0
LAYER
  5
27
330
2
100
AcDbSymbolTableRecord
100
AcDbLayerTableRecord
  2
10
 70
     0
 62
     7
  6
CONTINUOUS
370
    -3
390
F
  0
LAYER
  5
28
330
2
100
AcDbSymbolTableRecord
100
AcDbLayerTableRecord
  2
11
 70
     0
 62
     3
  6
CONTINUOUS
370
    -3
390
F
  0
LAYER
  5
29
330
2
100
AcDbSymbolTableRecord
100
AcDbLayerTableRecord
  2
2
 70
     0
 62
     2
  6
TENSEN1
370
    -3
390
F
  0
ENDTAB
  0
TABLE
  2
STYLE
  5
3
330
0
100
AcDbSymbolTable
 70
     5
  0
STYLE
  5
11
330
3
100
AcDbSymbolTableRecord
100
AcDbTextStyleTableRecord
  2
STANDARD
 70
     0
 40
0.0
 41
1.0
 50
0.0
 71
     0
 42
0.2
  3
TXT
  4
BIGFONT
  0
STYLE
  5
22
330
3
100
AcDbSymbolTableRecord
100
AcDbTextStyleTableRecord
  2
BIGFONT
 70
     0
 40
10.0
 41
0.8
 50
0.0
 71
     0
 42
10.0
  3

  4
bigfont
  0
STYLE
  5
220
330
3
100
AcDbSymbolTableRecord
100
AcDbTextStyleTableRecord
  2

 70
     1
 40
0.0
 41
1.0
 50
0.0
 71
     0
 42
10.0
  3
ltypeshp.shx
  4

  0
STYLE
  5
225
330
3
100
AcDbSymbolTableRecord
100
AcDbTextStyleTableRecord
  2
ACANSTS
 70
     0
 40
1.0
 41
1.0
 50
0.0
 71
     0
 42
10.0
  3
romans.shx
  4
extfont.shx
  0
STYLE
  5
231
330
3
100
AcDbSymbolTableRecord
100
AcDbTextStyleTableRecord
  2
ACANSGDT
 70
     0
 40
0.0
 41
1.0
 50
0.0
 71
     0
 42
10.0
  3
amgdtans.shx
  4

  0
ENDTAB
  0
TABLE
  2
VIEW
  5
6
330
0
100
AcDbSymbolTable
 70
     1
  0
VIEW
  5
2B
330
6
100
AcDbSymbolTableRecord
100
AcDbViewTableRecord
  2
ALL
 70
     0
 40
540.0
 10
441.9831932773107
 20
270.0
 41
0.0
 11
0.0
 21
0.0
 31
1.0
 12
0.0
 22
0.0
 32
0.0
 42
50.0
 43
0.0
 44
0.0
 50
0.0
 71
     0
281
     0
 72
     0
  0
ENDTAB
  0
TABLE
  2
UCS
  5
7
330
0
100
AcDbSymbolTable
 70
     0
  0
ENDTAB
  0
TABLE
  2
APPID
  5
9
330
0
100
AcDbSymbolTable
 70
    13
  0
APPID
  5
12
330
9
100
AcDbSymbolTableRecord
100
AcDbRegAppTableRecord
  2
ACAD
 70
     0
  0
APPID
  5
14F
330
9
100
AcDbSymbolTableRecord
100
AcDbRegAppTableRecord
  2
GENIUS_GENDIM_13
 70
     0
  0
APPID
  5
150
330
9
100
AcDbSymbolTableRecord
100
AcDbRegAppTableRecord
  2
GENIUS_GENDTOL_13
 70
     0
  0
APPID
  5
151
330
9
100
AcDbSymbolTableRecord
100
AcDbRegAppTableRecord
  2
GENIUS_GE3DTOL_13
 70
     0
  0
APPID
  5
154
330
9
100
AcDbSymbolTableRecord
100
AcDbRegAppTableRecord
  2
MCAD_NO_VIS
 70
     0
  0
APPID
  5
155
330
9
100
AcDbSymbolTableRecord
100
AcDbRegAppTableRecord
  2
ACAD_TEMP_GRAPHIC
 70
     0
  0
APPID
  5
187
330
9
100
AcDbSymbolTableRecord
100
AcDbRegAppTableRecord
  2
AD_DRAW
 70
     0
  0
APPID
  5
18A
330
9
100
AcDbSymbolTableRecord
100
AcDbRegAppTableRecord
  2
ACATTRIBSERVICES
 70
     0
  0
APPID
  5
1D6
330
9
100
AcDbSymbolTableRecord
100
AcDbRegAppTableRecord
  2
ASURF_PCURVE_APPNAME
 70
     0
  0
APPID
  5
1DB
330
9
100
AcDbSymbolTableRecord
100
AcDbRegAppTableRecord
  2
AMG_3D2D_5.0
 70
     0
  0
APPID
  5
206
330
9
100
AcDbSymbolTableRecord
100
AcDbRegAppTableRecord
  2
DESIGNERASSEMBLIES
 70
     0
  0
APPID
  5
20E
330
9
100
AcDbSymbolTableRecord
100
AcDbRegAppTableRecord
  2
ACADM_DIM_EDIT
 70
     0
  0
APPID
  5
20F
330
9
100
AcDbSymbolTableRecord
100
AcDbRegAppTableRecord
  2
AMDT_DM_ADJ
 70
     0
  0
ENDTAB
  0
TABLE
  2
DIMSTYLE
  5
A
330
0
100
AcDbSymbolTable
 70
     7
100
AcDbDimStyleTable
 71
     0
  0
DIMSTYLE
105
2A
330
A
100
AcDbSymbolTableRecord
100
AcDbDimStyleTableRecord
  2
STANDARD
 70
     0
279
     2
340
22
  0
DIMSTYLE
105
238
330
A
100
AcDbSymbolTableRecord
100
AcDbDimStyleTableRecord
  2
AM_ANSI
 70
     0
  4
mm
 41
0.1
 42
0.05
 43
0.5
 44
0.1
 47
0.1
 48
0.1
 78
     7
 79
     2
140
0.12
141
0.0
146
0.71
147
0.06
176
   256
177
   256
178
     2
274
     4
284
     7
340
11
371
    -1
372
    -1
  0
DIMSTYLE
105
239
330
A
100
AcDbSymbolTableRecord
100
AcDbDimStyleTableRecord
  2
AM_ANSI$3
 70
     0
  4
mm
 41
0.1
 42
0.05
 43
0.5
 44
0.1
 47
0.1
 48
0.1
 78
     7
 79
     2
140
0.12
141
0.0
146
0.71
147
0.06
176
   256
177
   256
178
     2
274
     4
284
     7
288
     1
289
     0
340
11
371
    -1
372
    -1
  0
DIMSTYLE
105
23A
330
A
100
AcDbSymbolTableRecord
100
AcDbDimStyleTableRecord
  2
AM_ANSI$4
 70
     0
  4
mm
 41
0.1
 42
0.05
 43
0.5
 44
0.1
 47
0.1
 48
0.1
 78
     7
 79
     2
140
0.12
141
0.0
146
0.71
147
0.06
176
   256
177
   256
178
     2
274
     4
284
     7
288
     1
289
     0
340
11
371
    -1
372
    -1
  0
DIMSTYLE
105
23B
330
A
100
AcDbSymbolTableRecord
100
AcDbDimStyleTableRecord
  2
AM_ANSI$7
 70
     0
  4
mm
 41
0.1
 42
0.05
 43
0.5
 44
0.1
 47
0.1
 48
0.1
 78
     7
 79
     2
140
0.24
141
0.0
146
0.71
147
0.06
176
   256
177
   256
178
     2
274
     4
284
     7
340
11
371
    -1
372
    -1
  0
DIMSTYLE
105
23C
330
A
100
AcDbSymbolTableRecord
100
AcDbDimStyleTableRecord
  2
AM_ANSI$SF
 70
     0
  4
mm
 41
0.1
 42
0.05
 43
0.5
 44
0.1
 47
0.1
 48
0.1
 75
     1
 76
     1
 78
     7
 79
     2
140
0.12
141
0.0
146
0.71
147
0.06
176
   256
177
   256
178
     2
274
     4
284
     7
340
11
371
    -1
372
    -1
  0
DIMSTYLE
105
241
330
A
100
AcDbSymbolTableRecord
100
AcDbDimStyleTableRecord
  2
AM_ANSI$SH
 70
     0
  4
mm
 41
0.1
 42
0.05
 43
0.5
 44
0.1
 47
0.1
 48
0.1
 75
     1
 76
     1
 78
     7
 79
     2
140
0.12
141
0.0
146
0.71
147
0.06
173
     1
176
   256
177
   256
178
     2
274
     4
284
     7
340
11
341
23D
343
23D
371
    -1
372
    -1
  0
ENDTAB
  0
TABLE
  2
BLOCK_RECORD
  5
1
330
0
100
AcDbSymbolTable
 70
     6
  0
BLOCK_RECORD
  5
1E
102
{ACAD_XDICTIONARY
360
24C
102
}
330
1
100
AcDbSymbolTableRecord
100
AcDbBlockTableRecord
  2
*Model_Space
340
21
  0
BLOCK_RECORD
  5
1A
330
1
100
AcDbSymbolTableRecord
100
AcDbBlockTableRecord
  2
*Paper_Space
340
1D
  0
BLOCK_RECORD
  5
2F
330
1
100
AcDbSymbolTableRecord
100
AcDbBlockTableRecord
  2
QQ
340
0
102
{BLKREFS
331
3B
102
}
  0
BLOCK_RECORD
  5
1FD
330
1
100
AcDbSymbolTableRecord
100
AcDbBlockTableRecord
  2
*U1
340
0
  0
BLOCK_RECORD
  5
23D
330
1
100
AcDbSymbolTableRecord
100
AcDbBlockTableRecord
  2
GENAXEH
340
0
  0
BLOCK_RECORD
  5
305
330
1
100
AcDbSymbolTableRecord
100
AcDbBlockTableRecord
  2
*U3
340
0
  0
BLOCK_RECORD
  5
3E5
330
1
100
AcDbSymbolTableRecord
100
AcDbBlockTableRecord
  2
*U4
340
0
  0
BLOCK_RECORD
  5
4AD
330
1
100
AcDbSymbolTableRecord
100
AcDbBlockTableRecord
  2
*U5
340
0
  0
ENDTAB
  0
ENDSEC
  0
SECTION
  2
BLOCKS
  0
BLOCK
  5
1F
330
1E
100
AcDbEntity
  8
0
100
AcDbBlockBegin
  2
*Model_Space
 70
     0
 10
0.0
 20
0.0
 30
0.0
  3
*Model_Space
  1

  0
ENDBLK
  5
20
330
1E
100
AcDbEntity
  8
0
100
AcDbBlockEnd
  0
BLOCK
  5
1B
330
1A
100
AcDbEntity
 67
     1
  8
0
100
AcDbBlockBegin
  2
*Paper_Space
 70
     0
 10
0.0
 20
0.0
 30
0.0
  3
*Paper_Space
  1

  0
ENDBLK
  5
1C
330
1A
100
AcDbEntity
 67
     1
  8
0
100
AcDbBlockEnd
  0
BLOCK
  5
30
330
2F
100
AcDbEntity
  8
0
100
AcDbBlockBegin
  2
QQ
 70
     0
 10
270.0
 20
0.0
 30
0.0
  3
QQ
  1

  0
LINE
  5
31
330
2F
100
AcDbEntity
  8
11
100
AcDbLine
 10
172.9999999999995
 20
36.0
 30
0.0
 11
270.0
 21
36.0
 31
0.0
  0
TEXT
  5
32
330
2F
100
AcDbEntity
  8
11
100
AcDbText
 10
175.0
 20
32.5
 30
0.0
 40
2.5
  1
部品名称
100
AcDbText
  0
LINE
  5
33
330
2F
100
AcDbEntity
  8
11
100
AcDbLine
 10
172.9999999999995
 20
36.0
 30
0.0
 11
172.9999999999995
 21
0.0
 31
0.0
  0
LINE
  5
34
330
2F
100
AcDbEntity
  8
11
100
AcDbLine
 10
172.9999999999995
 20
24.0
 30
0.0
 11
270.0
 21
24.0
 31
0.0
  0
TEXT
  5
35
330
2F
100
AcDbEntity
  8
11
100
AcDbText
 10
175.0
 20
20.5
 30
0.0
 40
2.5
  1
品番
100
AcDbText
  0
LINE
  5
36
330
2F
100
AcDbEntity
  8
11
100
AcDbLine
 10
172.9999999999995
 20
12.0
 30
0.0
 11
270.0
 21
12.0
 31
0.0
  0
TEXT
  5
37
330
2F
100
AcDbEntity
  8
11
100
AcDbText
 10
175.0
 20
8.5
 30
0.0
 40
2.5
  1
尺度
100
AcDbText
  0
TEXT
  5
38
330
2F
100
AcDbEntity
  8
11
100
AcDbText
 10
200.0
 20
8.5
 30
0.0
 40
2.5
  1
図番
100
AcDbText
  0
LINE
  5
39
330
2F
100
AcDbEntity
  8
11
100
AcDbLine
 10
198.0
 20
0.0
 30
0.0
 11
198.0
 21
12.0
 31
0.0
  0
ENDBLK
  5
3A
330
2F
100
AcDbEntity
  8
0
100
AcDbBlockEnd
  0
BLOCK
  5
1FE
330
1FD
100
AcDbEntity
  8
0
100
AcDbBlockBegin
  2
*U1
 70
     1
 10
0.0
 20
0.0
 30
0.0
  3
*U1
  1

  0
ENDBLK
  5
1FF
330
1FD
100
AcDbEntity
  8
0
100
AcDbBlockEnd
  0
BLOCK
  5
23F
330
23D
100
AcDbEntity
  8
0
100
AcDbBlockBegin
  2
GENAXEH
 70
     0
 10
0.0
 20
0.0
 30
0.0
  3
GENAXEH
  1

  0
LINE
  5
23E
330
23D
100
AcDbEntity
  8
0
100
AcDbLine
 10
-1.0
 20
0.0
 30
0.0
 11
1.0
 21
0.0
 31
0.0
  0
ENDBLK
  5
240
330
23D
100
AcDbEntity
  8
0
100
AcDbBlockEnd
  0
BLOCK
  5
306
330
305
100
AcDbEntity
  8
0
100
AcDbBlockBegin
  2
*U3
 70
     1
 10
0.0
 20
0.0
 30
0.0
  3
*U3
  1

  0
ENDBLK
  5
307
330
305
100
AcDbEntity
  8
0
100
AcDbBlockEnd
  0
BLOCK
  5
3E6
330
3E5
100
AcDbEntity
  8
0
100
AcDbBlockBegin
  2
*U4
 70
     1
 10
0.0
 20
0.0
 30
0.0
  3
*U4
  1

  0
ENDBLK
  5
3E7
330
3E5
100
AcDbEntity
  8
0
100
AcDbBlockEnd
  0
BLOCK
  5
4AE
330
4AD
100
AcDbEntity
  8
0
100
AcDbBlockBegin
  2
*U5
 70
     1
 10
0.0
 20
0.0
 30
0.0
  3
*U5
  1

  0
ENDBLK
  5
4AF
330
4AD
100
AcDbEntity
  8
0
100
AcDbBlockEnd
  0
ENDSEC
  0
SECTION
  2
ENTITIES
  0
LINE
  5
42
330
1E
100
AcDbEntity
  8
0
100
AcDbLine
 10
304.4999999999999
 20
303.5000012260658
 30
0.0
 11
313.5
 21
303.5000012260658
 31
0.0
  0
LINE
  5
43
330
1E
100
AcDbEntity
  8
0
100
AcDbLine
 10
313.5
 20
303.5000012260658
 30
0.0
 11
313.5
 21
308.5000012260658
 31
0.0
  0
LINE
  5
44
330
1E
100
AcDbEntity
  8
0
100
AcDbLine
 10
304.4999999999999
 20
303.5000012260658
 30
0.0
 11
295.5
 21
303.5000012260658
 31
0.0
  0
LINE
  5
45
330
1E
100
AcDbEntity
  8
0
100
AcDbLine
 10
295.5
 20
303.5000012260658
 30
0.0
 11
295.5
 21
308.5000012260658
 31
0.0
  0
LINE
  5
46
330
1E
100
AcDbEntity
  8
0
100
AcDbLine
 10
314.0
 20
308.5000012260658
 30
0.0
 11
295.0
 21
308.5000012260658
 31
0.0
  0
LINE
  5
47
330
1E
100
AcDbEntity
  8
0
100
AcDbLine
 10
304.4999999999999
 20
322.5000012260658
 30
0.0
 11
297.0
 21
322.5000012260658
 31
0.0
  0
LINE
  5
48
330
1E
100
AcDbEntity
  8
0
100
AcDbLine
 10
304.4999999999999
 20
322.5000012260658
 30
0.0
 11
310.7499999999999
 21
322.5000012260658
 31
0.0
  0
LINE
  5
49
330
1E
100
AcDbEntity
  8
0
100
AcDbLine
 10
295.0
 20
308.5000012260658
 30
0.0
 11
295.9999999999999
 21
321.5000012260659
 31
0.0
  0
LINE
  5
4A
330
1E
100
AcDbEntity
  8
0
100
AcDbLine
 10
297.5
 20
308.5000012260658
 30
0.0
 11
298.4999999999999
 21
321.5000012260659
 31
0.0
  0
LINE
  5
4B
330
1E
100
AcDbEntity
  8
0
100
AcDbLine
 10
311.5
 20
308.5000012260658
 30
0.0
 11
310.4999999999999
 21
321.5000012260659
 31
0.0
  0
LINE
  5
4C
330
1E
100
AcDbEntity
  8
0
100
AcDbLine
 10
312.9999999999999
 20
308.5000012260658
 30
0.0
 11
311.75
 21
321.5000012260659
 31
0.0
  0
LINE
  5
4D
330
1E
100
AcDbEntity
  8
0
100
AcDbLine
 10
308.7499999999999
 20
322.5000012260658
 30
0.0
 11
313.25
 21
327.0000012260658
 31
0.0
  0
LINE
  5
4E
330
1E
100
AcDbEntity
  8
0
100
AcDbLine
 10
313.25
 20
327.0000012260658
 30
0.0
 11
366.9704504763922
 21
337.8926271291131
 31
0.0
  0
LINE
  5
4F
330
1E
100
AcDbEntity
  8
0
100
AcDbLine
 10
369.5
 20
334.0000012260659
 30
0.0
 11
314.9999999999999
 21
320.0000012260658
 31
0.0
  0
LINE
  5
50
330
1E
100
AcDbEntity
  8
0
100
AcDbLine
 10
314.9999999999999
 20
320.0000012260658
 30
0.0
 11
312.9999999999999
 21
308.5000012260658
 31
0.0
  0
LINE
  5
51
330
1E
100
AcDbEntity
  8
0
100
AcDbLine
 10
369.5
 20
334.0000012260659
 30
0.0
 11
368.9999999999998
 21
326.5000012260658
 31
0.0
  0
LINE
  5
52
330
1E
100
AcDbEntity
  8
0
100
AcDbLine
 10
365.5
 20
326.5000012260658
 30
0.0
 11
364.9999999999998
 21
328.0000012260658
 31
0.0
  0
ARC
  5
53
330
1E
100
AcDbEntity
  8
0
100
AcDbCircle
 10
363.3181818181816
 20
327.4204557715203
 30
0.0
 40
1.778871926412494
100
AcDbArc
 50
19.01367438852924
 51
117.3835066387665
  0
LINE
  5
54
330
1E
100
AcDbEntity
  8
0
100
AcDbLine
 10
362.5
 20
329.0000012260658
 30
0.0
 11
324.5
 21
318.5000012260658
 31
0.0
  0
ARC
  5
55
330
1E
100
AcDbEntity
  8
0
100
AcDbCircle
 10
321.5065104166665
 20
312.0585949760658
 30
0.0
 40
7.103006008941855
100
AcDbArc
 50
65.07447715309663
 51
162.0300501926928
  0
LINE
  5
56
330
1E
100
AcDbEntity
  8
0
100
AcDbLine
 10
314.0
 20
308.5000012260658
 30
0.0
 11
314.7499999999999
 21
314.2500012260658
 31
0.0
  0
ARC
  5
57
330
1E
100
AcDbEntity
  8
0
100
AcDbCircle
 10
297.157716950566
 20
321.3422842754998
 30
0.0
 40
1.168410533213249
100
AcDbArc
 50
97.75770573126127
 51
172.2422942687385
  0
ARC
  5
58
330
1E
100
AcDbEntity
  8
0
100
AcDbCircle
 10
310.7232631939288
 20
321.4756263402961
 30
0.0
 40
1.026619519791795
100
AcDbArc
 50
1.277674608319145
 51
85.3319554417475
  0
ARC
  5
59
330
1E
100
AcDbEntity
  8
0
100
AcDbCircle
 10
310.7129420124163
 20
319.3697521416645
 30
0.0
 40
3.130482913946263
100
AcDbArc
 50
88.28169936257371
 51
89.32404220803645
  0
ARC
  5
5A
330
1E
100
AcDbEntity
  8
0
100
AcDbCircle
 10
367.2499999999998
 20
326.7500012260658
 30
0.0
 40
1.767766952966368
100
AcDbArc
 50
188.130102354156
 51
351.8698976458438
  0
LINE
  5
5B
330
1E
100
AcDbEntity
  8
0
100
AcDbLine
 10
367.7450206678756
 20
337.509959890314
 30
0.0
 11
369.5
 21
334.0000012260659
 31
0.0
  0
ARC
  5
5C
330
1E
100
AcDbEntity
  8
0
100
AcDbCircle
 10
367.1086039911291
 20
337.1922326508088
 30
0.0
 40
0.7149296300108123
100
AcDbArc
 50
26.43964702303959
 51
101.3578088305072
  0
LINE
  5
5D
330
1E
100
AcDbEntity
  8
1
100
AcDbLine
 10
304.4999999999999
 20
289.5000012260658
 30
0.0
 11
304.4999999999999
 21
284.0
 31
0.0
  0
LINE
  5
5E
330
1E
100
AcDbEntity
  8
0
100
AcDbLine
 10
311.5
 20
303.5000012260658
 30
0.0
 11
311.5
 21
298.0000012260658
 31
0.0
  0
LINE
  5
5F
330
1E
100
AcDbEntity
  8
0
100
AcDbLine
 10
311.5
 20
298.0000012260658
 30
0.0
 11
297.5
 21
298.0000012260658
 31
0.0
  0
LINE
  5
60
330
1E
100
AcDbEntity
  8
0
100
AcDbLine
 10
297.5
 20
298.0000012260658
 30
0.0
 11
297.5
 21
303.5000012260658
 31
0.0
  0
LINE
  5
65
330
1E
100
AcDbEntity
  8
0
100
AcDbLine
 10
304.0
 20
325.0000012260658
 30
0.0
 11
304.0
 21
323.5000012260659
 31
0.0
  0
LINE
  5
66
330
1E
100
AcDbEntity
  8
0
100
AcDbLine
 10
304.0
 20
323.5000012260659
 30
0.0
 11
305.0
 21
323.5000012260659
 31
0.0
  0
LINE
  5
67
330
1E
100
AcDbEntity
  8
0
100
AcDbLine
 10
305.0
 20
323.5000012260659
 30
0.0
 11
305.0
 21
325.0000012260658
 31
0.0
  0
LINE
  5
68
330
1E
100
AcDbEntity
  8
0
100
AcDbLine
 10
305.0
 20
325.0000012260658
 30
0.0
 11
308.4999999999999
 21
325.0000012260658
 31
0.0
  0
LINE
  5
69
330
1E
100
AcDbEntity
  8
0
100
AcDbLine
 10
308.4999999999999
 20
325.0000012260658
 30
0.0
 11
309.5
 21
324.0000012260658
 31
0.0
  0
LINE
  5
6A
330
1E
100
AcDbEntity
  8
0
100
AcDbLine
 10
309.5
 20
324.0000012260658
 30
0.0
 11
309.5
 21
323.5000012260659
 31
0.0
  0
LINE
  5
6B
330
1E
100
AcDbEntity
  8
0
100
AcDbLine
 10
304.0
 20
325.0000012260658
 30
0.0
 11
300.4999999999999
 21
325.0000012260658
 31
0.0
  0
LINE
  5
6C
330
1E
100
AcDbEntity
  8
0
100
AcDbLine
 10
300.4999999999999
 20
325.0000012260658
 30
0.0
 11
299.5
 21
324.0000012260658
 31
0.0
  0
LINE
  5
6D
330
1E
100
AcDbEntity
  8
0
100
AcDbLine
 10
299.5
 20
324.0000012260658
 30
0.0
 11
299.5
 21
322.5000012260658
 31
0.0
  0
LINE
  5
6E
330
1E
100
AcDbEntity
  8
1
100
AcDbLine
 10
304.4999999999999
 20
332.0000012260658
 30
0.0
 11
304.4999999999999
 21
284.5000012260658
 31
0.0
  0
LINE
  5
6F
330
1E
100
AcDbEntity
  8
1
100
AcDbLine
 10
304.4999999999999
 20
394.6891908878163
 30
0.0
 11
304.4999999999999
 21
426.6891908878164
 31
0.0
  0
LINE
  5
70
330
1E
100
AcDbEntity
  8
1
100
AcDbLine
 10
291.9999999999999
 20
410.6891908878163
 30
0.0
 11
373.4999999999998
 21
410.6891908878163
 31
0.0
  0
LINE
  5
71
330
1E
100
AcDbEntity
  8
0
100
AcDbLine
 10
191.2832491350991
 20
308.4503078051611
 30
0.0
 11
190.2832491350991
 21
321.4503078051611
 31
0.0
  0
LINE
  5
72
330
1E
100
AcDbEntity
  8
0
100
AcDbLine
 10
177.2832491350991
 20
308.4503078051611
 30
0.0
 11
178.2832491350991
 21
321.4503078051611
 31
0.0
  0
LINE
  5
73
330
1E
100
AcDbEntity
  8
0
100
AcDbLine
 10
174.7832491350991
 20
308.4503078051611
 30
0.0
 11
175.7832491350991
 21
321.4503078051611
 31
0.0
  0
LINE
  5
74
330
1E
100
AcDbEntity
  8
0
100
AcDbLine
 10
187.2832491350991
 20
297.9503078051611
 30
0.0
 11
187.2832491350991
 21
288.9999999999998
 31
0.0
  0
LINE
  5
75
330
1E
100
AcDbEntity
  8
0
100
AcDbLine
 10
177.2832491350991
 20
297.9503078051611
 30
0.0
 11
177.2832491350991
 21
303.4503078051611
 31
0.0
  0
LINE
  5
76
330
1E
100
AcDbEntity
  8
0
100
AcDbLine
 10
191.2832491350991
 20
303.4503078051611
 30
0.0
 11
191.2832491350991
 21
297.9503078051611
 31
0.0
  0
LINE
  5
77
330
1E
100
AcDbEntity
  8
0
100
AcDbLine
 10
191.2832491350991
 20
297.9503078051611
 30
0.0
 11
177.2832491350991
 21
297.9503078051611
 31
0.0
  0
LINE
  5
78
330
1E
100
AcDbEntity
  8
0
100
AcDbLine
 10
186.2832491350991
 20
296.9503078051611
 30
0.0
 11
182.2832491350991
 21
296.9503078051611
 31
0.0
  0
LINE
  5
79
330
1E
100
AcDbEntity
  8
0
100
AcDbLine
 10
182.2832491350991
 20
296.9503078051611
 30
0.0
 11
181.2832491350991
 21
297.9503078051611
 31
0.0
  0
LINE
  5
7A
330
1E
100
AcDbEntity
  8
0
100
AcDbLine
 10
187.2832491350991
 20
297.9503078051611
 30
0.0
 11
186.2832491350991
 21
296.9503078051611
 31
0.0
  0
LINE
  5
7B
330
1E
100
AcDbEntity
  8
0
100
AcDbLine
 10
193.7832491350991
 20
308.4503078051611
 30
0.0
 11
174.7832491350991
 21
308.4503078051611
 31
0.0
  0
LINE
  5
7C
330
1E
100
AcDbEntity
  8
0
100
AcDbLine
 10
184.2832491350991
 20
303.4503078051611
 30
0.0
 11
175.2832491350991
 21
303.4503078051611
 31
0.0
  0
LINE
  5
7D
330
1E
100
AcDbEntity
  8
0
100
AcDbLine
 10
175.2832491350991
 20
303.4503078051611
 30
0.0
 11
175.2832491350991
 21
308.4503078051611
 31
0.0
  0
LINE
  5
7E
330
1E
100
AcDbEntity
  8
0
100
AcDbLine
 10
184.2832491350991
 20
303.4503078051611
 30
0.0
 11
193.2832491350991
 21
303.4503078051611
 31
0.0
  0
LINE
  5
7F
330
1E
100
AcDbEntity
  8
0
100
AcDbLine
 10
193.2832491350991
 20
303.4503078051611
 30
0.0
 11
193.2832491350991
 21
308.4503078051611
 31
0.0
  0
LINE
  5
80
330
1E
100
AcDbEntity
  8
0
100
AcDbLine
 10
180.2832491350991
 20
324.9503078051611
 30
0.0
 11
179.2832491350991
 21
323.9503078051611
 31
0.0
  0
LINE
  5
81
330
1E
100
AcDbEntity
  8
0
100
AcDbLine
 10
184.2832491350991
 20
322.4503078051611
 30
0.0
 11
176.7832491350991
 21
322.4503078051611
 31
0.0
  0
LINE
  5
82
330
1E
100
AcDbEntity
  8
0
100
AcDbLine
 10
179.2832491350991
 20
323.9503078051611
 30
0.0
 11
179.2832491350991
 21
322.4503078051611
 31
0.0
  0
ARC
  5
83
330
1E
100
AcDbEntity
  8
0
100
AcDbCircle
 10
176.940966085665
 20
321.2925908545951
 30
0.0
 40
1.168410533213249
100
AcDbArc
 50
97.75770573126127
 51
172.2422942687385
  0
LINE
  5
84
330
1E
100
AcDbEntity
  8
0
100
AcDbLine
 10
184.7832491350991
 20
324.9503078051611
 30
0.0
 11
188.2832491350989
 21
324.9503078051611
 31
0.0
  0
LINE
  5
85
330
1E
100
AcDbEntity
  8
0
100
AcDbLine
 10
183.7832491350991
 20
324.9503078051611
 30
0.0
 11
180.2832491350991
 21
324.9503078051611
 31
0.0
  0
LINE
  5
86
330
1E
100
AcDbEntity
  8
0
100
AcDbLine
 10
189.2832491350991
 20
323.9503078051611
 30
0.0
 11
189.2832491350991
 21
323.4503078051611
 31
0.0
  0
LINE
  5
87
330
1E
100
AcDbEntity
  8
0
100
AcDbLine
 10
188.2832491350989
 20
324.9503078051611
 30
0.0
 11
189.2832491350991
 21
323.9503078051611
 31
0.0
  0
ARC
  5
88
330
1E
100
AcDbEntity
  8
0
100
AcDbCircle
 10
190.4961911475154
 20
319.3200587207599
 30
0.0
 40
3.130482913946263
100
AcDbArc
 50
88.28169936257371
 51
89.32404220803645
  0
LINE
  5
89
330
1E
100
AcDbEntity
  8
0
100
AcDbLine
 10
458.4922600448281
 20
308.4923991329178
 30
0.0
 11
459.4922600448283
 21
321.4923991329178
 31
0.0
  0
LINE
  5
8A
330
1E
100
AcDbEntity
  8
0
100
AcDbLine
 10
460.9922600448284
 20
308.4923991329178
 30
0.0
 11
461.9922600448282
 21
321.4923991329178
 31
0.0
  0
LINE
  5
8B
330
1E
100
AcDbEntity
  8
0
100
AcDbLine
 10
474.9922600448281
 20
308.4923991329178
 30
0.0
 11
473.9922600448283
 21
321.4923991329178
 31
0.0
  0
LINE
  5
8D
330
1E
100
AcDbEntity
  8
0
100
AcDbLine
 10
474.9922600448281
 20
303.4923991329177
 30
0.0
 11
474.9922600448281
 21
297.9923991329178
 31
0.0
  0
LINE
  5
8E
330
1E
100
AcDbEntity
  8
0
100
AcDbLine
 10
460.9922600448284
 20
297.9923991329178
 30
0.0
 11
460.9922600448284
 21
303.4923991329177
 31
0.0
  0
LINE
  5
90
330
1E
100
AcDbEntity
  8
0
100
AcDbLine
 10
474.9922600448281
 20
297.9923991329178
 30
0.0
 11
460.9922600448284
 21
297.9923991329178
 31
0.0
  0
LINE
  5
93
330
1E
100
AcDbEntity
  8
0
100
AcDbLine
 10
467.9922600448283
 20
303.4923991329177
 30
0.0
 11
476.9922600448283
 21
303.4923991329177
 31
0.0
  0
LINE
  5
94
330
1E
100
AcDbEntity
  8
0
100
AcDbLine
 10
477.4922600448284
 20
308.4923991329178
 30
0.0
 11
458.4922600448281
 21
308.4923991329178
 31
0.0
  0
LINE
  5
95
330
1E
100
AcDbEntity
  8
0
100
AcDbLine
 10
467.9922600448283
 20
303.4923991329177
 30
0.0
 11
458.9922600448281
 21
303.4923991329177
 31
0.0
  0
LINE
  5
96
330
1E
100
AcDbEntity
  8
0
100
AcDbLine
 10
458.9922600448281
 20
303.4923991329177
 30
0.0
 11
458.9922600448281
 21
308.4923991329178
 31
0.0
  0
LINE
  5
97
330
1E
100
AcDbEntity
  8
0
100
AcDbLine
 10
476.9922600448283
 20
303.4923991329177
 30
0.0
 11
476.9922600448283
 21
308.4923991329178
 31
0.0
  0
ARC
  5
98
330
1E
100
AcDbEntity
  8
0
100
AcDbCircle
 10
460.649976995394
 20
321.3346821823518
 30
0.0
 40
1.168410533213249
100
AcDbArc
 50
97.75770573126127
 51
172.2422942687385
  0
ARC
  5
99
330
1E
100
AcDbEntity
  8
0
100
AcDbCircle
 10
474.2052020572447
 20
319.3621500485166
 30
0.0
 40
3.130482913946263
100
AcDbArc
 50
88.28169936257371
 51
89.32404220803645
  0
LINE
  5
9A
330
1E
100
AcDbEntity
  8
0
100
AcDbLine
 10
184.2832491350991
 20
322.4503078051611
 30
0.0
 11
191.7832491350991
 21
322.4503078051611
 31
0.0
  0
LINE
  5
9B
330
1E
100
AcDbEntity
  8
0
100
AcDbLine
 10
193.7832491350991
 20
308.4503078051611
 30
0.0
 11
192.7832491350991
 21
321.4503078051611
 31
0.0
  0
LINE
  5
9C
330
1E
100
AcDbEntity
  8
0
100
AcDbLine
 10
183.7832491350991
 20
324.9503078051611
 30
0.0
 11
184.7832491350991
 21
324.9503078051611
 31
0.0
  0
LINE
  5
9D
330
1E
100
AcDbEntity
  8
0
100
AcDbLine
 10
189.2832491350991
 20
323.4503078051611
 30
0.0
 11
189.2832491350991
 21
322.4503078051611
 31
0.0
  0
ARC
  5
9E
330
1E
100
AcDbEntity
  8
0
100
AcDbCircle
 10
191.5894341341804
 20
321.2564928042425
 30
0.0
 40
1.209445538666259
100
AcDbArc
 50
9.221472360152683
 51
80.77852763984731
  0
LINE
  5
9F
330
1E
100
AcDbEntity
  8
0
100
AcDbLine
 10
181.7832491350991
 20
338.4503078051611
 30
0.0
 11
186.7832491350991
 21
338.4503078051611
 31
0.0
  0
LINE
  5
A0
330
1E
100
AcDbEntity
  8
0
100
AcDbLine
 10
186.7832491350991
 20
338.4503078051611
 30
0.0
 11
188.5332491350991
 21
326.9503078051611
 31
0.0
  0
LINE
  5
A1
330
1E
100
AcDbEntity
  8
0
100
AcDbLine
 10
181.7832491350991
 20
338.4503078051611
 30
0.0
 11
180.0332491350991
 21
326.9503078051611
 31
0.0
  0
LINE
  5
A2
330
1E
100
AcDbEntity
  8
0
100
AcDbLine
 10
180.0332491350991
 20
326.9503078051611
 30
0.0
 11
188.5332491350991
 21
326.9503078051611
 31
0.0
  0
LINE
  5
A3
330
1E
100
AcDbEntity
  8
0
100
AcDbLine
 10
188.5332491350991
 20
326.9503078051611
 30
0.0
 11
188.5332491350991
 21
324.7003078051611
 31
0.0
  0
LINE
  5
A4
330
1E
100
AcDbEntity
  8
0
100
AcDbLine
 10
180.0332491350991
 20
326.9503078051611
 30
0.0
 11
180.0332491350991
 21
324.7003078051611
 31
0.0
  0
LINE
  5
A5
330
1E
100
AcDbEntity
  8
0
100
AcDbLine
 10
188.0332491350991
 20
334.4503078051611
 30
0.0
 11
189.5332491350991
 21
322.4503078051611
 31
0.0
  0
LINE
  5
A6
330
1E
100
AcDbEntity
  8
0
100
AcDbLine
 10
179.0332491350991
 20
322.4503078051611
 30
0.0
 11
180.5332491350991
 21
334.4503078051611
 31
0.0
  0
LINE
  5
A7
330
1E
100
AcDbEntity
  8
0
100
AcDbLine
 10
188.0332491350991
 20
334.4503078051611
 30
0.0
 11
187.2832491350991
 21
337.9503078051611
 31
0.0
  0
LINE
  5
A8
330
1E
100
AcDbEntity
  8
0
100
AcDbLine
 10
180.5332491350991
 20
334.4503078051611
 30
0.0
 11
181.2832491350991
 21
337.9503078051611
 31
0.0
  0
ARC
  5
A9
330
1E
100
AcDbEntity
  8
0
100
AcDbCircle
 10
186.3873460143198
 20
337.5544046843819
 30
0.0
 40
0.9794803126480495
100
AcDbArc
 50
23.84082428690299
 51
66.15917571309586
  0
ARC
  5
AA
330
1E
100
AcDbEntity
  8
0
100
AcDbCircle
 10
182.1757558628068
 20
337.5578010774531
 30
0.0
 40
0.9750024565610459
100
AcDbArc
 50
113.7389394884297
 51
156.261060511571
  0
LINE
  5
AB
330
1E
100
AcDbEntity
  8
0
100
AcDbLine
 10
465.4922600448283
 20
338.4923991329177
 30
0.0
 11
470.4922600448282
 21
338.4923991329177
 31
0.0
  0
LINE
  5
AC
330
1E
100
AcDbEntity
  8
0
100
AcDbLine
 10
471.4922600448281
 20
333.9923991329178
 30
0.0
 11
473.9922600448283
 21
319.9923991329177
 31
0.0
  0
LINE
  5
AD
330
1E
100
AcDbEntity
  8
0
100
AcDbLine
 10
473.9922600448283
 20
319.9923991329177
 30
0.0
 11
474.2422600448283
 21
308.4923991329178
 31
0.0
  0
LINE
  5
AE
330
1E
100
AcDbEntity
  8
0
100
AcDbLine
 10
464.4922600448283
 20
333.9923991329178
 30
0.0
 11
461.9922600448282
 21
319.9923991329177
 31
0.0
  0
LINE
  5
AF
330
1E
100
AcDbEntity
  8
0
100
AcDbLine
 10
461.9922600448282
 20
319.9923991329177
 30
0.0
 11
461.7422600448283
 21
308.4923991329178
 31
0.0
  0
LINE
  5
B0
330
1E
100
AcDbEntity
  8
0
100
AcDbLine
 10
462.4922600448281
 20
322.4923991329176
 30
0.0
 11
460.4922600448283
 21
322.4923991329176
 31
0.0
  0
LINE
  5
B1
330
1E
100
AcDbEntity
  8
0
100
AcDbLine
 10
471.4922600448281
 20
333.9923991329178
 30
0.0
 11
470.9922600448281
 21
337.9923991329178
 31
0.0
  0
LINE
  5
B2
330
1E
100
AcDbEntity
  8
0
100
AcDbLine
 10
464.4922600448283
 20
333.9923991329178
 30
0.0
 11
464.9922600448284
 21
337.9923991329178
 31
0.0
  0
ARC
  5
B3
330
1E
100
AcDbEntity
  8
0
100
AcDbCircle
 10
469.9891988428118
 20
337.4893379309018
 30
0.0
 40
1.122141857326383
100
AcDbArc
 50
26.63495194811714
 51
63.36504805188285
  0
ARC
  5
B4
330
1E
100
AcDbEntity
  8
0
100
AcDbCircle
 10
465.8489844761685
 20
337.6356747015778
 30
0.0
 40
0.9280242837179828
100
AcDbArc
 50
112.6059546497947
 51
157.3940453502054
  0
LINE
  5
B5
330
1E
100
AcDbEntity
  8
0
100
AcDbLine
 10
473.4922600448284
 20
322.4923991329176
 30
0.0
 11
475.492260044828
 21
322.4923991329176
 31
0.0
  0
LINE
  5
B6
330
1E
100
AcDbEntity
  8
0
100
AcDbLine
 10
477.4922600448284
 20
308.4923991329178
 30
0.0
 11
476.4922600448283
 21
321.4923991329178
 31
0.0
  0
ARC
  5
B7
330
1E
100
AcDbEntity
  8
0
100
AcDbCircle
 10
467.9922600448283
 20
328.7423991329176
 30
0.0
 40
3.75
100
AcDbArc
 50
216.8698976458439
 51
323.130102354156
  0
LINE
  5
B8
330
1E
100
AcDbEntity
  8
0
100
AcDbLine
 10
470.9922600448281
 20
326.4923991329176
 30
0.0
 11
471.2422600448284
 21
333.9923991329178
 31
0.0
  0
LINE
  5
B9
330
1E
100
AcDbEntity
  8
0
100
AcDbLine
 10
464.9922600448284
 20
326.4923991329176
 30
0.0
 11
464.7422600448281
 21
333.9923991329178
 31
0.0
  0
ARC
  5
BA
330
1E
100
AcDbEntity
  8
0
100
AcDbCircle
 10
467.9922600448283
 20
331.4923991329178
 30
0.0
 40
13.0
100
AcDbArc
 50
247.3801350519595
 51
292.6198649480401
  0
ARC
  5
BB
330
1E
100
AcDbEntity
  8
0
100
AcDbCircle
 10
475.259728629893
 20
321.2598677179828
 30
0.0
 40
1.254274510517485
100
AcDbArc
 50
10.683939119912
 51
79.31606088008798
  0
LINE
  5
BC
330
1E
100
AcDbEntity
  8
2
100
AcDbLine
 10
367.5
 20
341.5000012260658
 30
0.0
 11
345.5
 21
337.0000012260658
 31
0.0
  0
LINE
  5
BD
330
1E
100
AcDbEntity
  8
2
100
AcDbLine
 10
367.5
 20
341.5000012260658
 30
0.0
 11
368.9999999999998
 21
339.0000012260658
 31
0.0
  0
LINE
  5
BE
330
1E
100
AcDbEntity
  8
2
100
AcDbLine
 10
187.2832491350991
 20
341.4503078051611
 30
0.0
 11
181.2832491350991
 21
341.4503078051611
 31
0.0
  0
LINE
  5
BF
330
1E
100
AcDbEntity
  8
2
100
AcDbLine
 10
181.2832491350991
 20
341.4503078051611
 30
0.0
 11
180.2832491350991
 21
339.9503078051612
 31
0.0
  0
LINE
  5
C0
330
1E
100
AcDbEntity
  8
2
100
AcDbLine
 10
187.2832491350991
 20
341.4503078051611
 30
0.0
 11
188.2832491350989
 21
339.9503078051612
 31
0.0
  0
LINE
  5
C1
330
1E
100
AcDbEntity
  8
2
100
AcDbLine
 10
470.9922600448281
 20
341.4923991329178
 30
0.0
 11
464.9922600448284
 21
341.4923991329178
 31
0.0
  0
LINE
  5
C2
330
1E
100
AcDbEntity
  8
2
100
AcDbLine
 10
464.9922600448284
 20
341.4923991329178
 30
0.0
 11
463.9922600448283
 21
339.9923991329178
 31
0.0
  0
LINE
  5
C3
330
1E
100
AcDbEntity
  8
2
100
AcDbLine
 10
470.9922600448281
 20
341.4923991329178
 30
0.0
 11
471.9922600448283
 21
339.9923991329178
 31
0.0
  0
LINE
  5
C4
330
1E
100
AcDbEntity
  8
1
100
AcDbLine
 10
184.2832491350991
 20
340.9503078051611
 30
0.0
 11
184.2832491350991
 21
344.4503078051612
 31
0.0
  0
LINE
  5
C5
330
1E
100
AcDbEntity
  8
1
100
AcDbLine
 10
467.9922600448283
 20
340.9923991329177
 30
0.0
 11
467.9922600448283
 21
344.4923991329178
 31
0.0
  0
CIRCLE
  5
C6
330
1E
100
AcDbEntity
  8
0
100
AcDbCircle
 10
304.4999999999999
 20
410.6891908878163
 30
0.0
 40
5.0
  0
CIRCLE
  5
C7
330
1E
100
AcDbEntity
  8
0
100
AcDbCircle
 10
304.4999999999999
 20
410.6891908878163
 30
0.0
 40
5.2
  0
ARC
  5
C8
330
1E
100
AcDbEntity
  8
0
100
AcDbCircle
 10
304.4905358894457
 20
403.8775047394745
 30
0.0
 40
16.07097882204924
100
AcDbArc
 50
62.89361110670887
 51
117.1063888932909
  0
ARC
  5
C9
330
1E
100
AcDbEntity
  8
0
100
AcDbCircle
 10
297.503261095254
 20
410.6891915369798
 30
0.0
 40
16.23694367291848
100
AcDbArc
 50
333.2764811449432
 51
338.3219258027094
  0
ARC
  5
CA
330
1E
100
AcDbEntity
  8
0
100
AcDbCircle
 10
304.4744776576216
 20
417.5674931660783
 30
0.0
 40
16.1376016432706
100
AcDbArc
 50
242.9506250969005
 51
297.0493749030992
  0
ARC
  5
CB
330
1E
100
AcDbEntity
  8
0
100
AcDbCircle
 10
311.3473787860146
 20
410.6891915369798
 30
0.0
 40
16.10651183950714
100
AcDbArc
 50
152.9144778091316
 51
207.0855221908685
  0
ARC
  5
CC
330
1E
100
AcDbEntity
  8
0
100
AcDbCircle
 10
304.4905376988239
 20
405.0007920903402
 30
0.0
 40
14.17741941449756
100
AcDbArc
 50
62.47521242474941
 51
117.5247875752503
  0
ARC
  5
CD
330
1E
100
AcDbEntity
  8
0
100
AcDbCircle
 10
298.9218108524086
 20
410.6879566390142
 30
0.0
 40
14.07970787597861
100
AcDbArc
 50
332.3681122484566
 51
336.3045913836391
  0
ARC
  5
CE
330
1E
100
AcDbEntity
  8
0
100
AcDbCircle
 10
304.4451748199463
 20
416.3129551462087
 30
0.0
 40
14.11285647628849
100
AcDbArc
 50
242.6931058541394
 51
297.8695943101866
  0
ARC
  5
CF
330
1E
100
AcDbEntity
  8
0
100
AcDbCircle
 10
309.9886705565271
 20
410.6912834139166
 30
0.0
 40
13.97700140221923
100
AcDbArc
 50
151.7041386309925
 51
208.0168603651145
  0
ARC
  5
D0
330
1E
100
AcDbEntity
  8
0
100
AcDbCircle
 10
311.2153698172816
 20
410.6951270977702
 30
0.0
 40
14.14384820024316
100
AcDbArc
 50
155.7051682722521
 51
204.9197281454878
  0
ARC
  5
D1
330
1E
100
AcDbEntity
  8
0
100
AcDbCircle
 10
304.4553864623566
 20
404.7154162721222
 30
0.0
 40
13.50000411895492
100
AcDbArc
 50
64.17736968603553
 51
115.1899824187675
  0
ARC
  5
D2
330
1E
100
AcDbEntity
  8
0
100
AcDbCircle
 10
298.3673679197896
 20
410.7463130610628
 30
0.0
 40
13.63871443463452
100
AcDbArc
 50
334.3007754177666
 51
337.0178893201337
  0
ARC
  5
D3
330
1E
100
AcDbEntity
  8
0
100
AcDbCircle
 10
304.4464866865735
 20
417.9500225856008
 30
0.0
 40
14.72289176736877
100
AcDbArc
 50
247.4729105466188
 51
293.1703995930195
  0
ARC
  5
D4
330
1E
100
AcDbEntity
  8
0
100
AcDbCircle
 10
299.0242617611274
 20
416.2519002854804
 30
0.0
 40
0.74389123960108
100
AcDbArc
 50
114.6431338535114
 51
159.1904117092529
  0
ARC
  5
D5
330
1E
100
AcDbEntity
  8
0
100
AcDbCircle
 10
298.2933934320713
 20
416.9524015960671
 30
0.0
 40
0.7119391436243348
100
AcDbArc
 50
119.0621143662607
 51
149.212919007112
  0
ARC
  5
D6
330
1E
100
AcDbEntity
  8
0
100
AcDbCircle
 10
297.3187112874443
 20
417.8606380377734
 30
0.0
 40
0.3500057096676961
100
AcDbArc
 50
114.5410858012912
 51
152.6925448679521
  0
ARC
  5
D7
330
1E
100
AcDbEntity
  8
0
100
AcDbCircle
 10
311.5708846995445
 20
417.7598354768178
 30
0.0
 40
0.4909087284011502
100
AcDbArc
 50
28.00393529667479
 51
59.74458026588706
  0
ARC
  5
D8
330
1E
100
AcDbEntity
  8
0
100
AcDbCircle
 10
310.5418678207388
 20
416.7197379282931
 30
0.0
 40
0.988372199151064
100
AcDbArc
 50
25.91183266786349
 51
59.24314548734169
  0
ARC
  5
D9
330
1E
100
AcDbEntity
  8
0
100
AcDbCircle
 10
309.7700112634989
 20
415.8898163278591
 30
0.0
 40
1.12796250020433
100
AcDbArc
 50
25.82961964295635
 51
60.0367637695549
  0
ARC
  5
DA
330
1E
100
AcDbEntity
  8
0
100
AcDbCircle
 10
299.1141325178466
 20
405.1031169279744
 30
0.0
 40
0.8125324328191247
100
AcDbArc
 50
206.8413858299114
 51
247.3261479519176
  0
ARC
  5
DB
330
1E
100
AcDbEntity
  8
0
100
AcDbCircle
 10
298.4010045838163
 20
404.4969600620639
 30
0.0
 40
0.8418111175736473
100
AcDbArc
 50
205.9980169824105
 51
239.2199846100425
  0
ARC
  5
DC
330
1E
100
AcDbEntity
  8
0
100
AcDbCircle
 10
297.27161472563
 20
403.4360191587059
 30
0.0
 40
0.2756598199523653
100
AcDbArc
 50
196.2968706198649
 51
241.3656219083224
  0
LINE
  5
DD
330
1E
100
AcDbEntity
  8
0
100
AcDbLine
 10
369.5
 20
413.1891908878164
 30
0.0
 11
369.5
 21
408.1891908878163
 31
0.0
  0
LINE
  5
DE
330
1E
100
AcDbEntity
  8
0
100
AcDbLine
 10
367.5
 20
414.6891908878163
 30
0.0
 11
314.9999999999999
 21
416.6891908878163
 31
0.0
  0
LINE
  5
DF
330
1E
100
AcDbEntity
  8
0
100
AcDbLine
 10
314.9999999999999
 20
416.6891908878163
 30
0.0
 11
312.9999999999999
 21
416.6891908878163
 31
0.0
  0
LINE
  5
E0
330
1E
100
AcDbEntity
  8
0
100
AcDbLine
 10
367.5
 20
406.6891908878161
 30
0.0
 11
314.9999999999999
 21
404.6891908878164
 31
0.0
  0
LINE
  5
E1
330
1E
100
AcDbEntity
  8
0
100
AcDbLine
 10
314.9999999999999
 20
404.6891908878164
 30
0.0
 11
312.9999999999999
 21
404.6891908878164
 31
0.0
  0
LINE
  5
E2
330
1E
100
AcDbEntity
  8
0
100
AcDbLine
 10
366.5
 20
413.6891908878164
 30
0.0
 11
313.5
 21
415.1891908878161
 31
0.0
  0
LINE
  5
E3
330
1E
100
AcDbEntity
  8
0
100
AcDbLine
 10
366.5
 20
407.6891908878163
 30
0.0
 11
313.5
 21
406.1891908878163
 31
0.0
  0
LINE
  5
E4
330
1E
100
AcDbEntity
  8
0
100
AcDbLine
 10
313.5
 20
406.1891908878163
 30
0.0
 11
313.5
 21
415.1891908878161
 31
0.0
  0
LINE
  5
E5
330
1E
100
AcDbEntity
  8
0
100
AcDbLine
 10
313.5
 20
415.1891908878161
 30
0.0
 11
308.4999999999999
 21
414.6891908878163
 31
0.0
  0
LINE
  5
E6
330
1E
100
AcDbEntity
  8
0
100
AcDbLine
 10
313.5
 20
406.1891908878163
 30
0.0
 11
308.4999999999999
 21
406.6891908878161
 31
0.0
  0
ARC
  5
E7
330
1E
100
AcDbEntity
  8
0
100
AcDbCircle
 10
367.538743003794
 20
412.6575148928751
 30
0.0
 40
2.032045365823095
100
AcDbArc
 50
15.16773642453862
 51
91.09246828377385
  0
ARC
  5
E8
330
1E
100
AcDbEntity
  8
0
100
AcDbCircle
 10
366.8042974594988
 20
409.7001276084843
 30
0.0
 40
3.090265678016658
100
AcDbArc
 50
283.0103520231308
 51
330.7294432685576
  0
LINE
  5
E9
330
1E
100
AcDbEntity
  8
0
100
AcDbLine
 10
366.5
 20
413.6891908878164
 30
0.0
 11
367.5
 21
413.6891908878164
 31
0.0
  0
LINE
  5
EA
330
1E
100
AcDbEntity
  8
0
100
AcDbLine
 10
366.5
 20
407.6891908878163
 30
0.0
 11
367.5
 21
407.6891908878163
 31
0.0
  0
LINE
  5
EB
330
1E
100
AcDbEntity
  8
0
100
AcDbLine
 10
368.5
 20
412.6891908878163
 30
0.0
 11
368.5
 21
408.6891908878163
 31
0.0
  0
ARC
  5
EC
330
1E
100
AcDbEntity
  8
0
100
AcDbCircle
 10
367.5357333379265
 20
412.7249242257429
 30
0.0
 40
0.9649285294909828
100
AcDbArc
 50
357.8777312203768
 51
92.1222687796232
  0
ARC
  5
ED
330
1E
100
AcDbEntity
  8
0
100
AcDbCircle
 10
367.5052671029285
 20
408.6839237848876
 30
0.0
 40
0.9947468416081727
100
AcDbArc
 50
269.6966221297726
 51
0.3033778702272549
  0
LINE
  5
EE
330
1E
100
AcDbEntity
  8
0
100
AcDbLine
 10
317.5
 20
412.6891908878163
 30
0.0
 11
317.5
 21
408.6891908878163
 31
0.0
  0
LINE
  5
EF
330
1E
100
AcDbEntity
  8
0
100
AcDbLine
 10
318.0
 20
413.1891908878164
 30
0.0
 11
327.0
 21
413.1891908878164
 31
0.0
  0
LINE
  5
F0
330
1E
100
AcDbEntity
  8
0
100
AcDbLine
 10
327.4999999999999
 20
412.6891908878163
 30
0.0
 11
327.4999999999999
 21
408.6891908878163
 31
0.0
  0
LINE
  5
F1
330
1E
100
AcDbEntity
  8
0
100
AcDbLine
 10
327.0
 20
408.1891908878163
 30
0.0
 11
318.0
 21
408.1891908878163
 31
0.0
  0
ARC
  5
F2
330
1E
100
AcDbEntity
  8
0
100
AcDbCircle
 10
310.0284723443026
 20
405.0451782236585
 30
0.0
 40
0.663701233995116
100
AcDbArc
 50
288.0877462549861
 51
341.296746825188
  0
ARC
  5
F3
330
1E
100
AcDbEntity
  8
0
100
AcDbCircle
 10
310.9100706749383
 20
404.3348363458748
 30
0.0
 40
0.5181816126764273
100
AcDbArc
 50
283.7497693150382
 51
339.8900770663311
  0
ARC
  5
F4
330
1E
100
AcDbEntity
  8
0
100
AcDbCircle
 10
311.7404820192362
 20
403.4543663316152
 30
0.0
 40
0.2698538082036465
100
AcDbArc
 50
285.1041290175063
 51
344.8561277510108
  0
LINE
  5
F5
330
1E
100
AcDbEntity
  8
0
100
AcDbLine
 10
308.4979323263785
 20
414.6908067073897
 30
0.0
 11
307.8176893419128
 21
414.6202642166178
 31
0.0
  0
LINE
  5
F6
330
1E
100
AcDbEntity
  8
0
100
AcDbLine
 10
313.0093527828423
 20
416.6916414792693
 30
0.0
 11
312.5986420175788
 21
416.6916414792693
 31
0.0
  0
LINE
  5
F7
330
1E
100
AcDbEntity
  8
0
100
AcDbLine
 10
312.5986420175788
 20
416.6916414792693
 30
0.0
 11
307.8305250711026
 21
414.6266760072582
 31
0.0
  0
ARC
  5
F8
330
1E
100
AcDbEntity
  8
0
100
AcDbCircle
 10
298.3673679197896
 20
410.7463130610628
 30
0.0
 40
13.63871443463452
100
AcDbArc
 50
22.5745341099433
 51
24.42517009340535
  0
ARC
  5
F9
330
1E
100
AcDbEntity
  8
0
100
AcDbCircle
 10
298.9218108524086
 20
410.6879566390142
 30
0.0
 40
14.07970787597861
100
AcDbArc
 50
23.71115079714674
 51
27.34875342970623
  0
ARC
  5
FA
330
1E
100
AcDbEntity
  8
0
100
AcDbCircle
 10
297.503261095254
 20
410.6891915369798
 30
0.0
 40
16.23694367291848
100
AcDbArc
 50
21.70123384560511
 51
26.72351885505679
  0
LINE
  5
FB
330
1E
100
AcDbEntity
  8
0
100
AcDbLine
 10
313.0136156779609
 20
404.6912449873847
 30
0.0
 11
312.5985298361283
 21
404.6912449873847
 31
0.0
  0
LINE
  5
FC
330
1E
100
AcDbEntity
  8
0
100
AcDbLine
 10
308.4916863527158
 20
406.6898195337642
 30
0.0
 11
307.8250317987851
 21
406.7652385676667
 31
0.0
  0
LINE
  5
FD
330
1E
100
AcDbEntity
  8
0
100
AcDbLine
 10
307.8250317987851
 20
406.7652385676667
 30
0.0
 11
312.5859510386478
 21
404.6912449873847
 31
0.0
  0
ARC
  5
FE
330
1E
100
AcDbEntity
  8
0
100
AcDbCircle
 10
326.9169065941948
 20
412.606097482011
 30
0.0
 40
0.5889842391622241
100
AcDbArc
 50
8.110297789700871
 51
81.88970221030537
  0
ARC
  5
FF
330
1E
100
AcDbEntity
  8
0
100
AcDbCircle
 10
318.0707500172158
 20
412.6184408706
 30
0.0
 40
0.575118376587339
100
AcDbArc
 50
97.06632266400085
 51
172.9336773359992
  0
ARC
  5
100
330
1E
100
AcDbEntity
  8
0
100
AcDbCircle
 10
318.0968620821843
 20
408.7860529700007
 30
0.0
 40
0.6046706608680113
100
AcDbArc
 50
189.2179140151391
 51
260.7820859848609
  0
ARC
  5
101
330
1E
100
AcDbEntity
  8
0
100
AcDbCircle
 10
326.9213289861921
 20
408.7678619016238
 30
0.0
 40
0.5839942385286197
100
AcDbArc
 50
277.7419647920175
 51
352.258035207982
  0
LINE
  5
102
330
1E
100
AcDbEntity
  8
0
100
AcDbLine
 10
318.5
 20
412.6891908878163
 30
0.0
 11
318.5
 21
408.6891908878163
 31
0.0
  0
LINE
  5
103
330
1E
100
AcDbEntity
  8
0
100
AcDbLine
 10
318.5
 20
410.6891908878163
 30
0.0
 11
320.9999999999999
 21
412.6891908878163
 31
0.0
  0
LINE
  5
104
330
1E
100
AcDbEntity
  8
0
100
AcDbLine
 10
320.9999999999999
 20
412.6891908878163
 30
0.0
 11
326.5
 21
412.6891908878163
 31
0.0
  0
LINE
  5
105
330
1E
100
AcDbEntity
  8
0
100
AcDbLine
 10
322.5
 20
411.6891908878163
 30
0.0
 11
322.5
 21
409.1891908878164
 31
0.0
  0
LINE
  5
106
330
1E
100
AcDbEntity
  8
0
100
AcDbLine
 10
322.5
 20
409.1891908878164
 30
0.0
 11
322.5
 21
408.6891908878163
 31
0.0
  0
LINE
  5
107
330
1E
100
AcDbEntity
  8
0
100
AcDbLine
 10
322.5
 20
411.6891908878163
 30
0.0
 11
324.5
 21
408.6891908878163
 31
0.0
  0
LINE
  5
108
330
1E
100
AcDbEntity
  8
0
100
AcDbLine
 10
324.5
 20
408.6891908878163
 30
0.0
 11
324.5
 21
411.6891908878163
 31
0.0
  0
ARC
  5
109
330
1E
100
AcDbEntity
  8
0
100
AcDbCircle
 10
318.5833333333332
 20
406.7725242211497
 30
0.0
 40
3.917553091181078
100
AcDbArc
 50
29.29136217098434
 51
91.21887523513102
  0
ARC
  5
10A
330
1E
100
AcDbEntity
  8
0
100
AcDbCircle
 10
326.0939110051942
 20
410.7531968123273
 30
0.0
 40
1.022212966941022
100
AcDbArc
 50
67.32049792256943
 51
169.2477830613522
  0
ARC
  5
10B
330
1E
100
AcDbEntity
  8
0
100
AcDbCircle
 10
325.7296763807421
 20
410.7647449050392
 30
0.0
 40
0.6646337124693164
100
AcDbArc
 50
164.3619686251853
 51
278.7409822757559
  0
ARC
  5
10C
330
1E
100
AcDbEntity
  8
0
100
AcDbCircle
 10
325.9957472594276
 20
409.205668320077
 30
0.0
 40
0.9150634270983497
100
AcDbArc
 50
5.642865783644487
 51
99.63246470068053
  0
ARC
  5
10D
330
1E
100
AcDbEntity
  8
0
100
AcDbCircle
 10
325.9556998398475
 20
409.5771728496202
 30
0.0
 40
0.9914859082580608
100
AcDbArc
 50
275.9089220147509
 51
343.5041306364656
  0
ARC
  5
10E
330
1E
100
AcDbEntity
  8
0
100
AcDbCircle
 10
325.8070203244948
 20
409.9275438661811
 30
0.0
 40
1.357753432889819
100
AcDbArc
 50
235.697085196744
 51
280.129701872744
  0
LINE
  5
10F
330
1E
100
AcDbEntity
  8
0
100
AcDbLine
 10
367.5
 20
163.7432438051298
 30
0.0
 11
314.9999999999999
 21
161.7432438051299
 31
0.0
  0
LINE
  5
110
330
1E
100
AcDbEntity
  8
0
100
AcDbLine
 10
367.5
 20
171.7432438051299
 30
0.0
 11
314.9999999999999
 21
173.74324380513
 31
0.0
  0
LINE
  5
111
330
1E
100
AcDbEntity
  8
1
100
AcDbLine
 10
291.9999999999999
 20
167.7432438051299
 30
0.0
 11
373.4999999999998
 21
167.7432438051299
 31
0.0
  0
ARC
  5
112
330
1E
100
AcDbEntity
  8
0
100
AcDbCircle
 10
311.3473787860146
 20
167.7432444542934
 30
0.0
 40
16.10651183950714
100
AcDbArc
 50
152.9144778091316
 51
207.0855221908685
  0
LINE
  5
113
330
1E
100
AcDbEntity
  8
1
100
AcDbLine
 10
304.4999999999999
 20
151.74324380513
 30
0.0
 11
304.4999999999999
 21
183.7432438051298
 31
0.0
  0
LINE
  5
114
330
1E
100
AcDbEntity
  8
0
100
AcDbLine
 10
314.9999999999999
 20
161.7432438051299
 30
0.0
 11
312.9999999999999
 21
161.7432438051299
 31
0.0
  0
ARC
  5
115
330
1E
100
AcDbEntity
  8
0
100
AcDbCircle
 10
304.4744776576216
 20
174.6215460833919
 30
0.0
 40
16.1376016432706
100
AcDbArc
 50
242.9506250969005
 51
297.0493749030992
  0
ARC
  5
116
330
1E
100
AcDbEntity
  8
0
100
AcDbCircle
 10
297.27161472563
 20
160.4900720760196
 30
0.0
 40
0.2756598199523653
100
AcDbArc
 50
196.2968706198649
 51
241.3656219083224
  0
ARC
  5
117
330
1E
100
AcDbEntity
  8
0
100
AcDbCircle
 10
297.503261095254
 20
167.7432444542934
 30
0.0
 40
16.23694367291848
100
AcDbArc
 50
333.2764811449432
 51
338.3219258027094
  0
LINE
  5
118
330
1E
100
AcDbEntity
  8
0
100
AcDbLine
 10
313.0136156779609
 20
161.7452979046984
 30
0.0
 11
312.5985298361283
 21
161.7452979046984
 31
0.0
  0
ARC
  5
119
330
1E
100
AcDbEntity
  8
0
100
AcDbCircle
 10
311.7404820192362
 20
160.5084192489289
 30
0.0
 40
0.2698538082036465
100
AcDbArc
 50
285.1041290175063
 51
344.8561277510108
  0
LINE
  5
11A
330
1E
100
AcDbEntity
  8
0
100
AcDbLine
 10
314.9999999999999
 20
173.74324380513
 30
0.0
 11
312.9999999999999
 21
173.74324380513
 31
0.0
  0
ARC
  5
11B
330
1E
100
AcDbEntity
  8
0
100
AcDbCircle
 10
304.4905358894457
 20
160.9315576567881
 30
0.0
 40
16.07097882204924
100
AcDbArc
 50
62.89361110670887
 51
117.1063888932909
  0
ARC
  5
11C
330
1E
100
AcDbEntity
  8
0
100
AcDbCircle
 10
297.3187112874443
 20
174.9146909550873
 30
0.0
 40
0.3500057096676961
100
AcDbArc
 50
114.5410858012912
 51
152.6925448679521
  0
ARC
  5
11D
330
1E
100
AcDbEntity
  8
0
100
AcDbCircle
 10
297.503261095254
 20
167.7432444542934
 30
0.0
 40
16.23694367291848
100
AcDbArc
 50
21.70123384560511
 51
26.72351885505679
  0
LINE
  5
11E
330
1E
100
AcDbEntity
  8
0
100
AcDbLine
 10
313.0093527828423
 20
173.7456943965829
 30
0.0
 11
312.5986420175788
 21
173.7456943965829
 31
0.0
  0
ARC
  5
11F
330
1E
100
AcDbEntity
  8
0
100
AcDbCircle
 10
311.5708846995445
 20
174.8138883941317
 30
0.0
 40
0.4909087284011502
100
AcDbArc
 50
28.00393529667479
 51
59.74458026588706
  0
LINE
  5
120
330
1E
100
AcDbEntity
  8
0
100
AcDbLine
 10
369.5
 20
170.24324380513
 30
0.0
 11
369.5
 21
165.24324380513
 31
0.0
  0
ARC
  5
121
330
1E
100
AcDbEntity
  8
0
100
AcDbCircle
 10
366.8042974594988
 20
166.754180525798
 30
0.0
 40
3.090265678016658
100
AcDbArc
 50
283.0103520231308
 51
330.7294432685576
  0
ARC
  5
122
330
1E
100
AcDbEntity
  8
0
100
AcDbCircle
 10
367.538743003794
 20
169.7115678101889
 30
0.0
 40
2.032045365823095
100
AcDbArc
 50
15.16773642453862
 51
91.09246828377385
  0
LINE
  5
123
330
1E
100
AcDbEntity
  8
0
100
AcDbLine
 10
304.0
 20
415.5885640114308
 30
0.0
 11
304.0
 21
405.790205006694
 31
0.0
  0
LINE
  5
124
330
1E
100
AcDbEntity
  8
0
100
AcDbLine
 10
305.0
 20
415.5885640114308
 30
0.0
 11
305.0
 21
405.790205006694
 31
0.0
  0
ARC
  5
125
330
1E
100
AcDbEntity
  8
0
100
AcDbCircle
 10
296.4049322380668
 20
167.7443309807034
 30
0.0
 40
17.26754353950903
100
AcDbArc
 50
339.6517723757228
 51
20.34822762427735
  0
CIRCLE
  5
126
330
1E
100
AcDbEntity
  8
0
100
AcDbCircle
 10
304.4999999999999
 20
167.7432438051299
 30
0.0
 40
9.0
  0
CIRCLE
  5
127
330
1E
100
AcDbEntity
  8
0
100
AcDbCircle
 10
304.4999999999999
 20
167.2432438051299
 30
0.0
 40
9.0
  0
CIRCLE
  5
128
330
1E
100
AcDbEntity
  8
0
100
AcDbCircle
 10
304.4999999999999
 20
167.7432438051299
 30
0.0
 40
7.0
  0
LINE
  5
12B
330
1E
100
AcDbEntity
  8
0
100
AcDbLine
 10
368.5
 20
169.24324380513
 30
0.0
 11
368.5
 21
166.24324380513
 31
0.0
  0
LINE
  5
12C
330
1E
100
AcDbEntity
  8
0
100
AcDbLine
 10
365.5
 20
166.24324380513
 30
0.0
 11
365.5
 21
169.24324380513
 31
0.0
  0
ARC
  5
12D
330
1E
100
AcDbEntity
  8
0
100
AcDbCircle
 10
366.9999999999998
 20
169.24324380513
 30
0.0
 40
1.5
100
AcDbArc
 50
0.0
 51
180.0
  0
ARC
  5
12E
330
1E
100
AcDbEntity
  8
0
100
AcDbCircle
 10
366.9999999999998
 20
166.24324380513
 30
0.0
 40
1.5
100
AcDbArc
 50
180.0
 51
0.0
  0
ARC
  5
12F
330
1E
100
AcDbEntity
  8
0
100
AcDbCircle
 10
320.5
 20
167.7432438051299
 30
0.0
 40
4.0
100
AcDbArc
 50
270.0
 51
90.0
  0
LINE
  5
130
330
1E
100
AcDbEntity
  8
0
100
AcDbLine
 10
320.5
 20
171.7432438051299
 30
0.0
 11
314.0
 21
171.7432438051299
 31
0.0
  0
LINE
  5
131
330
1E
100
AcDbEntity
  8
0
100
AcDbLine
 10
320.5
 20
163.7432438051298
 30
0.0
 11
314.0
 21
163.7432438051298
 31
0.0
  0
LINE
  5
132
330
1E
100
AcDbEntity
  8
0
100
AcDbLine
 10
186.2832491350991
 20
288.0
 30
0.0
 11
186.2832491350991
 21
297.9503078051611
 31
0.0
  0
LINE
  5
133
330
1E
100
AcDbEntity
  8
1
100
AcDbLine
 10
184.2832491350991
 20
278.0
 30
0.0
 11
184.2832491350991
 21
340.9503078051611
 31
0.0
  0
LINE
  5
134
330
1E
100
AcDbEntity
  8
0
100
AcDbLine
 10
182.2832491350991
 20
288.0
 30
0.0
 11
182.2832491350991
 21
297.9503078051611
 31
0.0
  0
LINE
  5
135
330
1E
100
AcDbEntity
  8
0
100
AcDbLine
 10
181.2832491350991
 20
288.9999999999998
 30
0.0
 11
181.2832491350991
 21
297.9503078051611
 31
0.0
  0
LINE
  5
136
330
1E
100
AcDbEntity
  8
0
100
AcDbLine
 10
187.2872018359684
 20
289.0106261256066
 30
0.0
 11
181.2601522339474
 21
289.0106261256066
 31
0.0
  0
LINE
  5
137
330
1E
100
AcDbEntity
  8
0
100
AcDbLine
 10
181.2601522339474
 20
289.0106261256066
 30
0.0
 11
182.2562113328331
 21
288.0152590642866
 31
0.0
  0
LINE
  5
138
330
1E
100
AcDbEntity
  8
0
100
AcDbLine
 10
182.2562113328331
 20
288.0152590642866
 30
0.0
 11
186.2911463558394
 21
288.0152590642866
 31
0.0
  0
LINE
  5
139
330
1E
100
AcDbEntity
  8
0
100
AcDbLine
 10
186.2911463558394
 20
288.0152590642866
 30
0.0
 11
187.2872018359684
 21
289.0106261256066
 31
0.0
  0
LINE
  5
142
330
1E
100
AcDbEntity
  8
1
100
AcDbLine
 10
467.9922600448283
 20
278.5
 30
0.0
 11
467.9922600448283
 21
341.4923991329178
 31
0.0
  0
LINE
  5
31E
330
1E
100
AcDbEntity
  8
0
100
AcDbLine
 10
307.4999999999998
 20
298.0000012260658
 30
0.0
 11
307.4999999999998
 21
289.0496934209043
 31
0.0
  0
LINE
  5
31F
330
1E
100
AcDbEntity
  8
0
100
AcDbLine
 10
306.4999999999999
 20
288.0496934209046
 30
0.0
 11
306.4999999999999
 21
298.0000012260658
 31
0.0
  0
LINE
  5
320
330
1E
100
AcDbEntity
  8
0
100
AcDbLine
 10
302.4999999999999
 20
288.0496934209046
 30
0.0
 11
302.4999999999999
 21
298.0000012260658
 31
0.0
  0
LINE
  5
321
330
1E
100
AcDbEntity
  8
0
100
AcDbLine
 10
301.4999999999998
 20
289.0496934209043
 30
0.0
 11
301.4999999999998
 21
298.0000012260658
 31
0.0
  0
LINE
  5
322
330
1E
100
AcDbEntity
  8
0
100
AcDbLine
 10
302.4729621977338
 20
288.0649524851913
 30
0.0
 11
306.5078972207401
 21
288.0649524851913
 31
0.0
  0
LINE
  5
323
330
1E
100
AcDbEntity
  8
0
100
AcDbLine
 10
307.5039527008691
 20
289.0603195465113
 30
0.0
 11
301.4769030988483
 21
289.0603195465113
 31
0.0
  0
LINE
  5
324
330
1E
100
AcDbEntity
  8
0
100
AcDbLine
 10
301.4769030988483
 20
289.0603195465113
 30
0.0
 11
302.4729621977338
 21
288.0649524851913
 31
0.0
  0
LINE
  5
325
330
1E
100
AcDbEntity
  8
0
100
AcDbLine
 10
306.5078972207401
 20
288.0649524851913
 30
0.0
 11
307.5039527008691
 21
289.0603195465113
 31
0.0
  0
LINE
  5
326
330
1E
100
AcDbEntity
  8
0
100
AcDbLine
 10
306.4999999999999
 20
297.0000012260658
 30
0.0
 11
302.4999999999999
 21
297.0000012260658
 31
0.0
  0
LINE
  5
327
330
1E
100
AcDbEntity
  8
0
100
AcDbLine
 10
302.4999999999999
 20
297.0000012260658
 30
0.0
 11
301.4999999999998
 21
298.0000012260658
 31
0.0
  0
LINE
  5
328
330
1E
100
AcDbEntity
  8
0
100
AcDbLine
 10
307.4999999999998
 20
298.0000012260658
 30
0.0
 11
306.4999999999999
 21
297.0000012260658
 31
0.0
  0
LINE
  5
329
330
1E
100
AcDbEntity
  8
0
100
AcDbLine
 10
464.9922600448284
 20
289.0420913277565
 30
0.0
 11
464.9922600448284
 21
297.9923991329178
 31
0.0
  0
LINE
  5
32A
330
1E
100
AcDbEntity
  8
0
100
AcDbLine
 10
465.9922600448283
 20
288.0420913277566
 30
0.0
 11
465.9922600448283
 21
297.9923991329178
 31
0.0
  0
LINE
  5
32B
330
1E
100
AcDbEntity
  8
0
100
AcDbLine
 10
469.9922600448283
 20
288.0420913277566
 30
0.0
 11
469.9922600448283
 21
297.9923991329178
 31
0.0
  0
LINE
  5
32C
330
1E
100
AcDbEntity
  8
0
100
AcDbLine
 10
470.9922600448283
 20
297.9923991329178
 30
0.0
 11
470.9922600448283
 21
289.0420913277565
 31
0.0
  0
LINE
  5
32D
330
1E
100
AcDbEntity
  8
0
100
AcDbLine
 10
464.9691631436768
 20
289.0527174533632
 30
0.0
 11
465.9652222425623
 21
288.0573503920432
 31
0.0
  0
LINE
  5
32E
330
1E
100
AcDbEntity
  8
0
100
AcDbLine
 10
470.9962127456976
 20
289.0527174533632
 30
0.0
 11
464.9691631436768
 21
289.0527174533632
 31
0.0
  0
LINE
  5
32F
330
1E
100
AcDbEntity
  8
0
100
AcDbLine
 10
470.0001572655686
 20
288.0573503920432
 30
0.0
 11
470.9962127456976
 21
289.0527174533632
 31
0.0
  0
LINE
  5
330
330
1E
100
AcDbEntity
  8
0
100
AcDbLine
 10
465.9652222425623
 20
288.0573503920432
 30
0.0
 11
470.0001572655686
 21
288.0573503920432
 31
0.0
  0
LINE
  5
331
330
1E
100
AcDbEntity
  8
0
100
AcDbLine
 10
465.9922600448283
 20
296.9923991329178
 30
0.0
 11
464.9922600448284
 21
297.9923991329178
 31
0.0
  0
LINE
  5
332
330
1E
100
AcDbEntity
  8
0
100
AcDbLine
 10
470.9922600448283
 20
297.9923991329178
 30
0.0
 11
469.9922600448283
 21
296.9923991329178
 31
0.0
  0
LINE
  5
333
330
1E
100
AcDbEntity
  8
0
100
AcDbLine
 10
469.9922600448283
 20
296.9923991329178
 30
0.0
 11
465.9922600448283
 21
296.9923991329178
 31
0.0
  0
CIRCLE
  5
334
330
1E
100
AcDbEntity
  8
0
100
AcDbCircle
 10
304.4999999999999
 20
167.7432438051299
 30
0.0
 40
3.0
  0
CIRCLE
  5
335
330
1E
100
AcDbEntity
  8
0
100
AcDbCircle
 10
304.4999999999999
 20
167.7432438051299
 30
0.0
 40
2.299999999999998
  0
ENDSEC
  0
SECTION
  2
OBJECTS
  0
DICTIONARY
  5
C
330
0
100
AcDbDictionary
281
     1
  3
ACAD_GROUP
350
D
  3
ACAD_LAYOUT
350
19
  3
ACAD_MLINESTYLE
350
16
  3
ACAD_PLOTSETTINGS
350
18
  3
ACAD_PLOTSTYLENAME
350
E
  3
AcDbVariableDictionary
350
254
  3
AcmDictionary
350
207
  3
AMG
350
14C
  3
AMGSNAPSETTINGS
350
245
  3
DWGPROPS
350
4B9
  0
DICTIONARY
  5
24C
330
1E
100
AcDbDictionary
280
     1
281
     1
  3
ACAD_INDEX
360
24D
  0
DICTIONARY
  5
D
102
{ACAD_REACTORS
330
C
102
}
330
C
100
AcDbDictionary
281
     1
  0
DICTIONARY
  5
19
102
{ACAD_REACTORS
330
C
102
}
330
C
100
AcDbDictionary
281
     1
  3
Model
350
21
  3
ﾚｲｱｳﾄ1
350
1D
  0
DICTIONARY
  5
16
102
{ACAD_REACTORS
330
C
102
}
330
C
100
AcDbDictionary
281
     1
  3
Standard
350
17
  0
DICTIONARY
  5
18
102
{ACAD_REACTORS
330
C
102
}
330
C
100
AcDbDictionary
281
     1
  0
ACDBDICTIONARYWDFLT
  5
E
102
{ACAD_REACTORS
330
C
102
}
330
C
100
AcDbDictionary
281
     1
  3
Normal
350
F
100
AcDbDictionaryWithDefault
340
F
  0
DICTIONARY
  5
254
102
{ACAD_REACTORS
330
C
102
}
330
C
100
AcDbDictionary
281
     1
  3
DIMASSOC
350
256
  3
INDEXCTL
350
255
  0
DICTIONARY
  5
207
102
{ACAD_REACTORS
330
C
102
}
330
C
100
AcDbDictionary
281
     1
  3
AcmBOMDATA
350
4B7
  0
DICTIONARY
  5
14C
102
{ACAD_REACTORS
330
C
102
}
330
C
100
AcDbDictionary
281
     1
  3
AcMgSettings
350
14D
  3
AMGLAYCFG
350
4C1
  0
DICTIONARY
  5
245
102
{ACAD_REACTORS
330
C
102
}
330
C
100
AcDbDictionary
281
     1
  3
DIMENSION
350
24A
  3
FEA
350
249
  3
HATCH (1)
350
246
  3
HATCH (2)
350
247
  3
SIMPLE WELD
350
24B
  3
SYMBOLS
350
248
  0
XRECORD
  5
4B9
102
{ACAD_REACTORS
330
C
102
}
330
C
100
AcDbXrecord
280
     1
  1
DWGPROPS COOKIE
  2

  3

  4

  6

  7

  8

  9

300
AmdtFileType=84
301
=
302
=
303
=
304
=
305
=
306
=
307
=
308
=
309
=
 40
0.0037827430555556
 41
2450683.498032407
 42
2457917.57760434
  1

 90
        1
  0
DICTIONARY
  5
24D
102
{ACAD_REACTORS
330
24C
102
}
330
24C
100
AcDbDictionary
281
     1
  3
*A1
350
24E
  0
LAYOUT
  5
21
102
{ACAD_REACTORS
330
19
102
}
330
19
100
AcDbPlotSettings
  1

  2
EPSON PM-3700C
  4

  6

 40
0.0
 41
0.0
 42
0.0
 43
0.0
 44
0.0
 45
0.0
 46
0.0
 47
0.0
 48
0.0
 49
0.0
140
0.0
141
0.0
142
1.0
143
1.0
 70
  1712
 72
     0
 73
     0
 74
     0
  7

 75
     0
147
1.0
148
0.0
149
0.0
100
AcDbLayout
  1
Model
 70
     1
 71
     0
 10
0.0
 20
0.0
 11
12.0
 21
9.0
 12
0.0
 22
0.0
 32
0.0
 14
0.0
 24
0.0
 34
0.0
 15
0.0
 25
0.0
 35
0.0
146
0.0
 13
0.0
 23
0.0
 33
0.0
 16
1.0
 26
0.0
 36
0.0
 17
0.0
 27
1.0
 37
0.0
 76
     0
330
1E
  0
LAYOUT
  5
1D
102
{ACAD_REACTORS
330
19
102
}
330
19
100
AcDbPlotSettings
  1

  2
EPSON PM-3700C
  4

  6

 40
0.0
 41
0.0
 42
0.0
 43
0.0
 44
0.0
 45
0.0
 46
0.0
 47
0.0
 48
0.0
 49
0.0
140
0.0
141
0.0
142
1.0
143
1.0
 70
   688
 72
     0
 73
     0
 74
     5
  7

 75
    16
147
1.0
148
0.0
149
0.0
100
AcDbLayout
  1
ﾚｲｱｳﾄ1
 70
     0
 71
     1
 10
0.0
 20
0.0
 11
12.0
 21
9.0
 12
0.0
 22
0.0
 32
0.0
 14
1.000000000000000E+20
 24
1.000000000000000E+20
 34
1.000000000000000E+20
 15
-1.000000000000000E+20
 25
-1.000000000000000E+20
 35
-1.000000000000000E+20
146
0.0
 13
0.0
 23
0.0
 33
0.0
 16
1.0
 26
0.0
 36
0.0
 17
0.0
 27
1.0
 37
0.0
 76
     0
330
1A
  0
MLINESTYLE
  5
17
102
{ACAD_REACTORS
330
16
102
}
330
16
100
AcDbMlineStyle
  2
STANDARD
 70
     0
  3

 62
   256
 51
90.0
 52
90.0
 71
     2
 49
0.5
 62
   256
  6
BYLAYER
 49
-0.5
 62
   256
  6
BYLAYER
  0
ACDBPLACEHOLDER
  5
F
102
{ACAD_REACTORS
330
E
102
}
330
E
  0
DICTIONARYVAR
  5
256
102
{ACAD_REACTORS
330
254
102
}
330
254
100
DictionaryVariables
280
     0
  1
0
  0
DICTIONARYVAR
  5
255
102
{ACAD_REACTORS
330
254
102
}
330
254
100
DictionaryVariables
280
     0
  1
1
  0
ACMDATADICTIONARY
  5
4B7
102
{ACAD_REACTORS
330
207
102
}
330
207
100
AcDbDictionary
281
     1
  3
*A1
350
4B8
100
AcmDataDictionary
  0
DICTIONARY
  5
14D
102
{ACAD_REACTORS
330
14C
102
}
330
14C
100
AcDbDictionary
281
     1
  3
DWGSETTINGS
350
409
  0
ACAMGFILTERDAT
  5
24A
102
{ACAD_REACTORS
330
245
102
}
330
245
100
AcAmgFilterDat
 70
    15
  1
DIMENSION,AMDT_*_DIM
  2
*
  3
*
  4
*
  5
*
290
     1
  0
ACAMGFILTERDAT
  5
249
102
{ACAD_REACTORS
330
245
102
}
330
245
100
AcAmgFilterDat
 70
    15
  1
*
  2
AM_FEA-AM_*
  3
*
  4
*
  5
*
290
     1
  0
ACAMGFILTERDAT
  5
246
102
{ACAD_REACTORS
330
245
102
}
330
245
100
AcAmgFilterDat
 70
    15
  1
HATCH
  2
*
  3
*
  4
*
  5
*
290
     1
  0
ACAMGFILTERDAT
  5
247
102
{ACAD_REACTORS
330
245
102
}
330
245
100
AcAmgFilterDat
 70
    15
  1
LINE
  2
8,8N,*-8,*-8N,AM_8,AM_8N,*-AM_8,*-AM_8N
  3
*
  4
*
  5
INSERT,STDPART2D
290
     1
  0
ACAMGFILTERDAT
  5
24B
102
{ACAD_REACTORS
330
245
102
}
330
245
100
AcAmgFilterDat
 70
    15
  1
ARC
  2
AM_5
  3
*
  4
2
  5
INSERT
290
     0
  0
ACAMGFILTERDAT
  5
248
102
{ACAD_REACTORS
330
245
102
}
330
245
100
AcAmgFilterDat
 70
    15
  1
ACMFCFRAME,ACMDATUMTARGET,ACMDATUMID,ACMWELDSYM,ACMSURFSYM,ACMFEATID,ACMPARTREF,ACMBALLOON,AMDTEDGESYM,AMGSCREWCALCTABLE
  2
*
  3
*
  4
*
  5
*
290
     1
  0
LAYER_INDEX
  5
24E
102
{ACAD_REACTORS
330
24D
102
}
330
24D
100
AcDbIndex
 40
2457919.466691979
100
AcDbLayerIndex
  8
0
360
24F
 90
      245
  8
1
360
250
 90
       10
  8
10
360
251
 90
        0
  8
11
360
252
 90
        0
  8
2
360
253
 90
        8
  0
ACMDATAENTRYBLOCK
  5
4B8
102
{ACAD_REACTORS
330
4B7
102
}
330
4B7
100
AcmDataEntry
100
AcmDataEntryBlock
  0
IDBUFFER
  5
24F
330
0
100
AcDbIdBuffer
330
42
330
43
330
44
330
45
330
46
330
47
330
48
330
49
330
4A
330
4B
330
4C
330
4D
330
4E
330
4F
330
50
330
51
330
52
330
53
330
54
330
55
330
56
330
57
330
58
330
59
330
5A
330
5B
330
5C
330
5E
330
5F
330
60
330
65
330
66
330
67
330
68
330
69
330
6A
330
6B
330
6C
330
6D
330
71
330
72
330
73
330
74
330
75
330
76
330
77
330
78
330
79
330
7A
330
7B
330
7C
330
7D
330
7E
330
7F
330
80
330
81
330
82
330
83
330
84
330
85
330
86
330
87
330
88
330
89
330
8A
330
8B
330
8D
330
8E
330
90
330
93
330
94
330
95
330
96
330
97
330
98
330
99
330
9A
330
9B
330
9C
330
9D
330
9E
330
9F
330
A0
330
A1
330
A2
330
A3
330
A4
330
A5
330
A6
330
A7
330
A8
330
A9
330
AA
330
AB
330
AC
330
AD
330
AE
330
AF
330
B0
330
B1
330
B2
330
B3
330
B4
330
B5
330
B6
330
B7
330
B8
330
B9
330
BA
330
BB
330
C6
330
C7
330
C8
330
C9
330
CA
330
CB
330
CC
330
CD
330
CE
330
CF
330
D0
330
D1
330
D2
330
D3
330
D4
330
D5
330
D6
330
D7
330
D8
330
D9
330
DA
330
DB
330
DC
330
DD
330
DE
330
DF
330
E0
330
E1
330
E2
330
E3
330
E4
330
E5
330
E6
330
E7
330
E8
330
E9
330
EA
330
EB
330
EC
330
ED
330
EE
330
EF
330
F0
330
F1
330
F2
330
F3
330
F4
330
F5
330
F6
330
F7
330
F8
330
F9
330
FA
330
FB
330
FC
330
FD
330
FE
330
FF
330
100
330
101
330
102
330
103
330
104
330
105
330
106
330
107
330
108
330
109
330
10A
330
10B
330
10C
330
10D
330
10E
330
10F
330
110
330
112
330
114
330
115
330
116
330
117
330
118
330
119
330
11A
330
11B
330
11C
330
11D
330
11E
330
11F
330
120
330
121
330
122
330
123
330
124
330
125
330
126
330
127
330
128
330
12B
330
12C
330
12D
330
12E
330
12F
330
130
330
131
330
132
330
134
330
135
330
136
330
137
330
138
330
139
330
31E
330
31F
330
320
330
321
330
322
330
323
330
324
330
325
330
326
330
327
330
328
330
329
330
32A
330
32B
330
32C
330
32D
330
32E
330
32F
330
330
330
331
330
332
330
333
330
334
330
335
  0
IDBUFFER
  5
250
330
0
100
AcDbIdBuffer
330
5D
330
6E
330
6F
330
70
330
C4
330
C5
330
111
330
113
330
133
330
142
  0
IDBUFFER
  5
251
330
0
100
AcDbIdBuffer
  0
IDBUFFER
  5
252
330
0
100
AcDbIdBuffer
  0
IDBUFFER
  5
253
330
0
100
AcDbIdBuffer
330
BC
330
BD
330
BE
330
BF
330
C0
330
C1
330
C2
330
C3
  0
ENDSEC
  0
EOF
