  0
SECTION
  2
HEADER
  9
$ACADVER
  1
AC1015
  9
$ACADMAINTVER
 70
    13
  9
$DWGCODEPAGE
  3
ANSI_932
  9
$INSBASE
 10
0.0
 20
0.0
 30
0.0
  9
$EXTMIN
 10
285.0002390717812
 20
201.8583593323032
 30
0.0
  9
$EXTMAX
 10
483.0324328518675
 20
362.6754701095495
 30
0.0
  9
$LIMMIN
 10
0.0
 20
0.0
  9
$LIMMAX
 10
750.0
 20
540.0
  9
$ORTHOMODE
 70
     1
  9
$REGENMODE
 70
     1
  9
$FILLMODE
 70
     1
  9
$QTEXTMODE
 70
     0
  9
$MIRRTEXT
 70
     1
  9
$LTSCALE
 40
20.0
  9
$ATTMODE
 70
     1
  9
$TEXTSIZE
 40
10.0
  9
$TRACEWID
 40
0.05
  9
$TEXTSTYLE
  7
BIGFONT
  9
$CLAYER
  8
0
  9
$CELTYPE
  6
ByLayer
  9
$CECOLOR
 62
   256
  9
$CELTSCALE
 40
1.0
  9
$DISPSILH
 70
     0
  9
$DIMSCALE
 40
2.0
  9
$DIMASZ
 40
3.0
  9
$DIMEXO
 40
2.0
  9
$DIMDLI
 40
0.3799999999999999
  9
$DIMRND
 40
0.0
  9
$DIMDLE
 40
0.0
  9
$DIMEXE
 40
2.0
  9
$DIMTP
 40
0.0
  9
$DIMTM
 40
0.0
  9
$DIMTXT
 40
3.2
  9
$DIMCEN
 40
0.09
  9
$DIMTSZ
 40
0.0
  9
$DIMTOL
 70
     0
  9
$DIMLIM
 70
     0
  9
$DIMTIH
 70
     0
  9
$DIMTOH
 70
     0
  9
$DIMSE1
 70
     0
  9
$DIMSE2
 70
     0
  9
$DIMTAD
 70
     1
  9
$DIMZIN
 70
     0
  9
$DIMBLK
  1

  9
$DIMASO
 70
     0
  9
$DIMSHO
 70
     0
  9
$DIMPOST
  1

  9
$DIMAPOST
  1

  9
$DIMALT
 70
     0
  9
$DIMALTD
 70
     2
  9
$DIMALTF
 40
25.4
  9
$DIMLFAC
 40
1.0
  9
$DIMTOFL
 70
     0
  9
$DIMTVP
 40
1.6
  9
$DIMTIX
 70
     1
  9
$DIMSOXD
 70
     0
  9
$DIMSAH
 70
     0
  9
$DIMBLK1
  1

  9
$DIMBLK2
  1

  9
$DIMSTYLE
  2
STANDARD
  9
$DIMCLRD
 70
     0
  9
$DIMCLRE
 70
     0
  9
$DIMCLRT
 70
     0
  9
$DIMTFAC
 40
1.0
  9
$DIMGAP
 40
0.09
  9
$DIMJUST
 70
     0
  9
$DIMSD1
 70
     0
  9
$DIMSD2
 70
     0
  9
$DIMTOLJ
 70
     1
  9
$DIMTZIN
 70
     0
  9
$DIMALTZ
 70
     0
  9
$DIMALTTZ
 70
     0
  9
$DIMUPT
 70
     0
  9
$DIMDEC
 70
     4
  9
$DIMTDEC
 70
     4
  9
$DIMALTU
 70
     2
  9
$DIMALTTD
 70
     2
  9
$DIMTXSTY
  7
STANDARD
  9
$DIMAUNIT
 70
     0
  9
$DIMADEC
 70
     0
  9
$DIMALTRND
 40
0.0
  9
$DIMAZIN
 70
     0
  9
$DIMDSEP
 70
    46
  9
$DIMATFIT
 70
     3
  9
$DIMFRAC
 70
     0
  9
$DIMLDRBLK
  1

  9
$DIMLUNIT
 70
     2
  9
$DIMLWD
 70
    -2
  9
$DIMLWE
 70
    -2
  9
$DIMTMOVE
 70
     0
  9
$LUNITS
 70
     2
  9
$LUPREC
 70
     4
  9
$SKETCHINC
 40
0.1
  9
$FILLETRAD
 40
0.0
  9
$AUNITS
 70
     0
  9
$AUPREC
 70
     0
  9
$MENU
  1
ACAD
  9
$ELEVATION
 40
0.0
  9
$PELEVATION
 40
0.0
  9
$THICKNESS
 40
0.0
  9
$LIMCHECK
 70
     0
  9
$CHAMFERA
 40
0.0
  9
$CHAMFERB
 40
0.0
  9
$CHAMFERC
 40
0.0
  9
$CHAMFERD
 40
0.0
  9
$SKPOLY
 70
     0
  9
$TDCREATE
 40
2450683.496400463
  9
$TDUCREATE
 40
2450683.121400463
  9
$TDUPDATE
 40
2454383.464622210
  9
$TDUUPDATE
 40
2454383.089622210
  9
$TDINDWG
 40
0.0021144560
  9
$TDUSRTIMER
 40
0.0021144560
  9
$USRTIMER
 70
     1
  9
$ANGBASE
 50
0.0
  9
$ANGDIR
 70
     0
  9
$PDMODE
 70
     0
  9
$PDSIZE
 40
0.0
  9
$PLINEWID
 40
0.0
  9
$SPLFRAME
 70
     0
  9
$SPLINETYPE
 70
     6
  9
$SPLINESEGS
 70
     8
  9
$HANDSEED
  5
326
  9
$SURFTAB1
 70
     6
  9
$SURFTAB2
 70
     6
  9
$SURFTYPE
 70
     6
  9
$SURFU
 70
     6
  9
$SURFV
 70
     6
  9
$UCSBASE
  2

  9
$UCSNAME
  2

  9
$UCSORG
 10
0.0
 20
0.0
 30
0.0
  9
$UCSXDIR
 10
1.0
 20
0.0
 30
0.0
  9
$UCSYDIR
 10
0.0
 20
1.0
 30
0.0
  9
$UCSORTHOREF
  2

  9
$UCSORTHOVIEW
 70
     0
  9
$UCSORGTOP
 10
0.0
 20
0.0
 30
0.0
  9
$UCSORGBOTTOM
 10
0.0
 20
0.0
 30
0.0
  9
$UCSORGLEFT
 10
0.0
 20
0.0
 30
0.0
  9
$UCSORGRIGHT
 10
0.0
 20
0.0
 30
0.0
  9
$UCSORGFRONT
 10
0.0
 20
0.0
 30
0.0
  9
$UCSORGBACK
 10
0.0
 20
0.0
 30
0.0
  9
$PUCSBASE
  2

  9
$PUCSNAME
  2

  9
$PUCSORG
 10
0.0
 20
0.0
 30
0.0
  9
$PUCSXDIR
 10
1.0
 20
0.0
 30
0.0
  9
$PUCSYDIR
 10
0.0
 20
1.0
 30
0.0
  9
$PUCSORTHOREF
  2

  9
$PUCSORTHOVIEW
 70
     0
  9
$PUCSORGTOP
 10
0.0
 20
0.0
 30
0.0
  9
$PUCSORGBOTTOM
 10
0.0
 20
0.0
 30
0.0
  9
$PUCSORGLEFT
 10
0.0
 20
0.0
 30
0.0
  9
$PUCSORGRIGHT
 10
0.0
 20
0.0
 30
0.0
  9
$PUCSORGFRONT
 10
0.0
 20
0.0
 30
0.0
  9
$PUCSORGBACK
 10
0.0
 20
0.0
 30
0.0
  9
$USERI1
 70
     0
  9
$USERI2
 70
     0
  9
$USERI3
 70
     0
  9
$USERI4
 70
     0
  9
$USERI5
 70
     0
  9
$USERR1
 40
0.0
  9
$USERR2
 40
0.0
  9
$USERR3
 40
0.0
  9
$USERR4
 40
0.0
  9
$USERR5
 40
0.0
  9
$WORLDVIEW
 70
     1
  9
$SHADEDGE
 70
     3
  9
$SHADEDIF
 70
    70
  9
$TILEMODE
 70
     1
  9
$MAXACTVP
 70
    16
  9
$PINSBASE
 10
0.0
 20
0.0
 30
0.0
  9
$PLIMCHECK
 70
     0
  9
$PEXTMIN
 10
1.000000000000000E+20
 20
1.000000000000000E+20
 30
1.000000000000000E+20
  9
$PEXTMAX
 10
-1.000000000000000E+20
 20
-1.000000000000000E+20
 30
-1.000000000000000E+20
  9
$PLIMMIN
 10
0.0
 20
0.0
  9
$PLIMMAX
 10
12.0
 20
9.0
  9
$UNITMODE
 70
     0
  9
$VISRETAIN
 70
     0
  9
$PLINEGEN
 70
     1
  9
$PSLTSCALE
 70
     0
  9
$TREEDEPTH
 70
  3020
  9
$CMLSTYLE
  2
Standard
  9
$CMLJUST
 70
     0
  9
$CMLSCALE
 40
1.0
  9
$PROXYGRAPHICS
 70
     1
  9
$MEASUREMENT
 70
     0
  9
$CELWEIGHT
370
    -1
  9
$ENDCAPS
280
     0
  9
$JOINSTYLE
280
     0
  9
$LWDISPLAY
290
     0
  9
$INSUNITS
 70
     0
  9
$HYPERLINKBASE
  1

  9
$STYLESHEET
  1

  9
$XEDIT
290
     1
  9
$CEPSNTYPE
380
     0
  9
$PSTYLEMODE
290
     1
  9
$FINGERPRINTGUID
  2
{FA07EEF0-1C82-4934-B2CA-F06950871D88}
  9
$VERSIONGUID
  2
{03FB2B67-3B09-4CD2-A242-431368E9FEDA}
  9
$EXTNAMES
290
     1
  9
$PSVPSCALE
 40
0.0
  9
$OLESTARTUP
290
     0
  0
ENDSEC
  0
SECTION
  2
CLASSES
  0
CLASS
  1
ACDBDICTIONARYWDFLT
  2
AcDbDictionaryWithDefault
  3
AutoCAD 2000
 90
        0
280
     0
281
     0
  0
CLASS
  1
ACDBPLACEHOLDER
  2
AcDbPlaceHolder
  3
AutoCAD 2000
 90
        0
280
     0
281
     0
  0
CLASS
  1
LAYOUT
  2
AcDbLayout
  3
AutoCAD 2000
 90
        0
280
     0
281
     0
  0
CLASS
  1
AMGSETTINGSOBJ
  2
AmgSettingsObj
  3
"AcadM|Product Description: AutoCAD Mechanical 2000|Company: Autodesk"
 90
        0
280
     0
281
     0
  0
CLASS
  1
ACME_DOCUMENT
  2
AcMeDbDoc
  3
AcMeServices
 90
        0
280
     0
281
     0
  0
CLASS
  1
ACMESCOPE
  2
AcMeScope
  3
AcMeServices
 90
        0
280
     0
281
     0
  0
CLASS
  1
ACMECOMMANDHISTORY
  2
AcMeCommandHistory
  3
AcMeServices
 90
        0
280
     0
281
     0
  0
CLASS
  1
ACIMSYSVARMAN
  2
AcImSysVarManager
  3
AcMeServices
 90
        0
280
     0
281
     0
  0
CLASS
  1
ACIMREALSYSVAR
  2
AcImRealSysVar
  3
AcMeServices
 90
        0
280
     0
281
     0
  0
CLASS
  1
ACIMINTSYSVAR
  2
AcImIntSysVar
  3
AcMeServices
 90
        0
280
     0
281
     0
  0
CLASS
  1
ACMEDRAWINGMAN
  2
AcMeDrawingMan
  3
AcMeServices
 90
        0
280
     0
281
     0
  0
CLASS
  1
ACMEVIEW
  2
AcMeView
  3
AcMeServices
 90
        0
280
     0
281
     0
  0
CLASS
  1
ACDBENTITYCACHE
  2
AcMeEntityCache
  3
AcMeServices
 90
        0
280
     0
281
     0
  0
CLASS
  1
GSMANAGER
  2
AcMeGSManager
  3
AcMeServices
 90
        0
280
     0
281
     0
  0
CLASS
  1
AMDTINTERNALREACTOR
  2
AmdtInternalReactor
  3
AcMeServices
 90
        0
280
     0
281
     0
  0
CLASS
  1
ACMESTATEMGR
  2
AcMeStateMgr
  3
AcMeServices
 90
        0
280
     0
281
     0
  0
CLASS
  1
ACGREFMASTER
  2
AcGrefMaster
  3
AcAttribServices
 90
        0
280
     0
281
     0
  0
CLASS
  1
AM_DRAWING_MGR
  2
AcDmDwgMgr
  3
AcMechDwgViewMgmt
 90
        0
280
     0
281
     0
  0
CLASS
  1
AM_DWG_DOCUMENT
  2
AcDmDwgDocument
  3
AcMechDwgViewMgmt
 90
        0
280
     0
281
     0
  0
CLASS
  1
AM_DWG_SHEET
  2
AcDmSheet
  3
AcMechDwgViewMgmt
 90
        0
280
     0
281
     0
  0
CLASS
  1
AM_VIEWDIMPARMAP
  2
AcDmViewDimParMap
  3
AcMechDwgViewMgmt
 90
        0
280
     0
281
     0
  0
CLASS
  1
AM_DWGMGR_NAME
  2
AcDmDwgMgrName
  3
AcMechDwgViewMgmt
 90
        0
280
     0
281
     0
  0
CLASS
  1
ACME_DATABASE
  2
AcMeDbDatabase
  3
AcMeServices
 90
        0
280
     0
281
     0
  0
CLASS
  1
ACRFINSADJUSTERMGR
  2
AcRfInsAdjusterMgr
  3
AcMeServices
 90
        0
280
     0
281
     0
  0
CLASS
  1
ACGREFACADMASTER
  2
AcGrefacadMaster
  3
AcGrefServices
 90
        0
280
     0
281
     0
  0
CLASS
  1
AMDTMENUSTATEMGR
  2
AmdtMenuStateMgr
  3
McadcomServices
 90
        0
280
     0
281
     0
  0
CLASS
  1
AMDTMCOMMENUSTATE
  2
AmdtMcomMenuState
  3
McadcomServices
 90
        0
280
     0
281
     0
  0
CLASS
  1
AMIMASTER
  2
AmiMaster
  3
AmiServices
 90
        0
280
     0
281
     0
  0
CLASS
  1
ASAPP
  2
AcAsAppObject
  3
AutoSurfServices
 90
        0
280
     0
281
     0
  0
CLASS
  1
IM_STATIC_MAN
  2
AcImStaticVarManager
  3
AcMeServices
 90
        0
280
     0
281
     0
  0
CLASS
  1
ACIMSTRSYSVAR
  2
AcImStrSysVar
  3
AcMeServices
 90
        0
280
     0
281
     0
  0
CLASS
  1
ACIMDBLSTATICVAR
  2
AcImDblStaticVar
  3
AcMeServices
 90
        0
280
     0
281
     0
  0
CLASS
  1
ACIMSTRSTATICVAR
  2
AcImStrStaticVar
  3
AcMeServices
 90
        0
280
     0
281
     0
  0
CLASS
  1
ACIMINTSTATICVAR
  2
AcImIntStaticVar
  3
AcMeServices
 90
        0
280
     0
281
     0
  0
CLASS
  1
ACASGREFMASTER
  2
AcAsGrefMaster
  3
AutoSurfResolverServices
 90
        0
280
     0
281
     0
  0
CLASS
  1
ACADGREFMODULE
  2
AcAdGrefModule
  3
AdGrefServices
 90
        0
280
     0
281
     0
  0
CLASS
  1
AMDTMAPISURFMOUDULE
  2
AmdtMApiSurfModule
  3
MApiSurfServices
 90
    32768
280
     0
281
     0
  0
CLASS
  1
MAPIAMMOUDLE
  2
MApiAmModule
  3
MApiAmServices
 90
        0
280
     0
281
     0
  0
CLASS
  1
AMDTADMENUSTATE
  2
AmdtAdMenuState
  3
DesignerServices
 90
        0
280
     0
281
     0
  0
CLASS
  1
ADAPPL
  2
AcAdAppl
  3
DesignerServices
 90
        0
280
     0
281
     0
  0
CLASS
  1
DEPMGR
  2
AcAdDepMgr
  3
DesignerServices
 90
        0
280
     0
281
     0
  0
CLASS
  1
PARAMMGR
  2
AcAdParamMgr
  3
DesignerServices
 90
        0
280
     0
281
     0
  0
CLASS
  1
PARAMSCOPE
  2
AcAdParamScope
  3
DesignerServices
 90
        0
280
     0
281
     0
  0
CLASS
  1
NAMEDAPPL
  2
AcAdNamedAppl
  3
DesignerServices
 90
        0
280
     0
281
     0
  0
CLASS
  1
AMDTDMMENUSTATE
  2
AmdtDmMenuState
  3
AcMechDwgViewMgmt
 90
        0
280
     0
281
     0
  0
CLASS
  1
MAPIADMODULE
  2
MApiAdModule
  3
MApiAdServices
 90
        0
280
     0
281
     0
  0
CLASS
  1
AMDTAMMENUSTATE
  2
AmdtAmMenuState
  3
DesignerAssemblies
 90
        0
280
     0
281
     0
  0
CLASS
  1
ACAMPROJECT
  2
AcAmProject
  3
DesignerAssemblies
 90
        0
280
     0
281
     0
  0
CLASS
  1
ACAMGRCOMPDEF
  2
AcAmGrCompDef
  3
DesignerAssemblies
 90
        0
280
     0
281
     0
  0
CLASS
  1
ACCMCONTEXT
  2
AcCmContext
  3
DesignerAssemblies
 90
        0
280
     0
281
     0
  0
CLASS
  1
ACAMCOMPDEF
  2
AcAmCompDef
  3
DesignerAssemblies
 90
        0
280
     0
281
     0
  0
CLASS
  1
ACAMCOMPDEFMGR
  2
AcAmCompDefMgr
  3
DesignerAssemblies
 90
        0
280
     0
281
     0
  0
CLASS
  1
AMCONTEXTMGR
  2
AcAmContextMgr
  3
DesignerAssemblies
 90
        0
280
     0
281
     0
  0
CLASS
  1
ACAMCONTEXTMODELER
  2
AcAmContextModeler
  3
DesignerAssemblies
 90
        0
280
     0
281
     0
  0
CLASS
  1
ACMDATADICTIONARY
  2
AcmDataDictionary
  3
"AcmSymBB|Product Description: AutoCAD Mechanical 2000|Company: Autodesk"
 90
        0
280
     0
281
     0
  0
CLASS
  1
ACMDATAENTRYBLOCK
  2
AcmDataEntryBlock
  3
"AcmSymBB|Product Description: AutoCAD Mechanical 2000|Company: Autodesk"
 90
        0
280
     0
281
     0
  0
CLASS
  1
CATALOGSTATE
  2
AcAmCatalogState
  3
DesignerAssemblies
 90
        0
280
     0
281
     0
  0
CLASS
  1
ACAMGRCOMPDEFSET
  2
AcAmGrCompDefSet
  3
DesignerAssemblies
 90
        0
280
     0
281
     0
  0
CLASS
  1
AMDTBROWSERDBTAB
  2
AmdtBrowserDbTab
  3
McadcomServices
 90
        0
280
     0
281
     0
  0
CLASS
  1
CBROWSERAPPOBJECT
  2
CBrowserAppObject
  3
McadcomServices
 90
        0
280
     0
281
     0
  0
CLASS
  1
DM_PLACEHOLDER
  2
AcDmSelsetPlaceholder
  3
AcMechDwgViewMgmt
 90
        0
280
     0
281
     0
  0
CLASS
  1
ACMSTANDARDANSI
  2
AcmStandardANSI
  3
"Amdt_StdImp|Product Description: AutoCAD Mechanical 2000|Company: Autodesk"
 90
        0
280
     0
281
     0
  0
CLASS
  1
AMGOBJPROPCFG
  2
AmgObjPropCfg
  3
"AmgLay|Product Description: AutoCAD Mechanical 2000|Company: Autodesk"
 90
        1
280
     0
281
     0
  0
CLASS
  1
ACMSURFSTANDARDANSI
  2
AcmSurfTextStdANSI
  3
"Amdt_StdImp|Product Description: AutoCAD Mechanical 2000|Company: Autodesk"
 90
        0
280
     0
281
     0
  0
CLASS
  1
ACMFCFSTANDARDANSI
  2
AcmFCFStdANSI
  3
"Amdt_StdImp|Product Description: AutoCAD Mechanical 2000|Company: Autodesk"
 90
        0
280
     0
281
     0
  0
CLASS
  1
ACMWELDSTANDARDANSI
  2
AcmWeldingStdANSI
  3
"Amdt_StdImp|Product Description: AutoCAD Mechanical 2000|Company: Autodesk"
 90
        0
280
     0
281
     0
  0
CLASS
  1
ACMIDSTANDARDANSI
  2
AcmIdStdANSI
  3
"Amdt_StdImp|Product Description: AutoCAD Mechanical 2000|Company: Autodesk"
 90
        0
280
     0
281
     0
  0
CLASS
  1
ACMDATUMSTANDARDANSI
  2
AcmDatumStdANSI
  3
"Amdt_StdImp|Product Description: AutoCAD Mechanical 2000|Company: Autodesk"
 90
        0
280
     0
281
     0
  0
CLASS
  1
ACMBOMSTANDARDANSI
  2
AcmBOMStdANSI
  3
"Amdt_StdImp|Product Description: AutoCAD Mechanical 2000|Company: Autodesk"
 90
        0
280
     0
281
     0
  0
CLASS
  1
ACMDETAILSTANDARDANSI
  2
AmdtDetailSymStdANSI
  3
"Amdt_StdImp|Product Description: AutoCAD Mechanical 2000|Company: Autodesk"
 90
        0
280
     0
281
     0
  0
CLASS
  1
ACMSECTIONSTANDARDANSI
  2
AmdtSectionSymStdANSI
  3
"Amdt_StdImp|Product Description: AutoCAD Mechanical 2000|Company: Autodesk"
 90
        0
280
     0
281
     0
  0
CLASS
  1
ACMCENTERLINESTANDARDANSI
  2
AmdtCenterLineStdANSI
  3
"Amdt_StdImp|Product Description: AutoCAD Mechanical 2000|Company: Autodesk"
 90
        0
280
     0
281
     0
  0
CLASS
  1
ACMTHREADLINESTANDARDANSI
  2
AmdtThreadLineStdANSI
  3
"Amdt_StdImp|Product Description: AutoCAD Mechanical 2000|Company: Autodesk"
 90
        0
280
     0
281
     0
  0
CLASS
  1
ACMNOTESTANDARDANSI
  2
AmdtNoteStdANSI
  3
"Amdt_StdImp|Product Description: AutoCAD Mechanical 2000|Company: Autodesk"
 90
        0
280
     0
281
     0
  0
CLASS
  1
ACAMGLAYSTD
  2
AcAmgLayStd
  3
"AcAmgLayStd|Product Description: AutoCAD Mechanical 2000|Company: Autodesk"
 90
        0
280
     0
281
     0
  0
CLASS
  1
ACAMGDIMSTD
  2
AcAmgDimStd
  3
"AcAmgDimStd|Product Description: AutoCAD Mechanical 2000|Company: Autodesk"
 90
        0
280
     0
281
     0
  0
CLASS
  1
ACAMGHOLECHARTSTDANSI
  2
AcAmgHoleChartStdANSI
  3
ACMSYMBB_MODULE_NAME
 90
        0
280
     0
281
     0
  0
CLASS
  1
ACAMGTITLESTD
  2
AcAmgTitleStd
  3
"TITLEAPP"
 90
        0
280
     0
281
     0
  0
CLASS
  1
ACAMGFILTERDAT
  2
AcAmgFilterDat
  3
"AcadM|Product Description: AutoCAD Mechanical 2000|Company: Autodesk"
 90
        0
280
     0
281
     0
  0
CLASS
  1
LAYER_INDEX
  2
AcDbLayerIndex
  3
AutoCAD 2000
 90
        0
280
     0
281
     0
  0
CLASS
  1
IDBUFFER
  2
AcDbIdBuffer
  3
AutoCAD 2000
 90
        0
280
     0
281
     0
  0
CLASS
  1
DICTIONARYVAR
  2
AcDbDictionaryVar
  3
AutoCAD 2000
 90
        0
280
     0
281
     0
  0
CLASS
  1
AMDTFORMULAUPDATEDISPATCHER
  2
AmdtFormulaUpdateDispatcher
  3
AcMeServices
 90
        0
280
     0
281
     0
  0
ENDSEC
  0
SECTION
  2
TABLES
  0
TABLE
  2
VPORT
  5
8
330
0
100
AcDbSymbolTable
 70
     3
  0
VPORT
  5
325
330
8
100
AcDbSymbolTableRecord
100
AcDbViewportTableRecord
  2
*Active
 70
     0
 10
0.0
 20
0.0
 11
1.0
 21
1.0
 12
0.0
 22
0.0
 13
0.0
 23
0.0
 14
0.5
 24
0.5
 15
1.0
 25
1.0
 16
0.0
 26
0.0
 36
1.0
 17
390.8285393413094
 27
277.1689155809356
 37
0.0
 40
203.8233817323046
 41
1.515723270440251
 42
50.0
 43
0.0
 44
0.0
 50
0.0
 51
0.0
 71
     0
 72
   500
 73
     1
 74
     1
 75
     0
 76
     0
 77
     0
 78
     0
281
     0
 65
     0
110
0.0
120
0.0
130
0.0
111
1.0
121
0.0
131
0.0
112
0.0
122
1.0
132
0.0
 79
     0
146
0.0
  0
ENDTAB
  0
TABLE
  2
LTYPE
  5
5
330
0
100
AcDbSymbolTable
 70
    19
  0
LTYPE
  5
13
330
5
100
AcDbSymbolTableRecord
100
AcDbLinetypeTableRecord
  2
ByBlock
 70
     0
  3

 72
    65
 73
     0
 40
0.0
  0
LTYPE
  5
14
330
5
100
AcDbSymbolTableRecord
100
AcDbLinetypeTableRecord
  2
ByLayer
 70
     0
  3

 72
    65
 73
     0
 40
0.0
  0
LTYPE
  5
15
330
5
100
AcDbSymbolTableRecord
100
AcDbLinetypeTableRecord
  2
CONTINUOUS
 70
     0
  3
実線
 72
    65
 73
     0
 40
0.0
  0
LTYPE
  5
24
330
5
100
AcDbSymbolTableRecord
100
AcDbLinetypeTableRecord
  2
CENTER
 70
     0
  3
____ _ ____ _ ____ _ ____ _ ____ _ ____ _ ____
 72
    65
 73
     4
 40
2.0
 49
1.25
 74
     0
 49
-0.25
 74
     0
 49
0.25
 74
     0
 49
-0.25
 74
     0
  0
LTYPE
  5
25
330
5
100
AcDbSymbolTableRecord
100
AcDbLinetypeTableRecord
  2
TENSEN1
 70
     0
  3

 72
    65
 73
     2
 40
0.4
 49
0.3
 74
     0
 49
-0.1
 74
     0
  0
LTYPE
  5
164
330
5
100
AcDbSymbolTableRecord
100
AcDbLinetypeTableRecord
  2
HIDDEN
 70
     0
  3
Hidden __ __ __ __ __ __ __ __ __ __ __ __ __ _
 72
    65
 73
     2
 40
0.375
 49
0.25
 74
     0
 49
-0.125
 74
     0
  0
LTYPE
  5
165
330
5
100
AcDbSymbolTableRecord
100
AcDbLinetypeTableRecord
  2
PHANTOM2
 70
     0
  3
Phantom (.5x) ___ _ _ ___ _ _ ___ _ _ ___ _ _
 72
    65
 73
     6
 40
1.25
 49
0.625
 74
     0
 49
-0.125
 74
     0
 49
0.125
 74
     0
 49
-0.125
 74
     0
 49
0.125
 74
     0
 49
-0.125
 74
     0
  0
LTYPE
  5
1C7
330
5
100
AcDbSymbolTableRecord
100
AcDbLinetypeTableRecord
  2
ASULTYPE
 70
     0
  3
実線
 72
    65
 73
     2
 40
3.0
 49
2.5
 74
     0
 49
0.5
 74
     0
  0
LTYPE
  5
1C8
330
5
100
AcDbSymbolTableRecord
100
AcDbLinetypeTableRecord
  2
ASVLTYPE
 70
     0
  3
__ __ __ __ __ __ __ __ __ __ __ __ __ __ __ __ __ __ __ __ __
 72
    65
 73
     2
 40
0.75
 49
0.5
 74
     0
 49
-0.25
 74
     0
  0
LTYPE
  5
20C
330
5
100
AcDbSymbolTableRecord
100
AcDbLinetypeTableRecord
  2
AM_ISO02W050
 70
     0
  3
__ __ __ __ __ __ __ __ __ __ __ __ __ __ __
 72
    65
 73
     2
 40
7.5
 49
6.0
 74
     0
 49
-1.5
 74
     0
  0
LTYPE
  5
20D
330
5
100
AcDbSymbolTableRecord
100
AcDbLinetypeTableRecord
  2
AM_ISO08W050
 70
     0
  3
____ . ____ . ____ . ____ . ____ . ____ . ____
 72
    65
 73
     4
 40
18.0
 49
12.0
 74
     0
 49
-1.5
 74
     0
 49
3.0
 74
     0
 49
-1.5
 74
     0
  0
LTYPE
  5
20E
330
5
100
AcDbSymbolTableRecord
100
AcDbLinetypeTableRecord
  2
AM_ISO09W050
 70
     0
  3
_____ . . _____ . . _____ . . ____ .. ____
 72
    65
 73
     6
 40
22.5
 49
12.0
 74
     0
 49
-1.5
 74
     0
 49
3.0
 74
     0
 49
-1.5
 74
     0
 49
3.0
 74
     0
 49
-1.5
 74
     0
  0
LTYPE
  5
20F
330
5
100
AcDbSymbolTableRecord
100
AcDbLinetypeTableRecord
  2
Amconstr
 70
     0
  3
_______________________
 72
    65
 73
     2
 40
9999.0
 49
9999.0
 74
     0
 49
0.0
 74
     0
  0
LTYPE
  5
210
330
5
100
AcDbSymbolTableRecord
100
AcDbLinetypeTableRecord
  2
AM_ISO08W050x2
 70
     0
  3
__ . __ . __ . __ . __ . __
 72
    65
 73
     4
 40
9.0
 49
6.0
 74
     0
 49
-0.75
 74
     0
 49
1.5
 74
     0
 49
-0.75
 74
     0
  0
LTYPE
  5
211
330
5
100
AcDbSymbolTableRecord
100
AcDbLinetypeTableRecord
  2
AM_ISO02W050x2
 70
     0
  3
 _ _ _ _ _ _ _ _ _ _ _ _
 72
    65
 73
     2
 40
3.75
 49
3.0
 74
     0
 49
-0.75
 74
     0
  0
LTYPE
  5
214
330
5
100
AcDbSymbolTableRecord
100
AcDbLinetypeTableRecord
  2
Amzigzag
 70
     0
  3
/\/-/\/-/\/-/\/-/\/-/\/
 72
    65
 73
     2
 40
11.00009999999999
 49
0.0001
 74
     4
 75
   135
340
213
 46
0.04
 50
0.0
 44
0.0
 45
0.0
 49
-11.0
 74
     0
  0
LTYPE
  5
215
330
5
100
AcDbSymbolTableRecord
100
AcDbLinetypeTableRecord
  2
CENTER2
 70
     0
  3
Center (.5x) ___ _ ___ _ ___ _ ___ _ ___ _ ___
 72
    65
 73
     4
 40
1.125
 49
0.75
 74
     0
 49
-0.125
 74
     0
 49
0.125
 74
     0
 49
-0.125
 74
     0
  0
LTYPE
  5
216
330
5
100
AcDbSymbolTableRecord
100
AcDbLinetypeTableRecord
  2
HIDDEN2
 70
     0
  3
Hidden (.5x) _ _ _ _ _ _ _ _ _ _ _ _ _ _ _ _ _
 72
    65
 73
     2
 40
0.1875
 49
0.125
 74
     0
 49
-0.0625
 74
     0
  0
LTYPE
  5
217
330
5
100
AcDbSymbolTableRecord
100
AcDbLinetypeTableRecord
  2
Amzigzag2
 70
     0
  3
/\/-/\/-/\/-/\/-/\/-/\/
 72
    65
 73
     2
 40
0.4401
 49
0.0001
 74
     4
 75
   135
340
213
 46
0.0016
 50
0.0
 44
0.0
 45
0.0
 49
-0.4400000000000002
 74
     0
  0
LTYPE
  5
225
330
5
100
AcDbSymbolTableRecord
100
AcDbLinetypeTableRecord
  2
ACANSTGB
 70
     0
  3
__ . . __ . .
 72
    65
 73
     6
 40
0.35433070866
 49
0.15748031496
 74
     0
 49
-0.03937007874
 74
     0
 49
0.03937007874
 74
     0
 49
-0.03937007874
 74
     0
 49
0.03937007874
 74
     0
 49
-0.03937007874
 74
     0
  0
LTYPE
  5
226
330
5
100
AcDbSymbolTableRecord
100
AcDbLinetypeTableRecord
  2
ACANSTGL
 70
     0
  3
_ _ _ _ _
 72
    65
 73
     2
 40
0.11811023622
 49
0.07874015748
 74
     0
 49
-0.03937007874
 74
     0
  0
ENDTAB
  0
TABLE
  2
LAYER
  5
2
330
0
100
AcDbSymbolTable
 70
     5
  0
LAYER
  5
10
330
2
100
AcDbSymbolTableRecord
100
AcDbLayerTableRecord
  2
0
 70
     0
 62
     7
  6
CONTINUOUS
370
    -3
390
F
  0
LAYER
  5
26
330
2
100
AcDbSymbolTableRecord
100
AcDbLayerTableRecord
  2
1
 70
     0
 62
     1
  6
CENTER
370
    -3
390
F
  0
LAYER
  5
27
330
2
100
AcDbSymbolTableRecord
100
AcDbLayerTableRecord
  2
10
 70
     0
 62
     7
  6
CONTINUOUS
370
    -3
390
F
  0
LAYER
  5
28
330
2
100
AcDbSymbolTableRecord
100
AcDbLayerTableRecord
  2
11
 70
     0
 62
     3
  6
CONTINUOUS
370
    -3
390
F
  0
LAYER
  5
29
330
2
100
AcDbSymbolTableRecord
100
AcDbLayerTableRecord
  2
2
 70
     0
 62
     2
  6
TENSEN1
370
    -3
390
F
  0
ENDTAB
  0
TABLE
  2
STYLE
  5
3
330
0
100
AcDbSymbolTable
 70
     5
  0
STYLE
  5
11
330
3
100
AcDbSymbolTableRecord
100
AcDbTextStyleTableRecord
  2
STANDARD
 70
     0
 40
0.0
 41
1.0
 50
0.0
 71
     0
 42
0.2
  3
TXT
  4
BIGFONT
  0
STYLE
  5
22
330
3
100
AcDbSymbolTableRecord
100
AcDbTextStyleTableRecord
  2
BIGFONT
 70
     0
 40
10.0
 41
0.8
 50
0.0
 71
     0
 42
10.0
  3

  4
bigfont
  0
STYLE
  5
213
330
3
100
AcDbSymbolTableRecord
100
AcDbTextStyleTableRecord
  2

 70
     1
 40
0.0
 41
1.0
 50
0.0
 71
     0
 42
10.0
  3
ltypeshp.shx
  4

  0
STYLE
  5
218
330
3
100
AcDbSymbolTableRecord
100
AcDbTextStyleTableRecord
  2
ACANSTS
 70
     0
 40
1.0
 41
1.0
 50
0.0
 71
     0
 42
10.0
  3
romans.shx
  4
extfont.shx
  0
STYLE
  5
224
330
3
100
AcDbSymbolTableRecord
100
AcDbTextStyleTableRecord
  2
ACANSGDT
 70
     0
 40
0.0
 41
1.0
 50
0.0
 71
     0
 42
10.0
  3
amgdtans.shx
  4

  0
ENDTAB
  0
TABLE
  2
VIEW
  5
6
330
0
100
AcDbSymbolTable
 70
     1
  0
VIEW
  5
2B
330
6
100
AcDbSymbolTableRecord
100
AcDbViewTableRecord
  2
ALL
 70
     0
 40
540.0
 10
441.9831932773107
 20
270.0
 41
0.0
 11
0.0
 21
0.0
 31
1.0
 12
0.0
 22
0.0
 32
0.0
 42
50.0
 43
0.0
 44
0.0
 50
0.0
 71
     0
281
     0
 72
     0
  0
ENDTAB
  0
TABLE
  2
UCS
  5
7
330
0
100
AcDbSymbolTable
 70
     0
  0
ENDTAB
  0
TABLE
  2
APPID
  5
9
330
0
100
AcDbSymbolTable
 70
    13
  0
APPID
  5
12
330
9
100
AcDbSymbolTableRecord
100
AcDbRegAppTableRecord
  2
ACAD
 70
     0
  0
APPID
  5
142
330
9
100
AcDbSymbolTableRecord
100
AcDbRegAppTableRecord
  2
GENIUS_GENDIM_13
 70
     0
  0
APPID
  5
143
330
9
100
AcDbSymbolTableRecord
100
AcDbRegAppTableRecord
  2
GENIUS_GENDTOL_13
 70
     0
  0
APPID
  5
144
330
9
100
AcDbSymbolTableRecord
100
AcDbRegAppTableRecord
  2
GENIUS_GE3DTOL_13
 70
     0
  0
APPID
  5
147
330
9
100
AcDbSymbolTableRecord
100
AcDbRegAppTableRecord
  2
MCAD_NO_VIS
 70
     0
  0
APPID
  5
148
330
9
100
AcDbSymbolTableRecord
100
AcDbRegAppTableRecord
  2
ACAD_TEMP_GRAPHIC
 70
     0
  0
APPID
  5
17A
330
9
100
AcDbSymbolTableRecord
100
AcDbRegAppTableRecord
  2
AD_DRAW
 70
     0
  0
APPID
  5
17D
330
9
100
AcDbSymbolTableRecord
100
AcDbRegAppTableRecord
  2
ACATTRIBSERVICES
 70
     0
  0
APPID
  5
1C9
330
9
100
AcDbSymbolTableRecord
100
AcDbRegAppTableRecord
  2
ASURF_PCURVE_APPNAME
 70
     0
  0
APPID
  5
1CE
330
9
100
AcDbSymbolTableRecord
100
AcDbRegAppTableRecord
  2
AMG_3D2D_5.0
 70
     0
  0
APPID
  5
1F9
330
9
100
AcDbSymbolTableRecord
100
AcDbRegAppTableRecord
  2
DESIGNERASSEMBLIES
 70
     0
  0
APPID
  5
201
330
9
100
AcDbSymbolTableRecord
100
AcDbRegAppTableRecord
  2
ACADM_DIM_EDIT
 70
     0
  0
APPID
  5
202
330
9
100
AcDbSymbolTableRecord
100
AcDbRegAppTableRecord
  2
AMDT_DM_ADJ
 70
     0
  0
ENDTAB
  0
TABLE
  2
DIMSTYLE
  5
A
330
0
100
AcDbSymbolTable
 70
     7
100
AcDbDimStyleTable
 71
     1
340
2A
  0
DIMSTYLE
105
2A
330
A
100
AcDbSymbolTableRecord
100
AcDbDimStyleTableRecord
  2
STANDARD
 70
     0
279
     2
340
22
  0
DIMSTYLE
105
22B
330
A
100
AcDbSymbolTableRecord
100
AcDbDimStyleTableRecord
  2
AM_ANSI
 70
     0
  4
mm
 41
0.1
 42
0.05
 43
0.5
 44
0.1
 47
0.1
 48
0.1
 78
     7
 79
     2
140
0.12
141
0.0
146
0.71
147
0.06
176
   256
177
   256
178
     2
274
     4
284
     7
340
11
371
    -1
372
    -1
  0
DIMSTYLE
105
22C
330
A
100
AcDbSymbolTableRecord
100
AcDbDimStyleTableRecord
  2
AM_ANSI$3
 70
     0
  4
mm
 41
0.1
 42
0.05
 43
0.5
 44
0.1
 47
0.1
 48
0.1
 78
     7
 79
     2
140
0.12
141
0.0
146
0.71
147
0.06
176
   256
177
   256
178
     2
274
     4
284
     7
288
     1
289
     0
340
11
371
    -1
372
    -1
  0
DIMSTYLE
105
22D
330
A
100
AcDbSymbolTableRecord
100
AcDbDimStyleTableRecord
  2
AM_ANSI$4
 70
     0
  4
mm
 41
0.1
 42
0.05
 43
0.5
 44
0.1
 47
0.1
 48
0.1
 78
     7
 79
     2
140
0.12
141
0.0
146
0.71
147
0.06
176
   256
177
   256
178
     2
274
     4
284
     7
288
     1
289
     0
340
11
371
    -1
372
    -1
  0
DIMSTYLE
105
22E
330
A
100
AcDbSymbolTableRecord
100
AcDbDimStyleTableRecord
  2
AM_ANSI$7
 70
     0
  4
mm
 41
0.1
 42
0.05
 43
0.5
 44
0.1
 47
0.1
 48
0.1
 78
     7
 79
     2
140
0.24
141
0.0
146
0.71
147
0.06
176
   256
177
   256
178
     2
274
     4
284
     7
340
11
371
    -1
372
    -1
  0
DIMSTYLE
105
22F
330
A
100
AcDbSymbolTableRecord
100
AcDbDimStyleTableRecord
  2
AM_ANSI$SF
 70
     0
  4
mm
 41
0.1
 42
0.05
 43
0.5
 44
0.1
 47
0.1
 48
0.1
 75
     1
 76
     1
 78
     7
 79
     2
140
0.12
141
0.0
146
0.71
147
0.06
176
   256
177
   256
178
     2
274
     4
284
     7
340
11
371
    -1
372
    -1
  0
DIMSTYLE
105
234
330
A
100
AcDbSymbolTableRecord
100
AcDbDimStyleTableRecord
  2
AM_ANSI$SH
 70
     0
  4
mm
 41
0.1
 42
0.05
 43
0.5
 44
0.1
 47
0.1
 48
0.1
 75
     1
 76
     1
 78
     7
 79
     2
140
0.12
141
0.0
146
0.71
147
0.06
173
     1
176
   256
177
   256
178
     2
274
     4
284
     7
340
11
341
230
343
230
371
    -1
372
    -1
  0
ENDTAB
  0
TABLE
  2
BLOCK_RECORD
  5
1
330
0
100
AcDbSymbolTable
 70
     4
  0
BLOCK_RECORD
  5
1E
102
{ACAD_XDICTIONARY
360
23F
102
}
330
1
100
AcDbSymbolTableRecord
100
AcDbBlockTableRecord
  2
*Model_Space
340
21
  0
BLOCK_RECORD
  5
1A
330
1
100
AcDbSymbolTableRecord
100
AcDbBlockTableRecord
  2
*Paper_Space
340
1D
  0
BLOCK_RECORD
  5
2F
330
1
100
AcDbSymbolTableRecord
100
AcDbBlockTableRecord
  2
QQ
340
0
102
{BLKREFS
331
3B
102
}
  0
BLOCK_RECORD
  5
1F0
330
1
100
AcDbSymbolTableRecord
100
AcDbBlockTableRecord
  2
*U1
340
0
  0
BLOCK_RECORD
  5
230
330
1
100
AcDbSymbolTableRecord
100
AcDbBlockTableRecord
  2
GENAXEH
340
0
  0
BLOCK_RECORD
  5
2FC
330
1
100
AcDbSymbolTableRecord
100
AcDbBlockTableRecord
  2
*U3
340
0
  0
ENDTAB
  0
ENDSEC
  0
SECTION
  2
BLOCKS
  0
BLOCK
  5
1F
330
1E
100
AcDbEntity
  8
0
100
AcDbBlockBegin
  2
*Model_Space
 70
     0
 10
0.0
 20
0.0
 30
0.0
  3
*Model_Space
  1

  0
ENDBLK
  5
20
330
1E
100
AcDbEntity
  8
0
100
AcDbBlockEnd
  0
BLOCK
  5
1B
330
1A
100
AcDbEntity
 67
     1
  8
0
100
AcDbBlockBegin
  2
*Paper_Space
 70
     0
 10
0.0
 20
0.0
 30
0.0
  3
*Paper_Space
  1

  0
ENDBLK
  5
1C
330
1A
100
AcDbEntity
 67
     1
  8
0
100
AcDbBlockEnd
  0
BLOCK
  5
30
330
2F
100
AcDbEntity
  8
0
100
AcDbBlockBegin
  2
QQ
 70
     0
 10
270.0
 20
0.0
 30
0.0
  3
QQ
  1

  0
LINE
  5
31
330
2F
100
AcDbEntity
  8
11
100
AcDbLine
 10
172.9999999999997
 20
36.0
 30
0.0
 11
270.0
 21
36.0
 31
0.0
  0
TEXT
  5
32
330
2F
100
AcDbEntity
  8
11
100
AcDbText
 10
175.0
 20
32.5
 30
0.0
 40
2.5
  1
部品名称
100
AcDbText
  0
LINE
  5
33
330
2F
100
AcDbEntity
  8
11
100
AcDbLine
 10
172.9999999999997
 20
36.0
 30
0.0
 11
172.9999999999997
 21
0.0
 31
0.0
  0
LINE
  5
34
330
2F
100
AcDbEntity
  8
11
100
AcDbLine
 10
172.9999999999997
 20
24.0
 30
0.0
 11
270.0
 21
24.0
 31
0.0
  0
TEXT
  5
35
330
2F
100
AcDbEntity
  8
11
100
AcDbText
 10
175.0
 20
20.5
 30
0.0
 40
2.5
  1
品番
100
AcDbText
  0
LINE
  5
36
330
2F
100
AcDbEntity
  8
11
100
AcDbLine
 10
172.9999999999997
 20
12.0
 30
0.0
 11
270.0
 21
12.0
 31
0.0
  0
TEXT
  5
37
330
2F
100
AcDbEntity
  8
11
100
AcDbText
 10
175.0
 20
8.5
 30
0.0
 40
2.5
  1
尺度
100
AcDbText
  0
TEXT
  5
38
330
2F
100
AcDbEntity
  8
11
100
AcDbText
 10
200.0
 20
8.5
 30
0.0
 40
2.5
  1
図番
100
AcDbText
  0
LINE
  5
39
330
2F
100
AcDbEntity
  8
11
100
AcDbLine
 10
198.0
 20
0.0
 30
0.0
 11
198.0
 21
12.0
 31
0.0
  0
ENDBLK
  5
3A
330
2F
100
AcDbEntity
  8
0
100
AcDbBlockEnd
  0
BLOCK
  5
1F1
330
1F0
100
AcDbEntity
  8
0
100
AcDbBlockBegin
  2
*U1
 70
     1
 10
0.0
 20
0.0
 30
0.0
  3
*U1
  1

  0
ENDBLK
  5
1F2
330
1F0
100
AcDbEntity
  8
0
100
AcDbBlockEnd
  0
BLOCK
  5
232
330
230
100
AcDbEntity
  8
0
100
AcDbBlockBegin
  2
GENAXEH
 70
     0
 10
0.0
 20
0.0
 30
0.0
  3
GENAXEH
  1

  0
LINE
  5
231
330
230
100
AcDbEntity
  8
0
100
AcDbLine
 10
-1.0
 20
0.0
 30
0.0
 11
1.0
 21
0.0
 31
0.0
  0
ENDBLK
  5
233
330
230
100
AcDbEntity
  8
0
100
AcDbBlockEnd
  0
BLOCK
  5
2FD
330
2FC
100
AcDbEntity
  8
0
100
AcDbBlockBegin
  2
*U3
 70
     1
 10
0.0
 20
0.0
 30
0.0
  3
*U3
  1

  0
ENDBLK
  5
2FE
330
2FC
100
AcDbEntity
  8
0
100
AcDbBlockEnd
  0
ENDSEC
  0
SECTION
  2
ENTITIES
  0
LINE
  5
42
330
1E
100
AcDbEntity
  8
0
100
AcDbLine
 10
359.75
 20
287.0
 30
0.0
 11
359.75
 21
292.5
 31
0.0
  0
LINE
  5
43
330
1E
100
AcDbEntity
  8
0
100
AcDbLine
 10
346.2499999999998
 20
287.0
 30
0.0
 11
346.2499999999998
 21
292.5
 31
0.0
  0
LINE
  5
44
330
1E
100
AcDbEntity
  8
0
100
AcDbLine
 10
353.0
 20
292.5
 30
0.0
 11
360.0
 21
292.5
 31
0.0
  0
LINE
  5
45
330
1E
100
AcDbEntity
  8
0
100
AcDbLine
 10
353.0
 20
292.5
 30
0.0
 11
345.9999999999998
 21
292.5
 31
0.0
  0
LINE
  5
46
330
1E
100
AcDbEntity
  8
0
100
AcDbLine
 10
353.0
 20
305.25
 30
0.0
 11
347.5
 21
305.25
 31
0.0
  0
LINE
  5
47
330
1E
100
AcDbEntity
  8
0
100
AcDbLine
 10
347.0
 20
304.7499999999998
 30
0.0
 11
345.9999999999998
 21
292.5
 31
0.0
  0
ARC
  5
48
330
1E
100
AcDbEntity
  8
0
100
AcDbCircle
 10
347.566124630994
 20
304.6838753690058
 30
0.0
 40
0.5699733016925192
100
AcDbArc
 50
96.662088994383
 51
173.3379110056169
  0
LINE
  5
49
330
1E
100
AcDbEntity
  8
0
100
AcDbLine
 10
353.0
 20
305.25
 30
0.0
 11
358.0
 21
305.25
 31
0.0
  0
LINE
  5
4A
330
1E
100
AcDbEntity
  8
0
100
AcDbLine
 10
358.4999999999998
 20
292.5
 30
0.0
 11
358.25
 21
304.7499999999998
 31
0.0
  0
LINE
  5
4B
330
1E
100
AcDbEntity
  8
0
100
AcDbLine
 10
358.25
 20
304.7499999999998
 30
0.0
 11
358.25
 21
305.0
 31
0.0
  0
ARC
  5
4C
330
1E
100
AcDbEntity
  8
0
100
AcDbCircle
 10
358.0002253830876
 20
305.0002253830876
 30
0.0
 40
0.2497747185990872
100
AcDbArc
 50
359.9482994054796
 51
90.05170059452039
  0
LINE
  5
4D
330
1E
100
AcDbEntity
  8
0
100
AcDbLine
 10
360.0
 20
307.5
 30
0.0
 11
391.2141894290525
 21
314.8158256474342
 31
0.0
  0
LINE
  5
4E
330
1E
100
AcDbEntity
  8
0
100
AcDbLine
 10
393.0
 20
312.0
 30
0.0
 11
360.9999999999998
 21
301.0
 31
0.0
  0
LINE
  5
4F
330
1E
100
AcDbEntity
  8
0
100
AcDbLine
 10
356.0
 20
305.25
 30
0.0
 11
360.0
 21
307.5
 31
0.0
  0
LINE
  5
50
330
1E
100
AcDbEntity
  8
0
100
AcDbLine
 10
391.9999999999998
 20
305.0
 30
0.0
 11
393.0
 21
312.0
 31
0.0
  0
LINE
  5
51
330
1E
100
AcDbEntity
  8
0
100
AcDbLine
 10
360.9999999999998
 20
301.0
 30
0.0
 11
358.9999999999998
 21
292.5
 31
0.0
  0
LINE
  5
52
330
1E
100
AcDbEntity
  8
0
100
AcDbLine
 10
370.75
 20
300.0
 30
0.0
 11
387.0
 21
306.7499999999999
 31
0.0
  0
ARC
  5
53
330
1E
100
AcDbEntity
  8
0
100
AcDbCircle
 10
367.3756702412868
 20
293.3823726541555
 30
0.0
 40
7.428263121955613
100
AcDbArc
 50
62.9829546930247
 51
186.8220365388246
  0
ARC
  5
54
330
1E
100
AcDbEntity
  8
0
100
AcDbCircle
 10
387.7499999999998
 20
305.125
 30
0.0
 40
1.789727632909543
100
AcDbArc
 50
12.09475707701205
 51
114.7751405688318
  0
LINE
  5
55
330
1E
100
AcDbEntity
  8
0
100
AcDbLine
 10
389.4999999999998
 20
305.5
 30
0.0
 11
389.4999999999998
 21
305.0
 31
0.0
  0
ARC
  5
56
330
1E
100
AcDbEntity
  8
0
100
AcDbCircle
 10
390.75
 20
305.6666666666667
 30
0.0
 40
1.416666666666674
100
AcDbArc
 50
208.0724869358534
 51
331.9275130641463
  0
ARC
  5
57
330
1E
100
AcDbEntity
  8
0
100
AcDbCircle
 10
391.4220682263031
 20
313.9663556411151
 30
0.0
 40
0.8751714941793007
100
AcDbArc
 50
18.91114609923191
 51
102.2068639260637
  0
LINE
  5
58
330
1E
100
AcDbEntity
  8
0
100
AcDbLine
 10
392.2644484330983
 20
314.2066547007047
 30
0.0
 11
393.0
 21
312.0
 31
0.0
  0
LINE
  5
59
330
1E
100
AcDbEntity
  8
0
100
AcDbLine
 10
391.2137294081515
 20
314.8158045220901
 30
0.0
 11
391.2370920999047
 21
314.821719489578
 31
0.0
  0
LINE
  5
5A
330
1E
100
AcDbEntity
  8
0
100
AcDbLine
 10
392.2643050732176
 20
314.2070298419588
 30
0.0
 11
392.2499639413375
 21
314.2500231690882
 31
0.0
  0
LINE
  5
5B
330
1E
100
AcDbEntity
  8
0
100
AcDbLine
 10
352.7499999999998
 20
307.0
 30
0.0
 11
352.7499999999998
 21
305.75
 31
0.0
  0
LINE
  5
5C
330
1E
100
AcDbEntity
  8
0
100
AcDbLine
 10
352.7499999999998
 20
305.75
 30
0.0
 11
353.25
 21
305.75
 31
0.0
  0
LINE
  5
5D
330
1E
100
AcDbEntity
  8
0
100
AcDbLine
 10
353.25
 20
305.75
 30
0.0
 11
353.25
 21
307.0
 31
0.0
  0
LINE
  5
5E
330
1E
100
AcDbEntity
  8
0
100
AcDbLine
 10
353.25
 20
307.0
 30
0.0
 11
356.0
 21
307.0
 31
0.0
  0
LINE
  5
5F
330
1E
100
AcDbEntity
  8
0
100
AcDbLine
 10
356.0
 20
307.0
 30
0.0
 11
356.4999999999998
 21
306.4999999999999
 31
0.0
  0
LINE
  5
60
330
1E
100
AcDbEntity
  8
0
100
AcDbLine
 10
356.4999999999998
 20
306.4999999999999
 30
0.0
 11
356.4999999999998
 21
305.5316724060717
 31
0.0
  0
LINE
  5
61
330
1E
100
AcDbEntity
  8
0
100
AcDbLine
 10
352.7499999999998
 20
307.0
 30
0.0
 11
350.0
 21
307.0
 31
0.0
  0
LINE
  5
62
330
1E
100
AcDbEntity
  8
0
100
AcDbLine
 10
350.0
 20
307.0
 30
0.0
 11
349.5
 21
306.4999999999999
 31
0.0
  0
LINE
  5
63
330
1E
100
AcDbEntity
  8
0
100
AcDbLine
 10
349.5
 20
306.4999999999999
 30
0.0
 11
349.5
 21
305.25
 31
0.0
  0
LINE
  5
64
330
1E
100
AcDbEntity
  8
0
100
AcDbLine
 10
346.2499999999998
 20
287.0
 30
0.0
 11
359.75
 21
287.0
 31
0.0
  0
LINE
  5
65
330
1E
100
AcDbEntity
  8
0
100
AcDbLine
 10
347.9999999999998
 20
287.0
 30
0.0
 11
347.9999999999998
 21
273.0
 31
0.0
  0
LINE
  5
66
330
1E
100
AcDbEntity
  8
0
100
AcDbLine
 10
347.9999999999998
 20
273.0
 30
0.0
 11
358.0
 21
273.0
 31
0.0
  0
LINE
  5
67
330
1E
100
AcDbEntity
  8
0
100
AcDbLine
 10
358.0
 20
273.0
 30
0.0
 11
358.0
 21
287.0
 31
0.0
  0
LINE
  5
68
330
1E
100
AcDbEntity
  8
2
100
AcDbLine
 10
358.0
 20
287.0
 30
0.0
 11
358.0
 21
295.5
 31
0.0
  0
LINE
  5
69
330
1E
100
AcDbEntity
  8
2
100
AcDbLine
 10
347.9999999999998
 20
287.0
 30
0.0
 11
347.9999999999998
 21
295.5
 31
0.0
  0
LINE
  5
6A
330
1E
100
AcDbEntity
  8
2
100
AcDbLine
 10
347.9999999999998
 20
295.5
 30
0.0
 11
358.0
 21
295.5
 31
0.0
  0
LINE
  5
6B
330
1E
100
AcDbEntity
  8
2
100
AcDbLine
 10
297.0002390717812
 20
287.0329392162648
 30
0.0
 11
297.0002390717812
 21
295.5329392162648
 31
0.0
  0
LINE
  5
6C
330
1E
100
AcDbEntity
  8
2
100
AcDbLine
 10
287.0002390717812
 20
287.0329392162648
 30
0.0
 11
287.0002390717812
 21
295.5329392162648
 31
0.0
  0
LINE
  5
6D
330
1E
100
AcDbEntity
  8
0
100
AcDbLine
 10
285.2502390717812
 20
287.0329392162648
 30
0.0
 11
285.2502390717812
 21
292.5329392162648
 31
0.0
  0
LINE
  5
6E
330
1E
100
AcDbEntity
  8
0
100
AcDbLine
 10
298.7502390717811
 20
287.0329392162648
 30
0.0
 11
298.7502390717811
 21
292.5329392162648
 31
0.0
  0
LINE
  5
6F
330
1E
100
AcDbEntity
  8
0
100
AcDbLine
 10
287.0002390717812
 20
273.0329392162648
 30
0.0
 11
297.0002390717812
 21
273.0329392162648
 31
0.0
  0
LINE
  5
70
330
1E
100
AcDbEntity
  8
0
100
AcDbLine
 10
285.2502390717812
 20
287.0329392162648
 30
0.0
 11
298.7502390717811
 21
287.0329392162648
 31
0.0
  0
LINE
  5
71
330
1E
100
AcDbEntity
  8
0
100
AcDbLine
 10
287.0002390717812
 20
287.0329392162648
 30
0.0
 11
287.0002390717812
 21
273.0329392162648
 31
0.0
  0
LINE
  5
72
330
1E
100
AcDbEntity
  8
0
100
AcDbLine
 10
297.0002390717812
 20
273.0329392162648
 30
0.0
 11
297.0002390717812
 21
287.0329392162648
 31
0.0
  0
LINE
  5
73
330
1E
100
AcDbEntity
  8
0
100
AcDbLine
 10
286.0002390717811
 20
304.7829392162648
 30
0.0
 11
285.0002390717812
 21
292.5329392162648
 31
0.0
  0
LINE
  5
74
330
1E
100
AcDbEntity
  8
2
100
AcDbLine
 10
287.0002390717812
 20
295.5329392162648
 30
0.0
 11
297.0002390717812
 21
295.5329392162648
 31
0.0
  0
LINE
  5
75
330
1E
100
AcDbEntity
  8
0
100
AcDbLine
 10
292.0002390717812
 20
292.5329392162648
 30
0.0
 11
299.0002390717812
 21
292.5329392162648
 31
0.0
  0
LINE
  5
76
330
1E
100
AcDbEntity
  8
0
100
AcDbLine
 10
292.0002390717812
 20
292.5329392162648
 30
0.0
 11
285.0002390717812
 21
292.5329392162648
 31
0.0
  0
LINE
  5
77
330
1E
100
AcDbEntity
  8
0
100
AcDbLine
 10
292.0002390717812
 20
305.2829392162649
 30
0.0
 11
297.0002390717812
 21
305.2829392162649
 31
0.0
  0
LINE
  5
78
330
1E
100
AcDbEntity
  8
0
100
AcDbLine
 10
288.5002390717811
 20
306.5329392162648
 30
0.0
 11
288.5002390717811
 21
305.2829392162649
 31
0.0
  0
LINE
  5
79
330
1E
100
AcDbEntity
  8
0
100
AcDbLine
 10
289.0002390717812
 20
307.0329392162648
 30
0.0
 11
288.5002390717811
 21
306.5329392162648
 31
0.0
  0
LINE
  5
7A
330
1E
100
AcDbEntity
  8
0
100
AcDbLine
 10
291.7502390717812
 20
307.0329392162648
 30
0.0
 11
289.0002390717812
 21
307.0329392162648
 31
0.0
  0
ARC
  5
7B
330
1E
100
AcDbEntity
  8
0
100
AcDbCircle
 10
286.5663637027754
 20
304.7168145852708
 30
0.0
 40
0.5699733016925192
100
AcDbArc
 50
96.662088994383
 51
173.3379110056169
  0
LINE
  5
7C
330
1E
100
AcDbEntity
  8
0
100
AcDbLine
 10
292.0002390717812
 20
305.2829392162649
 30
0.0
 11
286.5002390717812
 21
305.2829392162649
 31
0.0
  0
LINE
  5
7D
330
1E
100
AcDbEntity
  8
0
100
AcDbLine
 10
295.5002390717812
 20
306.5329392162648
 30
0.0
 11
295.5002390717812
 21
305.5646116223369
 31
0.0
  0
LINE
  5
7E
330
1E
100
AcDbEntity
  8
0
100
AcDbLine
 10
295.0002390717812
 20
307.0329392162648
 30
0.0
 11
295.5002390717812
 21
306.5329392162648
 31
0.0
  0
LINE
  5
7F
330
1E
100
AcDbEntity
  8
0
100
AcDbLine
 10
292.2502390717811
 20
307.0329392162648
 30
0.0
 11
295.0002390717812
 21
307.0329392162648
 31
0.0
  0
LINE
  5
80
330
1E
100
AcDbEntity
  8
0
100
AcDbLine
 10
295.5002390717812
 20
305.7829392162648
 30
0.0
 11
295.5002390717812
 21
305.2829392162649
 31
0.0
  0
LINE
  5
81
330
1E
100
AcDbEntity
  8
0
100
AcDbLine
 10
297.0002390717812
 20
305.2829392162649
 30
0.0
 11
297.5002390717812
 21
305.2829392162649
 31
0.0
  0
LINE
  5
82
330
1E
100
AcDbEntity
  8
0
100
AcDbLine
 10
299.0002390717812
 20
292.5329392162648
 30
0.0
 11
298.0002390717812
 21
304.7829392162648
 31
0.0
  0
ARC
  5
83
330
1E
100
AcDbEntity
  8
0
100
AcDbCircle
 10
297.4653083557718
 20
304.7480085002553
 30
0.0
 40
0.5360699822330309
100
AcDbArc
 50
3.736082354333942
 51
86.26391764566603
  0
LINE
  5
84
330
1E
100
AcDbEntity
  8
0
100
AcDbLine
 10
291.7502390717812
 20
307.0329392162648
 30
0.0
 11
292.2502390717811
 21
307.0329392162648
 31
0.0
  0
LINE
  5
85
330
1E
100
AcDbEntity
  8
0
100
AcDbLine
 10
292.0002390717812
 20
307.5329392162649
 30
0.0
 11
294.7502390717811
 21
307.5329392162649
 31
0.0
  0
LINE
  5
86
330
1E
100
AcDbEntity
  8
0
100
AcDbLine
 10
292.0002390717812
 20
307.5329392162649
 30
0.0
 11
289.2502390717812
 21
307.5329392162649
 31
0.0
  0
LINE
  5
87
330
1E
100
AcDbEntity
  8
0
100
AcDbLine
 10
292.0002390717812
 20
314.7829392162648
 30
0.0
 11
289.0002390717812
 21
314.7829392162648
 31
0.0
  0
LINE
  5
88
330
1E
100
AcDbEntity
  8
0
100
AcDbLine
 10
292.0002390717812
 20
314.7829392162648
 30
0.0
 11
295.0002390717812
 21
314.7829392162648
 31
0.0
  0
LINE
  5
89
330
1E
100
AcDbEntity
  8
0
100
AcDbLine
 10
288.5002390717811
 20
314.0329392162648
 30
0.0
 11
287.7502390717812
 21
305.2829392162649
 31
0.0
  0
LINE
  5
8A
330
1E
100
AcDbEntity
  8
0
100
AcDbLine
 10
295.5002390717812
 20
314.0329392162648
 30
0.0
 11
296.2502390717812
 21
305.2829392162649
 31
0.0
  0
LINE
  5
8B
330
1E
100
AcDbEntity
  8
0
100
AcDbLine
 10
294.7502390717811
 20
307.5329392162649
 30
0.0
 11
295.5002390717812
 21
307.5329392162649
 31
0.0
  0
LINE
  5
8C
330
1E
100
AcDbEntity
  8
0
100
AcDbLine
 10
295.5002390717812
 20
307.5329392162649
 30
0.0
 11
295.0002390717812
 21
314.7829392162648
 31
0.0
  0
LINE
  5
8D
330
1E
100
AcDbEntity
  8
0
100
AcDbLine
 10
289.2502390717812
 20
307.5329392162649
 30
0.0
 11
288.5002390717811
 21
307.5329392162649
 31
0.0
  0
LINE
  5
8E
330
1E
100
AcDbEntity
  8
0
100
AcDbLine
 10
288.5002390717811
 20
307.5329392162649
 30
0.0
 11
289.0002390717812
 21
314.7829392162648
 31
0.0
  0
LINE
  5
8F
330
1E
100
AcDbEntity
  8
0
100
AcDbLine
 10
288.5002390717811
 20
307.5329392162649
 30
0.0
 11
288.2502390717812
 21
305.2829392162649
 31
0.0
  0
LINE
  5
90
330
1E
100
AcDbEntity
  8
0
100
AcDbLine
 10
295.5002390717812
 20
307.5329392162649
 30
0.0
 11
295.7502390717812
 21
305.2829392162649
 31
0.0
  0
ARC
  5
91
330
1E
100
AcDbEntity
  8
0
100
AcDbCircle
 10
294.6078250885305
 20
313.9796632274311
 30
0.0
 40
0.8940028235346051
100
AcDbArc
 50
3.41643094556015
 51
63.96370410639943
  0
ARC
  5
92
330
1E
100
AcDbEntity
  8
0
100
AcDbCircle
 10
289.7549848629901
 20
313.7381086887923
 30
0.0
 40
1.288918942558674
100
AcDbArc
 50
125.84291309327
 51
166.7769518547689
  0
LINE
  5
93
330
1E
100
AcDbEntity
  8
1
100
AcDbLine
 10
353.0
 20
362.6754701095495
 30
0.0
 11
353.0
 21
337.1754701095495
 31
0.0
  0
LINE
  5
94
330
1E
100
AcDbEntity
  8
1
100
AcDbLine
 10
342.2499999999998
 20
350.6754701095495
 30
0.0
 11
395.5
 21
350.6754701095495
 31
0.0
  0
CIRCLE
  5
95
330
1E
100
AcDbEntity
  8
0
100
AcDbCircle
 10
353.0
 20
350.6754701095495
 30
0.0
 40
3.5
  0
LINE
  5
96
330
1E
100
AcDbEntity
  8
0
100
AcDbLine
 10
353.25
 20
353.9254701095495
 30
0.0
 11
353.25
 21
347.1754701095495
 31
0.0
  0
LINE
  5
97
330
1E
100
AcDbEntity
  8
0
100
AcDbLine
 10
393.0
 20
350.6754701095495
 30
0.0
 11
393.0
 21
353.9254701095495
 31
0.0
  0
LINE
  5
98
330
1E
100
AcDbEntity
  8
0
100
AcDbLine
 10
393.0
 20
350.6754701095495
 30
0.0
 11
393.0
 21
347.4254701095495
 31
0.0
  0
LINE
  5
99
330
1E
100
AcDbEntity
  8
0
100
AcDbLine
 10
391.9999999999998
 20
354.9254701095495
 30
0.0
 11
360.0
 21
355.4254701095495
 31
0.0
  0
LINE
  5
9A
330
1E
100
AcDbEntity
  8
0
100
AcDbLine
 10
391.9999999999998
 20
346.4254701095494
 30
0.0
 11
360.0
 21
345.9254701095495
 31
0.0
  0
LINE
  5
9B
330
1E
100
AcDbEntity
  8
0
100
AcDbLine
 10
391.9999999999998
 20
348.1754701095495
 30
0.0
 11
391.9999999999998
 21
353.1754701095495
 31
0.0
  0
LINE
  5
9C
330
1E
100
AcDbEntity
  8
0
100
AcDbLine
 10
391.25
 20
353.9254701095495
 30
0.0
 11
360.0
 21
354.4254701095495
 31
0.0
  0
LINE
  5
9D
330
1E
100
AcDbEntity
  8
0
100
AcDbLine
 10
391.25
 20
347.4254701095495
 30
0.0
 11
360.0
 21
346.9254701095495
 31
0.0
  0
LINE
  5
9E
330
1E
100
AcDbEntity
  8
0
100
AcDbLine
 10
360.0
 20
346.9254701095495
 30
0.0
 11
360.0
 21
354.4254701095495
 31
0.0
  0
CIRCLE
  5
9F
330
1E
100
AcDbEntity
  8
0
100
AcDbCircle
 10
353.0
 20
350.6754701095495
 30
0.0
 40
4.0
  0
LINE
  5
A0
330
1E
100
AcDbEntity
  8
0
100
AcDbLine
 10
360.0
 20
354.4254701095495
 30
0.0
 11
355.5
 21
353.9254701095495
 31
0.0
  0
LINE
  5
A1
330
1E
100
AcDbEntity
  8
0
100
AcDbLine
 10
360.0
 20
346.9254701095495
 30
0.0
 11
355.5
 21
347.4254701095495
 31
0.0
  0
ARC
  5
A2
330
1E
100
AcDbEntity
  8
0
100
AcDbCircle
 10
391.9644795661361
 20
353.8899496756856
 30
0.0
 40
1.036129465931288
100
AcDbArc
 50
1.964590200582405
 51
88.03540979941757
  0
ARC
  5
A3
330
1E
100
AcDbEntity
  8
0
100
AcDbCircle
 10
391.0770959224752
 20
353.0025660320248
 30
0.0
 40
0.9389609983040719
100
AcDbArc
 50
10.61123253014381
 51
79.38876746985616
  0
ARC
  5
A4
330
1E
100
AcDbEntity
  8
0
100
AcDbCircle
 10
392.0545312824811
 20
347.3709388270684
 30
0.0
 40
0.9470399973474071
100
AcDbArc
 50
266.6990396937264
 51
3.300960306273576
  0
ARC
  5
A5
330
1E
100
AcDbEntity
  8
0
100
AcDbCircle
 10
391.2750003860482
 20
348.1504697235012
 30
0.0
 40
0.7254305339126214
100
AcDbArc
 50
268.0250344656784
 51
1.974965534321357
  0
ARC
  5
A6
330
1E
100
AcDbEntity
  8
0
100
AcDbCircle
 10
353.0
 20
348.5921367762161
 30
0.0
 40
9.083333333333314
100
AcDbArc
 50
56.60151153201269
 51
123.3984884679872
  0
ARC
  5
A7
330
1E
100
AcDbEntity
  8
0
100
AcDbCircle
 10
355.0833333333331
 20
350.6754701095495
 30
0.0
 40
9.083333333333314
100
AcDbArc
 50
146.6015115320127
 51
213.3984884679871
  0
ARC
  5
A8
330
1E
100
AcDbEntity
  8
0
100
AcDbCircle
 10
353.0
 20
352.7588034428828
 30
0.0
 40
9.083333333333314
100
AcDbArc
 50
236.6015115320127
 51
303.3984884679871
  0
ARC
  5
A9
330
1E
100
AcDbEntity
  8
0
100
AcDbCircle
 10
349.4066312034846
 20
347.0821013130342
 30
0.0
 40
2.369357273337902
100
AcDbArc
 50
216.4183242657407
 51
233.5816757342588
  0
ARC
  5
AA
330
1E
100
AcDbEntity
  8
0
100
AcDbCircle
 10
349.1190111744306
 20
354.5564589351187
 30
0.0
 40
1.968091255869969
100
AcDbArc
 50
124.6510463712898
 51
145.3489536287101
  0
ARC
  5
AB
330
1E
100
AcDbEntity
  8
0
100
AcDbCircle
 10
356.4466920457476
 20
354.1221621552971
 30
0.0
 40
2.574653210772231
100
AcDbArc
 50
37.10715907659015
 51
52.89284092340988
  0
ARC
  5
AC
330
1E
100
AcDbEntity
  8
0
100
AcDbCircle
 10
357.1231982402991
 20
346.5522718692505
 30
0.0
 40
1.632288090788649
100
AcDbArc
 50
302.4905948148072
 51
327.5094051851926
  0
LINE
  5
AD
330
1E
100
AcDbEntity
  8
0
100
AcDbLine
 10
360.0
 20
355.4254701095495
 30
0.0
 11
358.7362767088951
 21
355.4254701095495
 31
0.0
  0
LINE
  5
AE
330
1E
100
AcDbEntity
  8
0
100
AcDbLine
 10
355.5
 20
353.9254701095495
 30
0.0
 11
358.6307971953846
 21
355.4215445770286
 31
0.0
  0
LINE
  5
AF
330
1E
100
AcDbEntity
  8
0
100
AcDbLine
 10
360.0
 20
345.9254701095495
 30
0.0
 11
358.7311778810327
 21
345.9254701095495
 31
0.0
  0
LINE
  5
B0
330
1E
100
AcDbEntity
  8
0
100
AcDbLine
 10
355.5
 20
347.4254701095495
 30
0.0
 11
358.6934523448605
 21
345.9359453420044
 31
0.0
  0
ARC
  5
B1
330
1E
100
AcDbEntity
  8
0
100
AcDbCircle
 10
353.0
 20
350.6754701095495
 30
0.0
 40
6.25
100
AcDbArc
 50
43.00670265126895
 51
317.2476688912338
  0
ARC
  5
B2
330
1E
100
AcDbEntity
  8
0
100
AcDbCircle
 10
350.9166666666665
 20
350.6754701095495
 30
0.0
 40
9.083333333333314
100
AcDbArc
 50
31.62615289178575
 51
33.39848846798725
  0
LINE
  5
B3
330
1E
100
AcDbEntity
  8
0
100
AcDbLine
 10
358.631025177042
 20
355.422237570696
 30
0.0
 11
358.6509247188559
 21
355.4374109335814
 31
0.0
  0
LINE
  5
B4
330
1E
100
AcDbEntity
  8
0
100
AcDbLine
 10
358.7362767088951
 20
355.4253762989378
 30
0.0
 11
358.6503999991683
 21
355.4379354764805
 31
0.0
  0
LINE
  5
B5
330
1E
100
AcDbEntity
  8
0
100
AcDbLine
 10
358.7313153937785
 20
345.9251453022332
 30
0.0
 11
358.7221165148385
 21
345.9251453022332
 31
0.0
  0
LINE
  5
B6
330
1E
100
AcDbEntity
  8
0
100
AcDbLine
 10
358.7221165148385
 20
345.9251453022332
 30
0.0
 11
358.6929855252761
 21
345.9358707119172
 31
0.0
  0
LINE
  5
B7
330
1E
100
AcDbEntity
  8
0
100
AcDbLine
 10
358.7205821620963
 20
345.9251453022332
 30
0.0
 11
358.4982747147932
 21
345.6738807244271
 31
0.0
  0
LINE
  5
B8
330
1E
100
AcDbEntity
  8
0
100
AcDbLine
 10
357.5891128149584
 20
346.4324507834299
 30
0.0
 11
357.6008194921306
 21
346.4458841991378
 31
0.0
  0
LINE
  5
B9
330
1E
100
AcDbEntity
  8
0
100
AcDbLine
 10
353.25
 20
353.9254701095495
 30
0.0
 11
353.2485628013708
 21
354.1169488152676
 31
0.0
  0
LINE
  5
BA
330
1E
100
AcDbEntity
  8
0
100
AcDbLine
 10
352.7499999999998
 20
354.1272456350219
 30
0.0
 11
352.7499999999998
 21
347.1754701095495
 31
0.0
  0
LINE
  5
BB
330
1E
100
AcDbEntity
  8
0
100
AcDbLine
 10
362.5
 20
350.6754701095495
 30
0.0
 11
362.5
 21
352.1754701095495
 31
0.0
  0
LINE
  5
BC
330
1E
100
AcDbEntity
  8
0
100
AcDbLine
 10
362.5
 20
352.1754701095495
 30
0.0
 11
362.5
 21
349.1754701095495
 31
0.0
  0
LINE
  5
BD
330
1E
100
AcDbEntity
  8
0
100
AcDbLine
 10
362.9999999999998
 20
348.6754701095495
 30
0.0
 11
368.9999999999998
 21
348.6754701095495
 31
0.0
  0
LINE
  5
BE
330
1E
100
AcDbEntity
  8
0
100
AcDbLine
 10
369.5
 20
349.1754701095495
 30
0.0
 11
369.5
 21
352.1754701095495
 31
0.0
  0
LINE
  5
BF
330
1E
100
AcDbEntity
  8
0
100
AcDbLine
 10
368.9999999999998
 20
352.6754701095494
 30
0.0
 11
362.9999999999998
 21
352.6754701095494
 31
0.0
  0
ARC
  5
C0
330
1E
100
AcDbEntity
  8
0
100
AcDbCircle
 10
368.979583330186
 20
352.1550534397356
 30
0.0
 40
0.5208170030121611
100
AcDbArc
 50
2.246640993496923
 51
87.75335900650309
  0
ARC
  5
C1
330
1E
100
AcDbEntity
  8
0
100
AcDbCircle
 10
363.1338169463919
 20
352.0416531631573
 30
0.0
 40
0.6477892378509842
100
AcDbArc
 50
101.9217031746961
 51
168.0782968253035
  0
ARC
  5
C2
330
1E
100
AcDbEntity
  8
0
100
AcDbCircle
 10
363.1040458899955
 20
349.2795159995449
 30
0.0
 40
0.6129412569288495
100
AcDbArc
 50
189.773199586865
 51
260.2268004131348
  0
ARC
  5
C3
330
1E
100
AcDbEntity
  8
0
100
AcDbCircle
 10
369.0288102019041
 20
349.1466599076453
 30
0.0
 40
0.472069754976334
100
AcDbArc
 50
266.5010903945158
 51
3.498909605484162
  0
LINE
  5
C4
330
1E
100
AcDbEntity
  8
0
100
AcDbLine
 10
363.25
 20
351.9254701095495
 30
0.0
 11
363.25
 21
349.4254701095495
 31
0.0
  0
LINE
  5
C5
330
1E
100
AcDbEntity
  8
0
100
AcDbLine
 10
363.25
 20
350.1754701095495
 30
0.0
 11
364.9999999999998
 21
351.9254701095495
 31
0.0
  0
LINE
  5
C6
330
1E
100
AcDbEntity
  8
0
100
AcDbLine
 10
364.9999999999998
 20
351.9254701095495
 30
0.0
 11
368.5
 21
351.9254701095495
 31
0.0
  0
ARC
  5
C7
330
1E
100
AcDbEntity
  8
0
100
AcDbCircle
 10
363.9642857142856
 20
349.4076129666922
 30
0.0
 40
1.285838287671041
100
AcDbArc
 50
0.7957235527403518
 51
99.59313426273048
  0
LINE
  5
C8
330
1E
100
AcDbEntity
  8
0
100
AcDbLine
 10
366.0
 20
349.4254701095495
 30
0.0
 11
366.0
 21
351.1754701095495
 31
0.0
  0
LINE
  5
C9
330
1E
100
AcDbEntity
  8
0
100
AcDbLine
 10
366.0
 20
351.1754701095495
 30
0.0
 11
367.5
 21
349.4254701095495
 31
0.0
  0
LINE
  5
CA
330
1E
100
AcDbEntity
  8
0
100
AcDbLine
 10
367.5
 20
349.4254701095495
 30
0.0
 11
367.5
 21
351.1754701095495
 31
0.0
  0
ARC
  5
CB
330
1E
100
AcDbEntity
  8
0
100
AcDbCircle
 10
368.6324379824831
 20
350.9105941445832
 30
0.0
 40
0.6326129116774673
100
AcDbArc
 50
54.47754336174221
 51
178.6525589924115
  0
ARC
  5
CC
330
1E
100
AcDbEntity
  8
0
100
AcDbCircle
 10
368.6479238746823
 20
351.0848559215732
 30
0.0
 40
0.6672399751649289
100
AcDbArc
 50
193.8200509231389
 51
278.7998140248973
  0
ARC
  5
CD
330
1E
100
AcDbEntity
  8
0
100
AcDbCircle
 10
368.7021371420418
 20
349.9254701095495
 30
0.0
 40
0.5022856290716675
100
AcDbArc
 50
275.4680182279769
 51
84.53198177202287
  0
ARC
  5
CE
330
1E
100
AcDbEntity
  8
0
100
AcDbCircle
 10
368.5458658276846
 20
349.9713359372339
 30
0.0
 40
0.5827866351768046
100
AcDbArc
 50
159.4960124004613
 51
290.5039875995386
  0
LINE
  5
CF
330
1E
100
AcDbEntity
  8
0
100
AcDbLine
 10
445.052262241503
 20
314.0
 30
0.0
 11
445.802262241503
 21
305.25
 31
0.0
  0
LINE
  5
D0
330
1E
100
AcDbEntity
  8
0
100
AcDbLine
 10
438.0522622415027
 20
314.0
 30
0.0
 11
437.302262241503
 21
305.25
 31
0.0
  0
LINE
  5
D1
330
1E
100
AcDbEntity
  8
0
100
AcDbLine
 10
448.3022622415028
 20
287.0
 30
0.0
 11
448.3022622415028
 21
292.5
 31
0.0
  0
LINE
  5
D2
330
1E
100
AcDbEntity
  8
0
100
AcDbLine
 10
434.802262241503
 20
287.0
 30
0.0
 11
434.802262241503
 21
292.5
 31
0.0
  0
LINE
  5
D3
330
1E
100
AcDbEntity
  8
2
100
AcDbLine
 10
436.552262241503
 20
287.0
 30
0.0
 11
436.552262241503
 21
295.5
 31
0.0
  0
LINE
  5
D4
330
1E
100
AcDbEntity
  8
2
100
AcDbLine
 10
446.5522622415028
 20
287.0
 30
0.0
 11
446.5522622415028
 21
295.5
 31
0.0
  0
LINE
  5
D5
330
1E
100
AcDbEntity
  8
0
100
AcDbLine
 10
434.802262241503
 20
287.0
 30
0.0
 11
448.3022622415028
 21
287.0
 31
0.0
  0
LINE
  5
D6
330
1E
100
AcDbEntity
  8
0
100
AcDbLine
 10
436.552262241503
 20
273.0
 30
0.0
 11
446.5522622415028
 21
273.0
 31
0.0
  0
LINE
  5
D7
330
1E
100
AcDbEntity
  8
0
100
AcDbLine
 10
436.552262241503
 20
287.0
 30
0.0
 11
436.552262241503
 21
273.0
 31
0.0
  0
LINE
  5
D8
330
1E
100
AcDbEntity
  8
0
100
AcDbLine
 10
446.5522622415028
 20
273.0
 30
0.0
 11
446.5522622415028
 21
287.0
 31
0.0
  0
ARC
  5
D9
330
1E
100
AcDbEntity
  8
0
100
AcDbCircle
 10
447.0173315254934
 20
304.7150692839905
 30
0.0
 40
0.5360699822330309
100
AcDbArc
 50
3.736082354333942
 51
86.26391764566603
  0
LINE
  5
DA
330
1E
100
AcDbEntity
  8
0
100
AcDbLine
 10
448.5522622415031
 20
292.5
 30
0.0
 11
447.552262241503
 21
304.7499999999998
 31
0.0
  0
LINE
  5
DB
330
1E
100
AcDbEntity
  8
0
100
AcDbLine
 10
435.552262241503
 20
304.7499999999998
 30
0.0
 11
434.552262241503
 21
292.5
 31
0.0
  0
LINE
  5
DC
330
1E
100
AcDbEntity
  8
0
100
AcDbLine
 10
441.5522622415028
 20
292.5
 30
0.0
 11
434.552262241503
 21
292.5
 31
0.0
  0
LINE
  5
DD
330
1E
100
AcDbEntity
  8
2
100
AcDbLine
 10
436.552262241503
 20
295.5
 30
0.0
 11
446.5522622415028
 21
295.5
 31
0.0
  0
ARC
  5
DE
330
1E
100
AcDbEntity
  8
0
100
AcDbCircle
 10
436.1183868724971
 20
304.6838753690058
 30
0.0
 40
0.5699733016925192
100
AcDbArc
 50
96.662088994383
 51
173.3379110056169
  0
LINE
  5
DF
330
1E
100
AcDbEntity
  8
0
100
AcDbLine
 10
446.5522622415028
 20
305.25
 30
0.0
 11
447.052262241503
 21
305.25
 31
0.0
  0
LINE
  5
E0
330
1E
100
AcDbEntity
  8
0
100
AcDbLine
 10
441.5522622415028
 20
314.7499999999999
 30
0.0
 11
438.552262241503
 21
314.7499999999999
 31
0.0
  0
ARC
  5
E1
330
1E
100
AcDbEntity
  8
0
100
AcDbCircle
 10
439.3070080327118
 20
313.7051694725272
 30
0.0
 40
1.288918942558674
100
AcDbArc
 50
125.84291309327
 51
166.7769518547689
  0
ARC
  5
E2
330
1E
100
AcDbEntity
  8
0
100
AcDbCircle
 10
444.1598482582521
 20
313.946724011166
 30
0.0
 40
0.8940028235346051
100
AcDbArc
 50
3.41643094556015
 51
63.96370410639943
  0
LINE
  5
E3
330
1E
100
AcDbEntity
  8
0
100
AcDbLine
 10
441.5522622415028
 20
314.7499999999999
 30
0.0
 11
444.5522622415031
 21
314.7499999999999
 31
0.0
  0
LINE
  5
E4
330
1E
100
AcDbEntity
  8
0
100
AcDbLine
 10
437.302262241503
 20
305.25
 30
0.0
 11
436.3022622415028
 21
292.5
 31
0.0
  0
LINE
  5
E5
330
1E
100
AcDbEntity
  8
0
100
AcDbLine
 10
445.802262241503
 20
305.25
 30
0.0
 11
446.8022622415031
 21
292.5
 31
0.0
  0
LINE
  5
E6
330
1E
100
AcDbEntity
  8
0
100
AcDbLine
 10
437.3205009716836
 20
305.25
 30
0.0
 11
436.0522622415031
 21
305.25
 31
0.0
  0
LINE
  5
E7
330
1E
100
AcDbEntity
  8
0
100
AcDbLine
 10
445.820485856424
 20
305.25
 30
0.0
 11
446.5522622415028
 21
305.25
 31
0.0
  0
LINE
  5
E8
330
1E
100
AcDbEntity
  8
0
100
AcDbLine
 10
438.0522622415027
 20
310.4999999999999
 30
0.0
 11
438.552262241503
 21
306.0
 31
0.0
  0
LINE
  5
E9
330
1E
100
AcDbEntity
  8
0
100
AcDbLine
 10
444.5522622415031
 20
306.0
 30
0.0
 11
445.052262241503
 21
310.4999999999999
 31
0.0
  0
ARC
  5
EA
330
1E
100
AcDbEntity
  8
0
100
AcDbCircle
 10
441.5522622415028
 20
307.6964285714284
 30
0.0
 40
3.446428571428563
100
AcDbArc
 50
209.487125672941
 51
330.5128743270586
  0
ARC
  5
EB
330
1E
100
AcDbEntity
  8
0
100
AcDbCircle
 10
441.5522622415028
 20
312.5
 30
0.0
 40
12.5
100
AcDbArc
 50
253.739795291688
 51
286.2602047083118
  0
LINE
  5
EC
330
1E
100
AcDbEntity
  8
0
100
AcDbLine
 10
391.9999999999998
 20
211.108359332303
 30
0.0
 11
360.0
 21
210.608359332303
 31
0.0
  0
LINE
  5
ED
330
1E
100
AcDbEntity
  8
0
100
AcDbLine
 10
391.9999999999998
 20
219.608359332303
 30
0.0
 11
360.0
 21
220.1083593323032
 31
0.0
  0
LINE
  5
EE
330
1E
100
AcDbEntity
  8
1
100
AcDbLine
 10
342.2499999999998
 20
215.358359332303
 30
0.0
 11
395.5
 21
215.358359332303
 31
0.0
  0
ARC
  5
EF
330
1E
100
AcDbEntity
  8
0
100
AcDbCircle
 10
355.0833333333331
 20
215.358359332303
 30
0.0
 40
9.083333333333314
100
AcDbArc
 50
146.6015115320127
 51
213.3984884679871
  0
LINE
  5
F0
330
1E
100
AcDbEntity
  8
1
100
AcDbLine
 10
353.0
 20
227.3583593323031
 30
0.0
 11
353.0
 21
201.8583593323032
 31
0.0
  0
ARC
  5
F1
330
1E
100
AcDbEntity
  8
0
100
AcDbCircle
 10
353.0
 20
217.4416926656363
 30
0.0
 40
9.083333333333314
100
AcDbArc
 50
236.6015115320127
 51
303.3984884679871
  0
ARC
  5
F2
330
1E
100
AcDbEntity
  8
0
100
AcDbCircle
 10
349.4066312034846
 20
211.7649905357879
 30
0.0
 40
2.369357273337902
100
AcDbArc
 50
216.4183242657407
 51
233.5816757342588
  0
LINE
  5
F3
330
1E
100
AcDbEntity
  8
0
100
AcDbLine
 10
358.7205821620963
 20
210.6080345249868
 30
0.0
 11
358.4982747147932
 21
210.3567699471808
 31
0.0
  0
LINE
  5
F4
330
1E
100
AcDbEntity
  8
0
100
AcDbLine
 10
358.7221165148385
 20
210.6080345249868
 30
0.0
 11
358.6929855252761
 21
210.6187599346708
 31
0.0
  0
LINE
  5
F5
330
1E
100
AcDbEntity
  8
0
100
AcDbLine
 10
358.7313153937785
 20
210.6080345249868
 30
0.0
 11
358.7221165148385
 21
210.6080345249868
 31
0.0
  0
LINE
  5
F6
330
1E
100
AcDbEntity
  8
0
100
AcDbLine
 10
360.0
 20
210.608359332303
 30
0.0
 11
358.7311778810327
 21
210.608359332303
 31
0.0
  0
ARC
  5
F7
330
1E
100
AcDbEntity
  8
0
100
AcDbCircle
 10
357.1231982402991
 20
211.2351610920041
 30
0.0
 40
1.632288090788649
100
AcDbArc
 50
302.4905948148072
 51
327.5094051851926
  0
ARC
  5
F8
330
1E
100
AcDbEntity
  8
0
100
AcDbCircle
 10
353.0
 20
213.2750259989697
 30
0.0
 40
9.083333333333314
100
AcDbArc
 50
56.60151153201269
 51
123.3984884679872
  0
ARC
  5
F9
330
1E
100
AcDbEntity
  8
0
100
AcDbCircle
 10
349.1190111744306
 20
219.2393481578724
 30
0.0
 40
1.968091255869969
100
AcDbArc
 50
124.6510463712898
 51
145.3489536287101
  0
LINE
  5
FA
330
1E
100
AcDbEntity
  8
0
100
AcDbLine
 10
358.7362767088951
 20
220.1082655216914
 30
0.0
 11
358.6503999991683
 21
220.120824699234
 31
0.0
  0
LINE
  5
FB
330
1E
100
AcDbEntity
  8
0
100
AcDbLine
 10
360.0
 20
220.1083593323032
 30
0.0
 11
358.7362767088951
 21
220.1083593323032
 31
0.0
  0
LINE
  5
FC
330
1E
100
AcDbEntity
  8
0
100
AcDbLine
 10
358.631025177042
 20
220.1051267934498
 30
0.0
 11
358.6509247188559
 21
220.1203001563349
 31
0.0
  0
ARC
  5
FD
330
1E
100
AcDbEntity
  8
0
100
AcDbCircle
 10
350.9166666666665
 20
215.358359332303
 30
0.0
 40
9.083333333333314
100
AcDbArc
 50
31.62615289178575
 51
33.39848846798725
  0
ARC
  5
FE
330
1E
100
AcDbEntity
  8
0
100
AcDbCircle
 10
356.4466920457476
 20
218.8050513780506
 30
0.0
 40
2.574653210772231
100
AcDbArc
 50
37.10715907659015
 51
52.89284092340988
  0
LINE
  5
FF
330
1E
100
AcDbEntity
  8
0
100
AcDbLine
 10
393.0
 20
215.358359332303
 30
0.0
 11
393.0
 21
212.1083593323032
 31
0.0
  0
ARC
  5
100
330
1E
100
AcDbEntity
  8
0
100
AcDbCircle
 10
392.0545312824811
 20
212.053828049822
 30
0.0
 40
0.9470399973474071
100
AcDbArc
 50
266.6990396937264
 51
3.300960306273576
  0
ARC
  5
101
330
1E
100
AcDbEntity
  8
0
100
AcDbCircle
 10
391.9644795661361
 20
218.5728388984394
 30
0.0
 40
1.036129465931288
100
AcDbArc
 50
1.964590200582405
 51
88.03540979941757
  0
LINE
  5
102
330
1E
100
AcDbEntity
  8
0
100
AcDbLine
 10
393.0
 20
215.358359332303
 30
0.0
 11
393.0
 21
218.6083593323032
 31
0.0
  0
CIRCLE
  5
103
330
1E
100
AcDbEntity
  8
0
100
AcDbCircle
 10
353.0
 20
215.358359332303
 30
0.0
 40
5.0
  0
CIRCLE
  5
104
330
1E
100
AcDbEntity
  8
0
100
AcDbCircle
 10
353.0
 20
215.358359332303
 30
0.0
 40
6.75
  0
ARC
  5
105
330
1E
100
AcDbEntity
  8
0
100
AcDbCircle
 10
367.2499999999998
 20
215.608359332303
 30
0.0
 40
3.259601202601323
100
AcDbArc
 50
265.6012946450044
 51
94.39870535499556
  0
LINE
  5
106
330
1E
100
AcDbEntity
  8
0
100
AcDbLine
 10
366.9999999999998
 20
218.858359332303
 30
0.0
 11
359.5
 21
218.858359332303
 31
0.0
  0
LINE
  5
107
330
1E
100
AcDbEntity
  8
0
100
AcDbLine
 10
366.9999999999998
 20
212.3583593323032
 30
0.0
 11
359.75
 21
212.3583593323032
 31
0.0
  0
POLYLINE
  5
108
330
1E
100
AcDbEntity
  8
0
100
AcDb2dPolyline
 66
     1
 10
0.0
 20
0.0
 30
0.0
 70
   129
  0
VERTEX
  5
109
330
108
100
AcDbEntity
  8
0
100
AcDbVertex
100
AcDb2dVertex
 10
392.5
 20
215.358359332303
 30
0.0
 42
0.0559894673163248
  0
VERTEX
  5
10A
330
108
100
AcDbEntity
  8
0
100
AcDbVertex
100
AcDb2dVertex
 10
392.3867947911751
 20
216.3661411190406
 30
0.0
 42
0.0697608182809473
  0
VERTEX
  5
10B
330
108
100
AcDbEntity
  8
0
100
AcDbVertex
100
AcDb2dVertex
 10
392.0972718241315
 20
217.1283346146164
 30
0.0
 42
0.1059912464325148
 70
     2
 50
118.780599089261
  0
VERTEX
  5
10C
330
108
100
AcDbEntity
  8
0
100
AcDbVertex
100
AcDb2dVertex
 10
391.6003878716245
 20
217.7023351595911
 30
0.0
 42
0.1629425455066609
 50
118.780599089261
  0
VERTEX
  5
10D
330
108
100
AcDbEntity
  8
0
100
AcDbVertex
100
AcDb2dVertex
 10
391.1249999999998
 20
217.8614823816156
 30
0.0
 42
0.1629425455067343
  0
VERTEX
  5
10E
330
108
100
AcDbEntity
  8
0
100
AcDbVertex
100
AcDb2dVertex
 10
390.6496121283751
 20
217.7023351595909
 30
0.0
 42
0.1059912464325071
  0
VERTEX
  5
10F
330
108
100
AcDbEntity
  8
0
100
AcDbVertex
100
AcDb2dVertex
 10
390.1527281758685
 20
217.1283346146164
 30
0.0
 42
0.0697608182809348
 70
     2
 50
241.2194009107388
  0
VERTEX
  5
110
330
108
100
AcDbEntity
  8
0
100
AcDbVertex
100
AcDb2dVertex
 10
389.8632052088247
 20
216.3661411190406
 30
0.0
 42
0.0559894673163217
 50
241.2194009107388
  0
VERTEX
  5
111
330
108
100
AcDbEntity
  8
0
100
AcDbVertex
100
AcDb2dVertex
 10
389.7499999999998
 20
215.358359332303
 30
0.0
 42
0.0559894673163
  0
VERTEX
  5
112
330
108
100
AcDbEntity
  8
0
100
AcDbVertex
100
AcDb2dVertex
 10
389.8632052088247
 20
214.3505775455656
 30
0.0
 42
0.0697608182809269
  0
VERTEX
  5
113
330
108
100
AcDbEntity
  8
0
100
AcDbVertex
100
AcDb2dVertex
 10
390.1527281758685
 20
213.5883840499898
 30
0.0
 42
0.1059912464324746
 70
     2
 50
298.7805990892611
  0
VERTEX
  5
114
330
108
100
AcDbEntity
  8
0
100
AcDbVertex
100
AcDb2dVertex
 10
390.6496121283751
 20
213.0143835050152
 30
0.0
 42
0.1629425455067525
 50
298.7805990892611
  0
VERTEX
  5
115
330
108
100
AcDbEntity
  8
0
100
AcDbVertex
100
AcDb2dVertex
 10
391.1249999999998
 20
212.8552362829906
 30
0.0
 42
0.1629425455067158
  0
VERTEX
  5
116
330
108
100
AcDbEntity
  8
0
100
AcDbVertex
100
AcDb2dVertex
 10
391.6003878716246
 20
213.0143835050152
 30
0.0
 42
0.105991246432479
  0
VERTEX
  5
117
330
108
100
AcDbEntity
  8
0
100
AcDbVertex
100
AcDb2dVertex
 10
392.0972718241315
 20
213.5883840499898
 30
0.0
 42
0.0697608182809343
 70
     2
 50
61.21940091073887
  0
VERTEX
  5
118
330
108
100
AcDbEntity
  8
0
100
AcDbVertex
100
AcDb2dVertex
 10
392.3867947911751
 20
214.3505775455656
 30
0.0
 42
0.0559894673163217
 50
61.21940091073887
  0
SEQEND
  5
119
330
108
100
AcDbEntity
  8
0
  0
ARC
  5
11A
330
1E
100
AcDbEntity
  8
0
100
AcDbCircle
 10
350.5815282943531
 20
215.2974308337891
 30
0.0
 40
9.418668778123507
100
AcDbArc
 50
330.1422306355685
 51
30.72881975226339
  0
LINE
  5
11B
330
1E
100
AcDbEntity
  8
0
100
AcDbLine
 10
359.7510266849344
 20
212.3585053644303
 30
0.0
 11
359.5275431417797
 21
212.3585053644303
 31
0.0
  0
LINE
  5
11C
330
1E
100
AcDbEntity
  8
0
100
AcDbLine
 10
448.5
 20
292.5
 30
0.0
 11
441.5
 21
292.5
 31
0.0
  0
LINE
  5
11D
330
1E
100
AcDbEntity
  8
0
100
AcDbLine
 10
359.5029573103403
 20
218.8586622925503
 30
0.0
 11
359.2149151518077
 21
218.8586622925503
 31
0.0
  0
LINE
  5
11E
330
1E
100
AcDbEntity
  8
0
100
AcDbLine
 10
359.5282741305861
 20
212.3584094114611
 30
0.0
 11
359.4669072584124
 21
212.3584094114611
 31
0.0
  0
CIRCLE
  5
11F
330
1E
100
AcDbEntity
  8
0
100
AcDbCircle
 10
353.0091675860288
 20
215.3598609382278
 30
0.0
 40
2.5
  0
CIRCLE
  5
120
330
1E
100
AcDbEntity
  8
0
100
AcDbCircle
 10
353.0091675860288
 20
215.3598609382278
 30
0.0
 40
2.0
  0
LINE
  5
122
330
1E
100
AcDbEntity
  8
0
100
AcDbLine
 10
294.4999999999998
 20
273.0
 30
0.0
 11
294.4999999999998
 21
243.5
 31
0.0
  0
LINE
  5
123
330
1E
100
AcDbEntity
  8
0
100
AcDbLine
 10
294.4999999999998
 20
243.5
 30
0.0
 11
293.9999999999999
 21
243.0
 31
0.0
  0
LINE
  5
124
330
1E
100
AcDbEntity
  8
0
100
AcDbLine
 10
293.9999999999999
 20
243.0
 30
0.0
 11
290.0
 21
243.0
 31
0.0
  0
LINE
  5
125
330
1E
100
AcDbEntity
  8
0
100
AcDbLine
 10
290.0
 20
243.0
 30
0.0
 11
289.4999999999999
 21
243.5
 31
0.0
  0
LINE
  5
126
330
1E
100
AcDbEntity
  8
0
100
AcDbLine
 10
289.4999999999999
 20
243.5
 30
0.0
 11
289.4999999999999
 21
273.0
 31
0.0
  0
LINE
  5
127
330
1E
100
AcDbEntity
  8
0
100
AcDbLine
 10
294.4999999999998
 20
243.5
 30
0.0
 11
289.4999999999999
 21
243.5
 31
0.0
  0
LINE
  5
128
330
1E
100
AcDbEntity
  8
0
100
AcDbLine
 10
293.9999999999999
 20
243.0
 30
0.0
 11
293.9999999999999
 21
273.0
 31
0.0
  0
LINE
  5
129
330
1E
100
AcDbEntity
  8
0
100
AcDbLine
 10
290.0
 20
243.0
 30
0.0
 11
290.0
 21
273.0
 31
0.0
  0
LINE
  5
12A
330
1E
100
AcDbEntity
  8
0
100
AcDbLine
 10
355.5
 20
273.0
 30
0.0
 11
355.5
 21
243.5
 31
0.0
  0
LINE
  5
12B
330
1E
100
AcDbEntity
  8
0
100
AcDbLine
 10
355.5
 20
243.5
 30
0.0
 11
355.0
 21
243.0
 31
0.0
  0
LINE
  5
12C
330
1E
100
AcDbEntity
  8
0
100
AcDbLine
 10
355.0
 20
243.0
 30
0.0
 11
351.0
 21
243.0
 31
0.0
  0
LINE
  5
12D
330
1E
100
AcDbEntity
  8
0
100
AcDbLine
 10
351.0
 20
243.0
 30
0.0
 11
350.4999999999998
 21
243.5
 31
0.0
  0
LINE
  5
12E
330
1E
100
AcDbEntity
  8
0
100
AcDbLine
 10
350.4999999999998
 20
243.5
 30
0.0
 11
350.4999999999998
 21
273.0
 31
0.0
  0
LINE
  5
12F
330
1E
100
AcDbEntity
  8
0
100
AcDbLine
 10
355.5
 20
243.5
 30
0.0
 11
350.4999999999998
 21
243.5
 31
0.0
  0
LINE
  5
130
330
1E
100
AcDbEntity
  8
0
100
AcDbLine
 10
355.0
 20
243.0
 30
0.0
 11
355.0
 21
273.0
 31
0.0
  0
LINE
  5
131
330
1E
100
AcDbEntity
  8
0
100
AcDbLine
 10
351.0
 20
243.0
 30
0.0
 11
351.0
 21
273.0
 31
0.0
  0
LINE
  5
132
330
1E
100
AcDbEntity
  8
1
100
AcDbLine
 10
353.0
 20
310.0
 30
0.0
 11
353.0
 21
237.5
 31
0.0
  0
LINE
  5
133
330
1E
100
AcDbEntity
  8
1
100
AcDbLine
 10
291.9999999999999
 20
320.0
 30
0.0
 11
291.9999999999999
 21
237.5
 31
0.0
  0
LINE
  5
134
330
1E
100
AcDbEntity
  8
1
100
AcDbLine
 10
441.5
 20
318.9999999999999
 30
0.0
 11
441.5
 21
235.0
 31
0.0
  0
LINE
  5
135
330
1E
100
AcDbEntity
  8
0
100
AcDbLine
 10
444.0
 20
273.0
 30
0.0
 11
444.0
 21
243.5
 31
0.0
  0
LINE
  5
136
330
1E
100
AcDbEntity
  8
0
100
AcDbLine
 10
444.0
 20
243.5
 30
0.0
 11
443.5
 21
243.0
 31
0.0
  0
LINE
  5
137
330
1E
100
AcDbEntity
  8
0
100
AcDbLine
 10
443.5
 20
243.0
 30
0.0
 11
439.5
 21
243.0
 31
0.0
  0
LINE
  5
138
330
1E
100
AcDbEntity
  8
0
100
AcDbLine
 10
439.5
 20
243.0
 30
0.0
 11
438.9999999999998
 21
243.5
 31
0.0
  0
LINE
  5
139
330
1E
100
AcDbEntity
  8
0
100
AcDbLine
 10
438.9999999999998
 20
243.5
 30
0.0
 11
438.9999999999998
 21
273.0
 31
0.0
  0
LINE
  5
13A
330
1E
100
AcDbEntity
  8
0
100
AcDbLine
 10
438.9999999999998
 20
243.5
 30
0.0
 11
444.0
 21
243.5
 31
0.0
  0
LINE
  5
13B
330
1E
100
AcDbEntity
  8
0
100
AcDbLine
 10
443.5
 20
243.0
 30
0.0
 11
443.5
 21
273.0
 31
0.0
  0
LINE
  5
13C
330
1E
100
AcDbEntity
  8
0
100
AcDbLine
 10
439.5
 20
243.0
 30
0.0
 11
439.5
 21
273.0
 31
0.0
  0
TEXT
  5
24B
330
1E
100
AcDbEntity
  8
0
100
AcDbText
 10
407.6076097950084
 20
209.9532899210772
 30
0.0
 40
10.0
  1
KR5-30H
 41
0.8
  7
BIGFONT
100
AcDbText
  0
ENDSEC
  0
SECTION
  2
OBJECTS
  0
DICTIONARY
  5
C
330
0
100
AcDbDictionary
281
     1
  3
ACAD_GROUP
350
D
  3
ACAD_LAYOUT
350
19
  3
ACAD_MLINESTYLE
350
16
  3
ACAD_PLOTSETTINGS
350
18
  3
ACAD_PLOTSTYLENAME
350
E
  3
AcDbVariableDictionary
350
247
  3
AcmDictionary
350
1FA
  3
AMG
350
13F
  3
AMGSNAPSETTINGS
350
238
  3
DWGPROPS
350
308
  0
DICTIONARY
  5
23F
330
1E
100
AcDbDictionary
280
     1
281
     1
  3
ACAD_INDEX
360
240
  0
DICTIONARY
  5
D
102
{ACAD_REACTORS
330
C
102
}
330
C
100
AcDbDictionary
281
     1
  0
DICTIONARY
  5
19
102
{ACAD_REACTORS
330
C
102
}
330
C
100
AcDbDictionary
281
     1
  3
Model
350
21
  3
ﾚｲｱｳﾄ1
350
1D
  0
DICTIONARY
  5
16
102
{ACAD_REACTORS
330
C
102
}
330
C
100
AcDbDictionary
281
     1
  3
Standard
350
17
  0
DICTIONARY
  5
18
102
{ACAD_REACTORS
330
C
102
}
330
C
100
AcDbDictionary
281
     1
  0
ACDBDICTIONARYWDFLT
  5
E
102
{ACAD_REACTORS
330
C
102
}
330
C
100
AcDbDictionary
281
     1
  3
Normal
350
F
100
AcDbDictionaryWithDefault
340
F
  0
DICTIONARY
  5
247
102
{ACAD_REACTORS
330
C
102
}
330
C
100
AcDbDictionary
281
     1
  3
DIMASSOC
350
249
  3
INDEXCTL
350
248
  0
DICTIONARY
  5
1FA
102
{ACAD_REACTORS
330
C
102
}
330
C
100
AcDbDictionary
281
     1
  3
AcmBOMDATA
350
306
  3
AcmStdDictionary
350
312
  0
DICTIONARY
  5
13F
102
{ACAD_REACTORS
330
C
102
}
330
C
100
AcDbDictionary
281
     1
  3
AcMgSettings
350
140
  3
AMGLAYCFG
350
314
  0
DICTIONARY
  5
238
102
{ACAD_REACTORS
330
C
102
}
330
C
100
AcDbDictionary
281
     1
  3
DIMENSION
350
23D
  3
FEA
350
23C
  3
HATCH (1)
350
239
  3
HATCH (2)
350
23A
  3
SIMPLE WELD
350
23E
  3
SYMBOLS
350
23B
  0
XRECORD
  5
308
102
{ACAD_REACTORS
330
C
102
}
330
C
100
AcDbXrecord
280
     1
  1
DWGPROPS COOKIE
  2

  3

  4

  6

  7

  8

  9

300
AmdtFileType=84
301
=
302
=
303
=
304
=
305
=
306
=
307
=
308
=
309
=
 40
0.0007526851851852
 41
2450683.496400463
 42
2454383.458867002
  1

 90
        1
  0
DICTIONARY
  5
240
102
{ACAD_REACTORS
330
23F
102
}
330
23F
100
AcDbDictionary
281
     1
  3
*A1
350
241
  0
LAYOUT
  5
21
102
{ACAD_REACTORS
330
19
102
}
330
19
100
AcDbPlotSettings
  1

  2
EPSON PM-3700C
  4

  6

 40
0.0
 41
0.0
 42
0.0
 43
0.0
 44
0.0
 45
0.0
 46
0.0
 47
0.0
 48
0.0
 49
0.0
140
0.0
141
0.0
142
1.0
143
1.0
 70
  1712
 72
     0
 73
     0
 74
     0
  7

 75
     0
147
1.0
148
0.0
149
0.0
100
AcDbLayout
  1
Model
 70
     1
 71
     0
 10
0.0
 20
0.0
 11
12.0
 21
9.0
 12
0.0
 22
0.0
 32
0.0
 14
0.0
 24
0.0
 34
0.0
 15
0.0
 25
0.0
 35
0.0
146
0.0
 13
0.0
 23
0.0
 33
0.0
 16
1.0
 26
0.0
 36
0.0
 17
0.0
 27
1.0
 37
0.0
 76
     0
330
1E
  0
LAYOUT
  5
1D
102
{ACAD_REACTORS
330
19
102
}
330
19
100
AcDbPlotSettings
  1

  2
EPSON PM-3700C
  4

  6

 40
0.0
 41
0.0
 42
0.0
 43
0.0
 44
0.0
 45
0.0
 46
0.0
 47
0.0
 48
0.0
 49
0.0
140
0.0
141
0.0
142
1.0
143
1.0
 70
   688
 72
     0
 73
     0
 74
     5
  7

 75
    16
147
1.0
148
0.0
149
0.0
100
AcDbLayout
  1
ﾚｲｱｳﾄ1
 70
     0
 71
     1
 10
0.0
 20
0.0
 11
12.0
 21
9.0
 12
0.0
 22
0.0
 32
0.0
 14
1.000000000000000E+20
 24
1.000000000000000E+20
 34
1.000000000000000E+20
 15
-1.000000000000000E+20
 25
-1.000000000000000E+20
 35
-1.000000000000000E+20
146
0.0
 13
0.0
 23
0.0
 33
0.0
 16
1.0
 26
0.0
 36
0.0
 17
0.0
 27
1.0
 37
0.0
 76
     0
330
1A
  0
MLINESTYLE
  5
17
102
{ACAD_REACTORS
330
16
102
}
330
16
100
AcDbMlineStyle
  2
STANDARD
 70
     0
  3

 62
   256
 51
90.0
 52
90.0
 71
     2
 49
0.5
 62
   256
  6
BYLAYER
 49
-0.5
 62
   256
  6
BYLAYER
  0
ACDBPLACEHOLDER
  5
F
102
{ACAD_REACTORS
330
E
102
}
330
E
  0
DICTIONARYVAR
  5
249
102
{ACAD_REACTORS
330
247
102
}
330
247
100
DictionaryVariables
280
     0
  1
0
  0
DICTIONARYVAR
  5
248
102
{ACAD_REACTORS
330
247
102
}
330
247
100
DictionaryVariables
280
     0
  1
1
  0
ACMDATADICTIONARY
  5
306
102
{ACAD_REACTORS
330
1FA
102
}
330
1FA
100
AcDbDictionary
281
     1
  3
*A1
350
307
100
AcmDataDictionary
  0
DICTIONARY
  5
312
102
{ACAD_REACTORS
330
1FA
102
}
330
1FA
100
AcDbDictionary
281
     1
  3
ANSI
350
313
  0
DICTIONARY
  5
140
102
{ACAD_REACTORS
330
13F
102
}
330
13F
100
AcDbDictionary
281
     1
  3
DWGSETTINGS
350
256
  3
TRANSSETTINGS
350
25A
  0
ACAMGFILTERDAT
  5
23D
102
{ACAD_REACTORS
330
238
102
}
330
238
100
AcAmgFilterDat
 70
    15
  1
DIMENSION,AMDT_*_DIM
  2
*
  3
*
  4
*
  5
*
290
     1
  0
ACAMGFILTERDAT
  5
23C
102
{ACAD_REACTORS
330
238
102
}
330
238
100
AcAmgFilterDat
 70
    15
  1
*
  2
AM_FEA-AM_*
  3
*
  4
*
  5
*
290
     1
  0
ACAMGFILTERDAT
  5
239
102
{ACAD_REACTORS
330
238
102
}
330
238
100
AcAmgFilterDat
 70
    15
  1
HATCH
  2
*
  3
*
  4
*
  5
*
290
     1
  0
ACAMGFILTERDAT
  5
23A
102
{ACAD_REACTORS
330
238
102
}
330
238
100
AcAmgFilterDat
 70
    15
  1
LINE
  2
8,8N,*-8,*-8N,AM_8,AM_8N,*-AM_8,*-AM_8N
  3
*
  4
*
  5
INSERT,STDPART2D
290
     1
  0
ACAMGFILTERDAT
  5
23E
102
{ACAD_REACTORS
330
238
102
}
330
238
100
AcAmgFilterDat
 70
    15
  1
ARC
  2
AM_5
  3
*
  4
2
  5
INSERT
290
     0
  0
ACAMGFILTERDAT
  5
23B
102
{ACAD_REACTORS
330
238
102
}
330
238
100
AcAmgFilterDat
 70
    15
  1
ACMFCFRAME,ACMDATUMTARGET,ACMDATUMID,ACMWELDSYM,ACMSURFSYM,ACMFEATID,ACMPARTREF,ACMBALLOON,AMDTEDGESYM,AMGSCREWCALCTABLE
  2
*
  3
*
  4
*
  5
*
290
     1
  0
LAYER_INDEX
  5
241
102
{ACAD_REACTORS
330
240
102
}
330
240
100
AcDbIndex
 40
2454383.46462221
100
AcDbLayerIndex
  8
0
360
242
 90
      218
  8
1
360
243
 90
        7
  8
10
360
244
 90
        0
  8
11
360
245
 90
        0
  8
2
360
246
 90
        9
  0
ACMDATAENTRYBLOCK
  5
307
102
{ACAD_REACTORS
330
306
102
}
330
306
100
AcmDataEntry
100
AcmDataEntryBlock
  0
IDBUFFER
  5
242
330
0
100
AcDbIdBuffer
330
42
330
43
330
44
330
45
330
46
330
47
330
48
330
49
330
4A
330
4B
330
4C
330
4D
330
4E
330
4F
330
50
330
51
330
52
330
53
330
54
330
55
330
56
330
57
330
58
330
59
330
5A
330
5B
330
5C
330
5D
330
5E
330
5F
330
60
330
61
330
62
330
63
330
64
330
65
330
66
330
67
330
6D
330
6E
330
6F
330
70
330
71
330
72
330
73
330
75
330
76
330
77
330
78
330
79
330
7A
330
7B
330
7C
330
7D
330
7E
330
7F
330
80
330
81
330
82
330
83
330
84
330
85
330
86
330
87
330
88
330
89
330
8A
330
8B
330
8C
330
8D
330
8E
330
8F
330
90
330
91
330
92
330
95
330
96
330
97
330
98
330
99
330
9A
330
9B
330
9C
330
9D
330
9E
330
9F
330
A0
330
A1
330
A2
330
A3
330
A4
330
A5
330
A6
330
A7
330
A8
330
A9
330
AA
330
AB
330
AC
330
AD
330
AE
330
AF
330
B0
330
B1
330
B2
330
B3
330
B4
330
B5
330
B6
330
B7
330
B8
330
B9
330
BA
330
BB
330
BC
330
BD
330
BE
330
BF
330
C0
330
C1
330
C2
330
C3
330
C4
330
C5
330
C6
330
C7
330
C8
330
C9
330
CA
330
CB
330
CC
330
CD
330
CE
330
CF
330
D0
330
D1
330
D2
330
D5
330
D6
330
D7
330
D8
330
D9
330
DA
330
DB
330
DC
330
DE
330
DF
330
E0
330
E1
330
E2
330
E3
330
E4
330
E5
330
E6
330
E7
330
E8
330
E9
330
EA
330
EB
330
EC
330
ED
330
EF
330
F1
330
F2
330
F3
330
F4
330
F5
330
F6
330
F7
330
F8
330
F9
330
FA
330
FB
330
FC
330
FD
330
FE
330
FF
330
100
330
101
330
102
330
103
330
104
330
105
330
106
330
107
330
108
330
11A
330
11B
330
11C
330
11D
330
11E
330
11F
330
120
330
122
330
123
330
124
330
125
330
126
330
127
330
128
330
129
330
12A
330
12B
330
12C
330
12D
330
12E
330
12F
330
130
330
131
330
135
330
136
330
137
330
138
330
139
330
13A
330
13B
330
13C
330
24B
  0
IDBUFFER
  5
243
330
0
100
AcDbIdBuffer
330
93
330
94
330
EE
330
F0
330
132
330
133
330
134
  0
IDBUFFER
  5
244
330
0
100
AcDbIdBuffer
  0
IDBUFFER
  5
245
330
0
100
AcDbIdBuffer
  0
IDBUFFER
  5
246
330
0
100
AcDbIdBuffer
330
68
330
69
330
6A
330
6B
330
6C
330
74
330
D3
330
D4
330
DD
  0
ENDSEC
  0
EOF
