  0
SECTION
  2
HEADER
  9
$ACADVER
  1
AC1015
  9
$ACADMAINTVER
 70
    13
  9
$DWGCODEPAGE
  3
ANSI_932
  9
$INSBASE
 10
0.0
 20
0.0
 30
0.0
  9
$EXTMIN
 10
0.0
 20
0.0
 30
0.0
  9
$EXTMAX
 10
750.0
 20
540.0
 30
0.0
  9
$LIMMIN
 10
0.0
 20
0.0
  9
$LIMMAX
 10
750.0
 20
540.0
  9
$ORTHOMODE
 70
     1
  9
$REGENMODE
 70
     1
  9
$FILLMODE
 70
     1
  9
$QTEXTMODE
 70
     0
  9
$MIRRTEXT
 70
     1
  9
$LTSCALE
 40
20.0
  9
$ATTMODE
 70
     1
  9
$TEXTSIZE
 40
10.0
  9
$TRACEWID
 40
0.05
  9
$TEXTSTYLE
  7
BIGFONT
  9
$CLAYER
  8
0
  9
$CELTYPE
  6
ByLayer
  9
$CECOLOR
 62
   256
  9
$CELTSCALE
 40
1.0
  9
$DISPSILH
 70
     0
  9
$DIMSCALE
 40
2.0
  9
$DIMASZ
 40
3.0
  9
$DIMEXO
 40
2.0
  9
$DIMDLI
 40
0.3799999999999999
  9
$DIMRND
 40
0.0
  9
$DIMDLE
 40
0.0
  9
$DIMEXE
 40
2.0
  9
$DIMTP
 40
0.0
  9
$DIMTM
 40
0.0
  9
$DIMTXT
 40
3.2
  9
$DIMCEN
 40
0.09
  9
$DIMTSZ
 40
0.0
  9
$DIMTOL
 70
     0
  9
$DIMLIM
 70
     0
  9
$DIMTIH
 70
     0
  9
$DIMTOH
 70
     0
  9
$DIMSE1
 70
     0
  9
$DIMSE2
 70
     0
  9
$DIMTAD
 70
     1
  9
$DIMZIN
 70
     0
  9
$DIMBLK
  1

  9
$DIMASO
 70
     0
  9
$DIMSHO
 70
     0
  9
$DIMPOST
  1

  9
$DIMAPOST
  1

  9
$DIMALT
 70
     0
  9
$DIMALTD
 70
     2
  9
$DIMALTF
 40
25.4
  9
$DIMLFAC
 40
1.0
  9
$DIMTOFL
 70
     0
  9
$DIMTVP
 40
1.6
  9
$DIMTIX
 70
     1
  9
$DIMSOXD
 70
     0
  9
$DIMSAH
 70
     0
  9
$DIMBLK1
  1

  9
$DIMBLK2
  1

  9
$DIMSTYLE
  2
STANDARD
  9
$DIMCLRD
 70
     0
  9
$DIMCLRE
 70
     0
  9
$DIMCLRT
 70
     0
  9
$DIMTFAC
 40
1.0
  9
$DIMGAP
 40
0.09
  9
$DIMJUST
 70
     0
  9
$DIMSD1
 70
     0
  9
$DIMSD2
 70
     0
  9
$DIMTOLJ
 70
     1
  9
$DIMTZIN
 70
     0
  9
$DIMALTZ
 70
     0
  9
$DIMALTTZ
 70
     0
  9
$DIMUPT
 70
     0
  9
$DIMDEC
 70
     4
  9
$DIMTDEC
 70
     4
  9
$DIMALTU
 70
     2
  9
$DIMALTTD
 70
     2
  9
$DIMTXSTY
  7
STANDARD
  9
$DIMAUNIT
 70
     0
  9
$DIMADEC
 70
     0
  9
$DIMALTRND
 40
0.0
  9
$DIMAZIN
 70
     0
  9
$DIMDSEP
 70
    46
  9
$DIMATFIT
 70
     3
  9
$DIMFRAC
 70
     0
  9
$DIMLDRBLK
  1

  9
$DIMLUNIT
 70
     2
  9
$DIMLWD
 70
    -2
  9
$DIMLWE
 70
    -2
  9
$DIMTMOVE
 70
     0
  9
$LUNITS
 70
     2
  9
$LUPREC
 70
     4
  9
$SKETCHINC
 40
0.1
  9
$FILLETRAD
 40
0.0
  9
$AUNITS
 70
     0
  9
$AUPREC
 70
     0
  9
$MENU
  1
ACAD
  9
$ELEVATION
 40
0.0
  9
$PELEVATION
 40
0.0
  9
$THICKNESS
 40
0.0
  9
$LIMCHECK
 70
     0
  9
$CHAMFERA
 40
0.0
  9
$CHAMFERB
 40
0.0
  9
$CHAMFERC
 40
0.0
  9
$CHAMFERD
 40
0.0
  9
$SKPOLY
 70
     0
  9
$TDCREATE
 40
2450683.501203704
  9
$TDUCREATE
 40
2450683.126203704
  9
$TDUPDATE
 40
2454383.762708333
  9
$TDUUPDATE
 40
2454383.387708333
  9
$TDINDWG
 40
0.0012584954
  9
$TDUSRTIMER
 40
0.0012584954
  9
$USRTIMER
 70
     1
  9
$ANGBASE
 50
0.0
  9
$ANGDIR
 70
     0
  9
$PDMODE
 70
     0
  9
$PDSIZE
 40
0.0
  9
$PLINEWID
 40
0.0
  9
$SPLFRAME
 70
     0
  9
$SPLINETYPE
 70
     6
  9
$SPLINESEGS
 70
     8
  9
$HANDSEED
  5
25A
  9
$SURFTAB1
 70
     6
  9
$SURFTAB2
 70
     6
  9
$SURFTYPE
 70
     6
  9
$SURFU
 70
     6
  9
$SURFV
 70
     6
  9
$UCSBASE
  2

  9
$UCSNAME
  2

  9
$UCSORG
 10
0.0
 20
0.0
 30
0.0
  9
$UCSXDIR
 10
1.0
 20
0.0
 30
0.0
  9
$UCSYDIR
 10
0.0
 20
1.0
 30
0.0
  9
$UCSORTHOREF
  2

  9
$UCSORTHOVIEW
 70
     0
  9
$UCSORGTOP
 10
0.0
 20
0.0
 30
0.0
  9
$UCSORGBOTTOM
 10
0.0
 20
0.0
 30
0.0
  9
$UCSORGLEFT
 10
0.0
 20
0.0
 30
0.0
  9
$UCSORGRIGHT
 10
0.0
 20
0.0
 30
0.0
  9
$UCSORGFRONT
 10
0.0
 20
0.0
 30
0.0
  9
$UCSORGBACK
 10
0.0
 20
0.0
 30
0.0
  9
$PUCSBASE
  2

  9
$PUCSNAME
  2

  9
$PUCSORG
 10
0.0
 20
0.0
 30
0.0
  9
$PUCSXDIR
 10
1.0
 20
0.0
 30
0.0
  9
$PUCSYDIR
 10
0.0
 20
1.0
 30
0.0
  9
$PUCSORTHOREF
  2

  9
$PUCSORTHOVIEW
 70
     0
  9
$PUCSORGTOP
 10
0.0
 20
0.0
 30
0.0
  9
$PUCSORGBOTTOM
 10
0.0
 20
0.0
 30
0.0
  9
$PUCSORGLEFT
 10
0.0
 20
0.0
 30
0.0
  9
$PUCSORGRIGHT
 10
0.0
 20
0.0
 30
0.0
  9
$PUCSORGFRONT
 10
0.0
 20
0.0
 30
0.0
  9
$PUCSORGBACK
 10
0.0
 20
0.0
 30
0.0
  9
$USERI1
 70
     0
  9
$USERI2
 70
     0
  9
$USERI3
 70
     0
  9
$USERI4
 70
     0
  9
$USERI5
 70
     0
  9
$USERR1
 40
0.0
  9
$USERR2
 40
0.0
  9
$USERR3
 40
0.0
  9
$USERR4
 40
0.0
  9
$USERR5
 40
0.0
  9
$WORLDVIEW
 70
     1
  9
$SHADEDGE
 70
     3
  9
$SHADEDIF
 70
    70
  9
$TILEMODE
 70
     1
  9
$MAXACTVP
 70
    16
  9
$PINSBASE
 10
0.0
 20
0.0
 30
0.0
  9
$PLIMCHECK
 70
     0
  9
$PEXTMIN
 10
1.000000000000000E+20
 20
1.000000000000000E+20
 30
1.000000000000000E+20
  9
$PEXTMAX
 10
-1.000000000000000E+20
 20
-1.000000000000000E+20
 30
-1.000000000000000E+20
  9
$PLIMMIN
 10
0.0
 20
0.0
  9
$PLIMMAX
 10
12.0
 20
9.0
  9
$UNITMODE
 70
     0
  9
$VISRETAIN
 70
     0
  9
$PLINEGEN
 70
     1
  9
$PSLTSCALE
 70
     0
  9
$TREEDEPTH
 70
  3020
  9
$CMLSTYLE
  2
Standard
  9
$CMLJUST
 70
     0
  9
$CMLSCALE
 40
1.0
  9
$PROXYGRAPHICS
 70
     1
  9
$MEASUREMENT
 70
     0
  9
$CELWEIGHT
370
    -1
  9
$ENDCAPS
280
     0
  9
$JOINSTYLE
280
     0
  9
$LWDISPLAY
290
     0
  9
$INSUNITS
 70
     0
  9
$HYPERLINKBASE
  1

  9
$STYLESHEET
  1

  9
$XEDIT
290
     1
  9
$CEPSNTYPE
380
     0
  9
$PSTYLEMODE
290
     1
  9
$FINGERPRINTGUID
  2
{DA3A22AA-A71D-49CB-B8FE-E879C2E6CB87}
  9
$VERSIONGUID
  2
{1A5CB7BD-1EE7-4239-81D4-773B9ADB8C32}
  9
$EXTNAMES
290
     1
  9
$PSVPSCALE
 40
0.0
  9
$OLESTARTUP
290
     0
  0
ENDSEC
  0
SECTION
  2
CLASSES
  0
CLASS
  1
ACDBDICTIONARYWDFLT
  2
AcDbDictionaryWithDefault
  3
AutoCAD 2000
 90
        0
280
     0
281
     0
  0
CLASS
  1
ACDBPLACEHOLDER
  2
AcDbPlaceHolder
  3
AutoCAD 2000
 90
        0
280
     0
281
     0
  0
CLASS
  1
LAYOUT
  2
AcDbLayout
  3
AutoCAD 2000
 90
        0
280
     0
281
     0
  0
CLASS
  1
AMGSETTINGSOBJ
  2
AmgSettingsObj
  3
"AcadM|Product Description: AutoCAD Mechanical 2000|Company: Autodesk"
 90
        0
280
     0
281
     0
  0
CLASS
  1
ACME_DOCUMENT
  2
AcMeDbDoc
  3
AcMeServices
 90
        0
280
     0
281
     0
  0
CLASS
  1
ACMESCOPE
  2
AcMeScope
  3
AcMeServices
 90
        0
280
     0
281
     0
  0
CLASS
  1
ACMECOMMANDHISTORY
  2
AcMeCommandHistory
  3
AcMeServices
 90
        0
280
     0
281
     0
  0
CLASS
  1
ACIMSYSVARMAN
  2
AcImSysVarManager
  3
AcMeServices
 90
        0
280
     0
281
     0
  0
CLASS
  1
ACIMREALSYSVAR
  2
AcImRealSysVar
  3
AcMeServices
 90
        0
280
     0
281
     0
  0
CLASS
  1
ACIMINTSYSVAR
  2
AcImIntSysVar
  3
AcMeServices
 90
        0
280
     0
281
     0
  0
CLASS
  1
ACMEDRAWINGMAN
  2
AcMeDrawingMan
  3
AcMeServices
 90
        0
280
     0
281
     0
  0
CLASS
  1
ACMEVIEW
  2
AcMeView
  3
AcMeServices
 90
        0
280
     0
281
     0
  0
CLASS
  1
ACDBENTITYCACHE
  2
AcMeEntityCache
  3
AcMeServices
 90
        0
280
     0
281
     0
  0
CLASS
  1
GSMANAGER
  2
AcMeGSManager
  3
AcMeServices
 90
        0
280
     0
281
     0
  0
CLASS
  1
AMDTINTERNALREACTOR
  2
AmdtInternalReactor
  3
AcMeServices
 90
        0
280
     0
281
     0
  0
CLASS
  1
ACMESTATEMGR
  2
AcMeStateMgr
  3
AcMeServices
 90
        0
280
     0
281
     0
  0
CLASS
  1
ACGREFMASTER
  2
AcGrefMaster
  3
AcAttribServices
 90
        0
280
     0
281
     0
  0
CLASS
  1
AM_DRAWING_MGR
  2
AcDmDwgMgr
  3
AcMechDwgViewMgmt
 90
        0
280
     0
281
     0
  0
CLASS
  1
AM_DWG_DOCUMENT
  2
AcDmDwgDocument
  3
AcMechDwgViewMgmt
 90
        0
280
     0
281
     0
  0
CLASS
  1
AM_DWG_SHEET
  2
AcDmSheet
  3
AcMechDwgViewMgmt
 90
        0
280
     0
281
     0
  0
CLASS
  1
AM_VIEWDIMPARMAP
  2
AcDmViewDimParMap
  3
AcMechDwgViewMgmt
 90
        0
280
     0
281
     0
  0
CLASS
  1
AM_DWGMGR_NAME
  2
AcDmDwgMgrName
  3
AcMechDwgViewMgmt
 90
        0
280
     0
281
     0
  0
CLASS
  1
ACME_DATABASE
  2
AcMeDbDatabase
  3
AcMeServices
 90
        0
280
     0
281
     0
  0
CLASS
  1
ACRFINSADJUSTERMGR
  2
AcRfInsAdjusterMgr
  3
AcMeServices
 90
        0
280
     0
281
     0
  0
CLASS
  1
ACGREFACADMASTER
  2
AcGrefacadMaster
  3
AcGrefServices
 90
        0
280
     0
281
     0
  0
CLASS
  1
AMDTMENUSTATEMGR
  2
AmdtMenuStateMgr
  3
McadcomServices
 90
        0
280
     0
281
     0
  0
CLASS
  1
AMDTMCOMMENUSTATE
  2
AmdtMcomMenuState
  3
McadcomServices
 90
        0
280
     0
281
     0
  0
CLASS
  1
AMIMASTER
  2
AmiMaster
  3
AmiServices
 90
        0
280
     0
281
     0
  0
CLASS
  1
ASAPP
  2
AcAsAppObject
  3
AutoSurfServices
 90
        0
280
     0
281
     0
  0
CLASS
  1
IM_STATIC_MAN
  2
AcImStaticVarManager
  3
AcMeServices
 90
        0
280
     0
281
     0
  0
CLASS
  1
ACIMSTRSYSVAR
  2
AcImStrSysVar
  3
AcMeServices
 90
        0
280
     0
281
     0
  0
CLASS
  1
ACIMDBLSTATICVAR
  2
AcImDblStaticVar
  3
AcMeServices
 90
        0
280
     0
281
     0
  0
CLASS
  1
ACIMSTRSTATICVAR
  2
AcImStrStaticVar
  3
AcMeServices
 90
        0
280
     0
281
     0
  0
CLASS
  1
ACIMINTSTATICVAR
  2
AcImIntStaticVar
  3
AcMeServices
 90
        0
280
     0
281
     0
  0
CLASS
  1
ACASGREFMASTER
  2
AcAsGrefMaster
  3
AutoSurfResolverServices
 90
        0
280
     0
281
     0
  0
CLASS
  1
ACADGREFMODULE
  2
AcAdGrefModule
  3
AdGrefServices
 90
        0
280
     0
281
     0
  0
CLASS
  1
AMDTMAPISURFMOUDULE
  2
AmdtMApiSurfModule
  3
MApiSurfServices
 90
        0
280
     0
281
     0
  0
CLASS
  1
MAPIAMMOUDLE
  2
MApiAmModule
  3
MApiAmServices
 90
        0
280
     0
281
     0
  0
CLASS
  1
AMDTADMENUSTATE
  2
AmdtAdMenuState
  3
DesignerServices
 90
        0
280
     0
281
     0
  0
CLASS
  1
ADAPPL
  2
AcAdAppl
  3
DesignerServices
 90
        0
280
     0
281
     0
  0
CLASS
  1
DEPMGR
  2
AcAdDepMgr
  3
DesignerServices
 90
        0
280
     0
281
     0
  0
CLASS
  1
PARAMMGR
  2
AcAdParamMgr
  3
DesignerServices
 90
        0
280
     0
281
     0
  0
CLASS
  1
PARAMSCOPE
  2
AcAdParamScope
  3
DesignerServices
 90
        0
280
     0
281
     0
  0
CLASS
  1
NAMEDAPPL
  2
AcAdNamedAppl
  3
DesignerServices
 90
        0
280
     0
281
     0
  0
CLASS
  1
AMDTDMMENUSTATE
  2
AmdtDmMenuState
  3
AcMechDwgViewMgmt
 90
        0
280
     0
281
     0
  0
CLASS
  1
MAPIADMODULE
  2
MApiAdModule
  3
MApiAdServices
 90
        0
280
     0
281
     0
  0
CLASS
  1
AMDTAMMENUSTATE
  2
AmdtAmMenuState
  3
DesignerAssemblies
 90
        0
280
     0
281
     0
  0
CLASS
  1
ACAMPROJECT
  2
AcAmProject
  3
DesignerAssemblies
 90
        0
280
     0
281
     0
  0
CLASS
  1
ACAMGRCOMPDEF
  2
AcAmGrCompDef
  3
DesignerAssemblies
 90
        0
280
     0
281
     0
  0
CLASS
  1
ACCMCONTEXT
  2
AcCmContext
  3
DesignerAssemblies
 90
        0
280
     0
281
     0
  0
CLASS
  1
ACAMCOMPDEF
  2
AcAmCompDef
  3
DesignerAssemblies
 90
        0
280
     0
281
     0
  0
CLASS
  1
ACAMCOMPDEFMGR
  2
AcAmCompDefMgr
  3
DesignerAssemblies
 90
        0
280
     0
281
     0
  0
CLASS
  1
AMCONTEXTMGR
  2
AcAmContextMgr
  3
DesignerAssemblies
 90
        0
280
     0
281
     0
  0
CLASS
  1
ACAMCONTEXTMODELER
  2
AcAmContextModeler
  3
DesignerAssemblies
 90
        0
280
     0
281
     0
  0
CLASS
  1
ACMDATADICTIONARY
  2
AcmDataDictionary
  3
"AcmSymBB|Product Description: AutoCAD Mechanical 2000|Company: Autodesk"
 90
        0
280
     0
281
     0
  0
CLASS
  1
ACMDATAENTRYBLOCK
  2
AcmDataEntryBlock
  3
"AcmSymBB|Product Description: AutoCAD Mechanical 2000|Company: Autodesk"
 90
        0
280
     0
281
     0
  0
CLASS
  1
CATALOGSTATE
  2
AcAmCatalogState
  3
DesignerAssemblies
 90
        0
280
     0
281
     0
  0
CLASS
  1
ACAMGRCOMPDEFSET
  2
AcAmGrCompDefSet
  3
DesignerAssemblies
 90
        0
280
     0
281
     0
  0
CLASS
  1
AMDTBROWSERDBTAB
  2
AmdtBrowserDbTab
  3
McadcomServices
 90
        0
280
     0
281
     0
  0
CLASS
  1
CBROWSERAPPOBJECT
  2
CBrowserAppObject
  3
McadcomServices
 90
        0
280
     0
281
     0
  0
CLASS
  1
DM_PLACEHOLDER
  2
AcDmSelsetPlaceholder
  3
AcMechDwgViewMgmt
 90
        0
280
     0
281
     0
  0
CLASS
  1
ACMSTANDARDANSI
  2
AcmStandardANSI
  3
"Amdt_StdImp|Product Description: AutoCAD Mechanical 2000|Company: Autodesk"
 90
        0
280
     0
281
     0
  0
CLASS
  1
AMGOBJPROPCFG
  2
AmgObjPropCfg
  3
"AmgLay|Product Description: AutoCAD Mechanical 2000|Company: Autodesk"
 90
        1
280
     0
281
     0
  0
CLASS
  1
ACMSURFSTANDARDANSI
  2
AcmSurfTextStdANSI
  3
"Amdt_StdImp|Product Description: AutoCAD Mechanical 2000|Company: Autodesk"
 90
        0
280
     0
281
     0
  0
CLASS
  1
ACMFCFSTANDARDANSI
  2
AcmFCFStdANSI
  3
"Amdt_StdImp|Product Description: AutoCAD Mechanical 2000|Company: Autodesk"
 90
        0
280
     0
281
     0
  0
CLASS
  1
ACMWELDSTANDARDANSI
  2
AcmWeldingStdANSI
  3
"Amdt_StdImp|Product Description: AutoCAD Mechanical 2000|Company: Autodesk"
 90
        0
280
     0
281
     0
  0
CLASS
  1
ACMIDSTANDARDANSI
  2
AcmIdStdANSI
  3
"Amdt_StdImp|Product Description: AutoCAD Mechanical 2000|Company: Autodesk"
 90
        0
280
     0
281
     0
  0
CLASS
  1
ACMDATUMSTANDARDANSI
  2
AcmDatumStdANSI
  3
"Amdt_StdImp|Product Description: AutoCAD Mechanical 2000|Company: Autodesk"
 90
        0
280
     0
281
     0
  0
CLASS
  1
ACMBOMSTANDARDANSI
  2
AcmBOMStdANSI
  3
"Amdt_StdImp|Product Description: AutoCAD Mechanical 2000|Company: Autodesk"
 90
        0
280
     0
281
     0
  0
CLASS
  1
ACMDETAILSTANDARDANSI
  2
AmdtDetailSymStdANSI
  3
"Amdt_StdImp|Product Description: AutoCAD Mechanical 2000|Company: Autodesk"
 90
        0
280
     0
281
     0
  0
CLASS
  1
ACMSECTIONSTANDARDANSI
  2
AmdtSectionSymStdANSI
  3
"Amdt_StdImp|Product Description: AutoCAD Mechanical 2000|Company: Autodesk"
 90
        0
280
     0
281
     0
  0
CLASS
  1
ACMCENTERLINESTANDARDANSI
  2
AmdtCenterLineStdANSI
  3
"Amdt_StdImp|Product Description: AutoCAD Mechanical 2000|Company: Autodesk"
 90
        0
280
     0
281
     0
  0
CLASS
  1
ACMTHREADLINESTANDARDANSI
  2
AmdtThreadLineStdANSI
  3
"Amdt_StdImp|Product Description: AutoCAD Mechanical 2000|Company: Autodesk"
 90
        0
280
     0
281
     0
  0
CLASS
  1
ACMNOTESTANDARDANSI
  2
AmdtNoteStdANSI
  3
"Amdt_StdImp|Product Description: AutoCAD Mechanical 2000|Company: Autodesk"
 90
        0
280
     0
281
     0
  0
CLASS
  1
ACAMGLAYSTD
  2
AcAmgLayStd
  3
"AcAmgLayStd|Product Description: AutoCAD Mechanical 2000|Company: Autodesk"
 90
        0
280
     0
281
     0
  0
CLASS
  1
ACAMGDIMSTD
  2
AcAmgDimStd
  3
"AcAmgDimStd|Product Description: AutoCAD Mechanical 2000|Company: Autodesk"
 90
        0
280
     0
281
     0
  0
CLASS
  1
ACAMGHOLECHARTSTDANSI
  2
AcAmgHoleChartStdANSI
  3
ACMSYMBB_MODULE_NAME
 90
        0
280
     0
281
     0
  0
CLASS
  1
ACAMGTITLESTD
  2
AcAmgTitleStd
  3
"TITLEAPP"
 90
        0
280
     0
281
     0
  0
CLASS
  1
ACAMGFILTERDAT
  2
AcAmgFilterDat
  3
"AcadM|Product Description: AutoCAD Mechanical 2000|Company: Autodesk"
 90
        0
280
     0
281
     0
  0
CLASS
  1
LAYER_INDEX
  2
AcDbLayerIndex
  3
AutoCAD 2000
 90
        0
280
     0
281
     0
  0
CLASS
  1
IDBUFFER
  2
AcDbIdBuffer
  3
AutoCAD 2000
 90
        0
280
     0
281
     0
  0
CLASS
  1
DICTIONARYVAR
  2
AcDbDictionaryVar
  3
AutoCAD 2000
 90
        0
280
     0
281
     0
  0
ENDSEC
  0
SECTION
  2
TABLES
  0
TABLE
  2
VPORT
  5
8
330
0
100
AcDbSymbolTable
 70
     5
  0
VPORT
  5
259
330
8
100
AcDbSymbolTableRecord
100
AcDbViewportTableRecord
  2
*Active
 70
     0
 10
0.0
 20
0.0
 11
1.0
 21
1.0
 12
-108.9067663253438
 22
-53.27201983524867
 13
0.0
 23
0.0
 14
0.5
 24
0.5
 15
1.0
 25
1.0
 16
0.0
 26
0.0
 36
1.0
 17
465.7502154966
 27
307.2791878172588
 37
0.0
 40
407.6467620337291
 41
1.515723270440251
 42
50.0
 43
0.0
 44
0.0
 50
0.0
 51
0.0
 71
     0
 72
   500
 73
     1
 74
     1
 75
     0
 76
     0
 77
     0
 78
     0
281
     0
 65
     0
110
0.0
120
0.0
130
0.0
111
1.0
121
0.0
131
0.0
112
0.0
122
1.0
132
0.0
 79
     0
146
0.0
  0
ENDTAB
  0
TABLE
  2
LTYPE
  5
5
330
0
100
AcDbSymbolTable
 70
    20
  0
LTYPE
  5
13
330
5
100
AcDbSymbolTableRecord
100
AcDbLinetypeTableRecord
  2
ByBlock
 70
     0
  3

 72
    65
 73
     0
 40
0.0
  0
LTYPE
  5
14
330
5
100
AcDbSymbolTableRecord
100
AcDbLinetypeTableRecord
  2
ByLayer
 70
     0
  3

 72
    65
 73
     0
 40
0.0
  0
LTYPE
  5
15
330
5
100
AcDbSymbolTableRecord
100
AcDbLinetypeTableRecord
  2
CONTINUOUS
 70
     0
  3
実線
 72
    65
 73
     0
 40
0.0
  0
LTYPE
  5
23
330
5
100
AcDbSymbolTableRecord
100
AcDbLinetypeTableRecord
  2
BYLAYER
 70
     0
  3

 72
    65
 73
     0
 40
0.0
  0
LTYPE
  5
24
330
5
100
AcDbSymbolTableRecord
100
AcDbLinetypeTableRecord
  2
CENTER
 70
     0
  3
____ _ ____ _ ____ _ ____ _ ____ _ ____ _ ____
 72
    65
 73
     4
 40
2.0
 49
1.25
 74
     0
 49
-0.25
 74
     0
 49
0.25
 74
     0
 49
-0.25
 74
     0
  0
LTYPE
  5
25
330
5
100
AcDbSymbolTableRecord
100
AcDbLinetypeTableRecord
  2
TENSEN1
 70
     0
  3

 72
    65
 73
     2
 40
0.4
 49
0.3
 74
     0
 49
-0.1
 74
     0
  0
LTYPE
  5
170
330
5
100
AcDbSymbolTableRecord
100
AcDbLinetypeTableRecord
  2
HIDDEN
 70
     0
  3
Hidden __ __ __ __ __ __ __ __ __ __ __ __ __ _
 72
    65
 73
     2
 40
0.375
 49
0.25
 74
     0
 49
-0.125
 74
     0
  0
LTYPE
  5
171
330
5
100
AcDbSymbolTableRecord
100
AcDbLinetypeTableRecord
  2
PHANTOM2
 70
     0
  3
Phantom (.5x) ___ _ _ ___ _ _ ___ _ _ ___ _ _
 72
    65
 73
     6
 40
1.25
 49
0.625
 74
     0
 49
-0.125
 74
     0
 49
0.125
 74
     0
 49
-0.125
 74
     0
 49
0.125
 74
     0
 49
-0.125
 74
     0
  0
LTYPE
  5
1D3
330
5
100
AcDbSymbolTableRecord
100
AcDbLinetypeTableRecord
  2
ASULTYPE
 70
     0
  3
実線
 72
    65
 73
     2
 40
3.0
 49
2.5
 74
     0
 49
0.5
 74
     0
  0
LTYPE
  5
1D4
330
5
100
AcDbSymbolTableRecord
100
AcDbLinetypeTableRecord
  2
ASVLTYPE
 70
     0
  3
__ __ __ __ __ __ __ __ __ __ __ __ __ __ __ __ __ __ __ __ __
 72
    65
 73
     2
 40
0.75
 49
0.5
 74
     0
 49
-0.25
 74
     0
  0
LTYPE
  5
218
330
5
100
AcDbSymbolTableRecord
100
AcDbLinetypeTableRecord
  2
AM_ISO02W050
 70
     0
  3
__ __ __ __ __ __ __ __ __ __ __ __ __ __ __
 72
    65
 73
     2
 40
7.5
 49
6.0
 74
     0
 49
-1.5
 74
     0
  0
LTYPE
  5
219
330
5
100
AcDbSymbolTableRecord
100
AcDbLinetypeTableRecord
  2
AM_ISO08W050
 70
     0
  3
____ . ____ . ____ . ____ . ____ . ____ . ____
 72
    65
 73
     4
 40
18.0
 49
12.0
 74
     0
 49
-1.5
 74
     0
 49
3.0
 74
     0
 49
-1.5
 74
     0
  0
LTYPE
  5
21A
330
5
100
AcDbSymbolTableRecord
100
AcDbLinetypeTableRecord
  2
AM_ISO09W050
 70
     0
  3
_____ . . _____ . . _____ . . ____ .. ____
 72
    65
 73
     6
 40
22.5
 49
12.0
 74
     0
 49
-1.5
 74
     0
 49
3.0
 74
     0
 49
-1.5
 74
     0
 49
3.0
 74
     0
 49
-1.5
 74
     0
  0
LTYPE
  5
21B
330
5
100
AcDbSymbolTableRecord
100
AcDbLinetypeTableRecord
  2
Amconstr
 70
     0
  3
_______________________
 72
    65
 73
     2
 40
9999.0
 49
9999.0
 74
     0
 49
0.0
 74
     0
  0
LTYPE
  5
21C
330
5
100
AcDbSymbolTableRecord
100
AcDbLinetypeTableRecord
  2
AM_ISO08W050x2
 70
     0
  3
__ . __ . __ . __ . __ . __
 72
    65
 73
     4
 40
9.0
 49
6.0
 74
     0
 49
-0.75
 74
     0
 49
1.5
 74
     0
 49
-0.75
 74
     0
  0
LTYPE
  5
21D
330
5
100
AcDbSymbolTableRecord
100
AcDbLinetypeTableRecord
  2
AM_ISO02W050x2
 70
     0
  3
 _ _ _ _ _ _ _ _ _ _ _ _
 72
    65
 73
     2
 40
3.75
 49
3.0
 74
     0
 49
-0.75
 74
     0
  0
LTYPE
  5
220
330
5
100
AcDbSymbolTableRecord
100
AcDbLinetypeTableRecord
  2
Amzigzag
 70
     0
  3
/\/-/\/-/\/-/\/-/\/-/\/
 72
    65
 73
     2
 40
11.00009999999999
 49
0.0001
 74
     4
 75
   135
340
21F
 46
0.04
 50
0.0
 44
0.0
 45
0.0
 49
-11.0
 74
     0
  0
LTYPE
  5
221
330
5
100
AcDbSymbolTableRecord
100
AcDbLinetypeTableRecord
  2
CENTER2
 70
     0
  3
Center (.5x) ___ _ ___ _ ___ _ ___ _ ___ _ ___
 72
    65
 73
     4
 40
1.125
 49
0.75
 74
     0
 49
-0.125
 74
     0
 49
0.125
 74
     0
 49
-0.125
 74
     0
  0
LTYPE
  5
222
330
5
100
AcDbSymbolTableRecord
100
AcDbLinetypeTableRecord
  2
HIDDEN2
 70
     0
  3
Hidden (.5x) _ _ _ _ _ _ _ _ _ _ _ _ _ _ _ _ _
 72
    65
 73
     2
 40
0.1875
 49
0.125
 74
     0
 49
-0.0625
 74
     0
  0
LTYPE
  5
223
330
5
100
AcDbSymbolTableRecord
100
AcDbLinetypeTableRecord
  2
Amzigzag2
 70
     0
  3
/\/-/\/-/\/-/\/-/\/-/\/
 72
    65
 73
     2
 40
0.4401
 49
0.0001
 74
     4
 75
   135
340
21F
 46
0.0016
 50
0.0
 44
0.0
 45
0.0
 49
-0.4400000000000001
 74
     0
  0
LTYPE
  5
231
330
5
100
AcDbSymbolTableRecord
100
AcDbLinetypeTableRecord
  2
ACANSTGB
 70
     0
  3
__ . . __ . .
 72
    65
 73
     6
 40
0.35433070866
 49
0.15748031496
 74
     0
 49
-0.03937007874
 74
     0
 49
0.03937007874
 74
     0
 49
-0.03937007874
 74
     0
 49
0.03937007874
 74
     0
 49
-0.03937007874
 74
     0
  0
LTYPE
  5
232
330
5
100
AcDbSymbolTableRecord
100
AcDbLinetypeTableRecord
  2
ACANSTGL
 70
     0
  3
_ _ _ _ _
 72
    65
 73
     2
 40
0.11811023622
 49
0.07874015748
 74
     0
 49
-0.03937007874
 74
     0
  0
ENDTAB
  0
TABLE
  2
LAYER
  5
2
330
0
100
AcDbSymbolTable
 70
     5
  0
LAYER
  5
10
330
2
100
AcDbSymbolTableRecord
100
AcDbLayerTableRecord
  2
0
 70
     0
 62
     7
  6
CONTINUOUS
370
    -3
390
F
  0
LAYER
  5
26
330
2
100
AcDbSymbolTableRecord
100
AcDbLayerTableRecord
  2
1
 70
     0
 62
     1
  6
CENTER
370
    -3
390
F
  0
LAYER
  5
27
330
2
100
AcDbSymbolTableRecord
100
AcDbLayerTableRecord
  2
10
 70
     0
 62
     7
  6
CONTINUOUS
370
    -3
390
F
  0
LAYER
  5
28
330
2
100
AcDbSymbolTableRecord
100
AcDbLayerTableRecord
  2
11
 70
     0
 62
     3
  6
CONTINUOUS
370
    -3
390
F
  0
LAYER
  5
29
330
2
100
AcDbSymbolTableRecord
100
AcDbLayerTableRecord
  2
2
 70
     0
 62
     2
  6
TENSEN1
370
    -3
390
F
  0
ENDTAB
  0
TABLE
  2
STYLE
  5
3
330
0
100
AcDbSymbolTable
 70
     5
  0
STYLE
  5
11
330
3
100
AcDbSymbolTableRecord
100
AcDbTextStyleTableRecord
  2
STANDARD
 70
     0
 40
0.0
 41
1.0
 50
0.0
 71
     0
 42
0.2
  3
TXT
  4
BIGFONT
  0
STYLE
  5
22
330
3
100
AcDbSymbolTableRecord
100
AcDbTextStyleTableRecord
  2
BIGFONT
 70
     0
 40
10.0
 41
0.8
 50
0.0
 71
     0
 42
10.0
  3

  4
bigfont
  0
STYLE
  5
21F
330
3
100
AcDbSymbolTableRecord
100
AcDbTextStyleTableRecord
  2

 70
     1
 40
0.0
 41
1.0
 50
0.0
 71
     0
 42
10.0
  3
ltypeshp.shx
  4

  0
STYLE
  5
224
330
3
100
AcDbSymbolTableRecord
100
AcDbTextStyleTableRecord
  2
ACANSTS
 70
     0
 40
1.0
 41
1.0
 50
0.0
 71
     0
 42
10.0
  3
romans.shx
  4
extfont.shx
  0
STYLE
  5
230
330
3
100
AcDbSymbolTableRecord
100
AcDbTextStyleTableRecord
  2
ACANSGDT
 70
     0
 40
0.0
 41
1.0
 50
0.0
 71
     0
 42
10.0
  3
amgdtans.shx
  4

  0
ENDTAB
  0
TABLE
  2
VIEW
  5
6
330
0
100
AcDbSymbolTable
 70
     1
  0
VIEW
  5
2B
330
6
100
AcDbSymbolTableRecord
100
AcDbViewTableRecord
  2
ALL
 70
     0
 40
540.0
 10
441.9831932773108
 20
270.0
 41
0.0
 11
0.0
 21
0.0
 31
1.0
 12
0.0
 22
0.0
 32
0.0
 42
0.0
 43
0.0
 44
0.0
 50
0.0
 71
     0
281
     0
 72
     0
  0
ENDTAB
  0
TABLE
  2
UCS
  5
7
330
0
100
AcDbSymbolTable
 70
     0
  0
ENDTAB
  0
TABLE
  2
APPID
  5
9
330
0
100
AcDbSymbolTable
 70
    13
  0
APPID
  5
12
330
9
100
AcDbSymbolTableRecord
100
AcDbRegAppTableRecord
  2
ACAD
 70
     0
  0
APPID
  5
14E
330
9
100
AcDbSymbolTableRecord
100
AcDbRegAppTableRecord
  2
GENIUS_GENDIM_13
 70
     0
  0
APPID
  5
14F
330
9
100
AcDbSymbolTableRecord
100
AcDbRegAppTableRecord
  2
GENIUS_GENDTOL_13
 70
     0
  0
APPID
  5
150
330
9
100
AcDbSymbolTableRecord
100
AcDbRegAppTableRecord
  2
GENIUS_GE3DTOL_13
 70
     0
  0
APPID
  5
153
330
9
100
AcDbSymbolTableRecord
100
AcDbRegAppTableRecord
  2
MCAD_NO_VIS
 70
     0
  0
APPID
  5
154
330
9
100
AcDbSymbolTableRecord
100
AcDbRegAppTableRecord
  2
ACAD_TEMP_GRAPHIC
 70
     0
  0
APPID
  5
186
330
9
100
AcDbSymbolTableRecord
100
AcDbRegAppTableRecord
  2
AD_DRAW
 70
     0
  0
APPID
  5
189
330
9
100
AcDbSymbolTableRecord
100
AcDbRegAppTableRecord
  2
ACATTRIBSERVICES
 70
     0
  0
APPID
  5
1D5
330
9
100
AcDbSymbolTableRecord
100
AcDbRegAppTableRecord
  2
ASURF_PCURVE_APPNAME
 70
     0
  0
APPID
  5
1DA
330
9
100
AcDbSymbolTableRecord
100
AcDbRegAppTableRecord
  2
AMG_3D2D_5.0
 70
     0
  0
APPID
  5
205
330
9
100
AcDbSymbolTableRecord
100
AcDbRegAppTableRecord
  2
DESIGNERASSEMBLIES
 70
     0
  0
APPID
  5
20D
330
9
100
AcDbSymbolTableRecord
100
AcDbRegAppTableRecord
  2
ACADM_DIM_EDIT
 70
     0
  0
APPID
  5
20E
330
9
100
AcDbSymbolTableRecord
100
AcDbRegAppTableRecord
  2
AMDT_DM_ADJ
 70
     0
  0
ENDTAB
  0
TABLE
  2
DIMSTYLE
  5
A
330
0
100
AcDbSymbolTable
 70
     7
100
AcDbDimStyleTable
 71
     0
  0
DIMSTYLE
105
2A
330
A
100
AcDbSymbolTableRecord
100
AcDbDimStyleTableRecord
  2
STANDARD
 70
     0
279
     2
340
22
  0
DIMSTYLE
105
237
330
A
100
AcDbSymbolTableRecord
100
AcDbDimStyleTableRecord
  2
AM_ANSI
 70
     0
  4
mm
 41
0.1
 42
0.05
 43
0.5
 44
0.1
 47
0.1
 48
0.1
 78
     7
 79
     2
140
0.12
141
0.0
146
0.71
147
0.06
176
   256
177
   256
178
     2
274
     4
284
     7
340
11
371
    -1
372
    -1
  0
DIMSTYLE
105
238
330
A
100
AcDbSymbolTableRecord
100
AcDbDimStyleTableRecord
  2
AM_ANSI$3
 70
     0
  4
mm
 41
0.1
 42
0.05
 43
0.5
 44
0.1
 47
0.1
 48
0.1
 78
     7
 79
     2
140
0.12
141
0.0
146
0.71
147
0.06
176
   256
177
   256
178
     2
274
     4
284
     7
288
     1
289
     0
340
11
371
    -1
372
    -1
  0
DIMSTYLE
105
239
330
A
100
AcDbSymbolTableRecord
100
AcDbDimStyleTableRecord
  2
AM_ANSI$4
 70
     0
  4
mm
 41
0.1
 42
0.05
 43
0.5
 44
0.1
 47
0.1
 48
0.1
 78
     7
 79
     2
140
0.12
141
0.0
146
0.71
147
0.06
176
   256
177
   256
178
     2
274
     4
284
     7
288
     1
289
     0
340
11
371
    -1
372
    -1
  0
DIMSTYLE
105
23A
330
A
100
AcDbSymbolTableRecord
100
AcDbDimStyleTableRecord
  2
AM_ANSI$7
 70
     0
  4
mm
 41
0.1
 42
0.05
 43
0.5
 44
0.1
 47
0.1
 48
0.1
 78
     7
 79
     2
140
0.24
141
0.0
146
0.71
147
0.06
176
   256
177
   256
178
     2
274
     4
284
     7
340
11
371
    -1
372
    -1
  0
DIMSTYLE
105
23B
330
A
100
AcDbSymbolTableRecord
100
AcDbDimStyleTableRecord
  2
AM_ANSI$SF
 70
     0
  4
mm
 41
0.1
 42
0.05
 43
0.5
 44
0.1
 47
0.1
 48
0.1
 75
     1
 76
     1
 78
     7
 79
     2
140
0.12
141
0.0
146
0.71
147
0.06
176
   256
177
   256
178
     2
274
     4
284
     7
340
11
371
    -1
372
    -1
  0
DIMSTYLE
105
240
330
A
100
AcDbSymbolTableRecord
100
AcDbDimStyleTableRecord
  2
AM_ANSI$SH
 70
     0
  4
mm
 41
0.1
 42
0.05
 43
0.5
 44
0.1
 47
0.1
 48
0.1
 75
     1
 76
     1
 78
     7
 79
     2
140
0.12
141
0.0
146
0.71
147
0.06
173
     1
176
   256
177
   256
178
     2
274
     4
284
     7
340
11
343
23C
371
    -1
372
    -1
  0
ENDTAB
  0
TABLE
  2
BLOCK_RECORD
  5
1
330
0
100
AcDbSymbolTable
 70
     3
  0
BLOCK_RECORD
  5
1E
102
{ACAD_XDICTIONARY
360
24B
102
}
330
1
100
AcDbSymbolTableRecord
100
AcDbBlockTableRecord
  2
*Model_Space
340
21
  0
BLOCK_RECORD
  5
1A
330
1
100
AcDbSymbolTableRecord
100
AcDbBlockTableRecord
  2
*Paper_Space
340
1D
  0
BLOCK_RECORD
  5
2F
330
1
100
AcDbSymbolTableRecord
100
AcDbBlockTableRecord
  2
QQ
340
0
102
{BLKREFS
331
3B
102
}
  0
BLOCK_RECORD
  5
1FC
330
1
100
AcDbSymbolTableRecord
100
AcDbBlockTableRecord
  2
*U1
340
0
  0
BLOCK_RECORD
  5
23C
330
1
100
AcDbSymbolTableRecord
100
AcDbBlockTableRecord
  2
GENAXEH
340
0
  0
ENDTAB
  0
ENDSEC
  0
SECTION
  2
BLOCKS
  0
BLOCK
  5
1F
330
1E
100
AcDbEntity
  8
0
100
AcDbBlockBegin
  2
*Model_Space
 70
     0
 10
0.0
 20
0.0
 30
0.0
  3
*Model_Space
  1

  0
ENDBLK
  5
20
330
1E
100
AcDbEntity
  8
0
100
AcDbBlockEnd
  0
BLOCK
  5
1B
330
1A
100
AcDbEntity
 67
     1
  8
0
100
AcDbBlockBegin
  2
*Paper_Space
 70
     0
 10
0.0
 20
0.0
 30
0.0
  3
*Paper_Space
  1

  0
ENDBLK
  5
1C
330
1A
100
AcDbEntity
 67
     1
  8
0
100
AcDbBlockEnd
  0
BLOCK
  5
30
330
2F
100
AcDbEntity
  8
0
100
AcDbBlockBegin
  2
QQ
 70
     0
 10
270.0
 20
0.0
 30
0.0
  3
QQ
  1

  0
LINE
  5
31
330
2F
100
AcDbEntity
  8
11
100
AcDbLine
 10
172.9999999999998
 20
36.0
 30
0.0
 11
270.0
 21
36.0
 31
0.0
  0
TEXT
  5
32
330
2F
100
AcDbEntity
  8
11
100
AcDbText
 10
175.0
 20
32.5
 30
0.0
 40
2.5
  1
部品名称
100
AcDbText
  0
LINE
  5
33
330
2F
100
AcDbEntity
  8
11
100
AcDbLine
 10
172.9999999999998
 20
36.0
 30
0.0
 11
172.9999999999998
 21
0.0
 31
0.0
  0
LINE
  5
34
330
2F
100
AcDbEntity
  8
11
100
AcDbLine
 10
172.9999999999998
 20
24.0
 30
0.0
 11
270.0
 21
24.0
 31
0.0
  0
TEXT
  5
35
330
2F
100
AcDbEntity
  8
11
100
AcDbText
 10
175.0
 20
20.5
 30
0.0
 40
2.5
  1
品番
100
AcDbText
  0
LINE
  5
36
330
2F
100
AcDbEntity
  8
11
100
AcDbLine
 10
172.9999999999998
 20
12.0
 30
0.0
 11
270.0
 21
12.0
 31
0.0
  0
TEXT
  5
37
330
2F
100
AcDbEntity
  8
11
100
AcDbText
 10
175.0
 20
8.5
 30
0.0
 40
2.5
  1
尺度
100
AcDbText
  0
TEXT
  5
38
330
2F
100
AcDbEntity
  8
11
100
AcDbText
 10
200.0
 20
8.5
 30
0.0
 40
2.5
  1
図番
100
AcDbText
  0
LINE
  5
39
330
2F
100
AcDbEntity
  8
11
100
AcDbLine
 10
198.0
 20
0.0
 30
0.0
 11
198.0
 21
12.0
 31
0.0
  0
ENDBLK
  5
3A
330
2F
100
AcDbEntity
  8
0
100
AcDbBlockEnd
  0
BLOCK
  5
1FD
330
1FC
100
AcDbEntity
  8
0
100
AcDbBlockBegin
  2
*U1
 70
     1
 10
0.0
 20
0.0
 30
0.0
  3
*U1
  1

  0
ENDBLK
  5
1FE
330
1FC
100
AcDbEntity
  8
0
100
AcDbBlockEnd
  0
BLOCK
  5
23E
330
23C
100
AcDbEntity
  8
0
100
AcDbBlockBegin
  2
GENAXEH
 70
     0
 10
0.0
 20
0.0
 30
0.0
  3
GENAXEH
  1

  0
LINE
  5
23D
330
23C
100
AcDbEntity
  8
0
100
AcDbLine
 10
-1.0
 20
0.0
 30
0.0
 11
1.0
 21
0.0
 31
0.0
  0
ENDBLK
  5
23F
330
23C
100
AcDbEntity
  8
0
100
AcDbBlockEnd
  0
ENDSEC
  0
SECTION
  2
ENTITIES
  0
LINE
  5
42
330
1E
100
AcDbEntity
  8
0
100
AcDbLine
 10
298.0
 20
266.0
 30
0.0
 11
310.4999999999999
 21
266.0
 31
0.0
  0
LINE
  5
43
330
1E
100
AcDbEntity
  8
0
100
AcDbLine
 10
310.4999999999999
 20
266.0
 30
0.0
 11
310.4999999999999
 21
275.0
 31
0.0
  0
LINE
  5
44
330
1E
100
AcDbEntity
  8
0
100
AcDbLine
 10
298.0
 20
266.0
 30
0.0
 11
285.5
 21
266.0
 31
0.0
  0
LINE
  5
45
330
1E
100
AcDbEntity
  8
0
100
AcDbLine
 10
285.5
 20
266.0
 30
0.0
 11
285.5
 21
275.0
 31
0.0
  0
LINE
  5
46
330
1E
100
AcDbEntity
  8
0
100
AcDbLine
 10
285.0
 20
275.0
 30
0.0
 11
310.9999999999998
 21
275.0
 31
0.0
  0
LINE
  5
47
330
1E
100
AcDbEntity
  8
0
100
AcDbLine
 10
298.0
 20
293.0
 30
0.0
 11
287.9999999999999
 21
293.0
 31
0.0
  0
LINE
  5
48
330
1E
100
AcDbEntity
  8
0
100
AcDbLine
 10
286.5
 20
291.5
 30
0.0
 11
285.0
 21
275.0
 31
0.0
  0
LINE
  5
49
330
1E
100
AcDbEntity
  8
0
100
AcDbLine
 10
287.0
 20
275.0
 30
0.0
 11
288.5
 21
291.5
 31
0.0
  0
LINE
  5
4A
330
1E
100
AcDbEntity
  8
0
100
AcDbLine
 10
297.5
 20
295.9999999999999
 30
0.0
 11
291.9999999999999
 21
295.9999999999999
 31
0.0
  0
LINE
  5
4B
330
1E
100
AcDbEntity
  8
0
100
AcDbLine
 10
291.9999999999999
 20
295.9999999999999
 30
0.0
 11
291.0
 21
295.0
 31
0.0
  0
LINE
  5
4C
330
1E
100
AcDbEntity
  8
0
100
AcDbLine
 10
291.0
 20
295.0
 30
0.0
 11
291.0
 21
293.0
 31
0.0
  0
LINE
  5
4D
330
1E
100
AcDbEntity
  8
0
100
AcDbLine
 10
297.5
 20
295.9999999999999
 30
0.0
 11
297.5
 21
294.4999999999998
 31
0.0
  0
LINE
  5
4E
330
1E
100
AcDbEntity
  8
0
100
AcDbLine
 10
297.5
 20
294.4999999999998
 30
0.0
 11
298.4999999999999
 21
294.4999999999998
 31
0.0
  0
LINE
  5
4F
330
1E
100
AcDbEntity
  8
0
100
AcDbLine
 10
298.4999999999999
 20
294.4999999999998
 30
0.0
 11
298.4999999999999
 21
295.9999999999999
 31
0.0
  0
LINE
  5
50
330
1E
100
AcDbEntity
  8
0
100
AcDbLine
 10
298.4999999999999
 20
295.9999999999999
 30
0.0
 11
304.0
 21
295.9999999999999
 31
0.0
  0
LINE
  5
51
330
1E
100
AcDbEntity
  8
0
100
AcDbLine
 10
304.0
 20
295.9999999999999
 30
0.0
 11
305.0
 21
295.0
 31
0.0
  0
LINE
  5
52
330
1E
100
AcDbEntity
  8
0
100
AcDbLine
 10
305.0
 20
295.0
 30
0.0
 11
305.0
 21
295.0
 31
0.0
  0
LINE
  5
53
330
1E
100
AcDbEntity
  8
0
100
AcDbLine
 10
298.0
 20
293.0
 30
0.0
 11
306.4999999999999
 21
293.0
 31
0.0
  0
LINE
  5
54
330
1E
100
AcDbEntity
  8
0
100
AcDbLine
 10
308.9999999999998
 20
275.0
 30
0.0
 11
307.5
 21
291.5
 31
0.0
  0
LINE
  5
55
330
1E
100
AcDbEntity
  8
0
100
AcDbLine
 10
308.9999999999998
 20
275.0
 30
0.0
 11
312.0
 21
291.9999999999999
 31
0.0
  0
LINE
  5
56
330
1E
100
AcDbEntity
  8
0
100
AcDbLine
 10
312.0
 20
291.9999999999999
 30
0.0
 11
393.0
 21
310.0
 31
0.0
  0
LINE
  5
57
330
1E
100
AcDbEntity
  8
0
100
AcDbLine
 10
303.5
 20
293.0
 30
0.0
 11
308.4999999999999
 21
299.0
 31
0.0
  0
LINE
  5
58
330
1E
100
AcDbEntity
  8
0
100
AcDbLine
 10
308.4999999999999
 20
299.0
 30
0.0
 11
390.5
 21
314.9999999999999
 31
0.0
  0
LINE
  5
59
330
1E
100
AcDbEntity
  8
0
100
AcDbLine
 10
390.5
 20
314.9999999999999
 30
0.0
 11
393.0
 21
310.0
 31
0.0
  0
LINE
  5
5A
330
1E
100
AcDbEntity
  8
0
100
AcDbLine
 10
393.0
 20
310.0
 30
0.0
 11
391.5
 21
300.4999999999999
 31
0.0
  0
ARC
  5
5B
330
1E
100
AcDbEntity
  8
0
100
AcDbCircle
 10
388.5
 20
301.05
 30
0.0
 40
3.050000000000001
100
AcDbArc
 50
190.3888578154698
 51
349.6111421845302
  0
LINE
  5
5C
330
1E
100
AcDbEntity
  8
0
100
AcDbLine
 10
385.5
 20
300.4999999999999
 30
0.0
 11
385.0
 21
302.0
 31
0.0
  0
ARC
  5
5D
330
1E
100
AcDbEntity
  8
0
100
AcDbCircle
 10
382.75
 20
302.125
 30
0.0
 40
2.253469547164992
100
AcDbArc
 50
356.8201698801356
 51
123.6900675259797
  0
LINE
  5
5E
330
1E
100
AcDbEntity
  8
0
100
AcDbLine
 10
381.4999999999999
 20
304.0
 30
0.0
 11
329.0
 21
290.0
 31
0.0
  0
ARC
  5
5F
330
1E
100
AcDbEntity
  8
0
100
AcDbCircle
 10
324.5645161290322
 20
277.1532258064516
 30
0.0
 40
13.59092065864695
100
AcDbArc
 50
70.95222796569861
 51
176.4279070862608
  0
LINE
  5
60
330
1E
100
AcDbEntity
  8
0
100
AcDbLine
 10
310.9999999999998
 20
275.0
 30
0.0
 11
310.9999999999998
 21
278.0
 31
0.0
  0
LINE
  5
61
330
1E
100
AcDbEntity
  8
0
100
AcDbLine
 10
305.0
 20
295.0
 30
0.0
 11
305.0
 21
294.793918905464
 31
0.0
  0
LINE
  5
62
330
1E
100
AcDbEntity
  8
0
100
AcDbLine
 10
307.5
 20
291.5
 30
0.0
 11
307.5
 21
291.9999999999999
 31
0.0
  0
ARC
  5
63
330
1E
100
AcDbEntity
  8
0
100
AcDbCircle
 10
306.5646908982417
 20
292.0646908982417
 30
0.0
 40
0.937543613997224
100
AcDbArc
 50
356.0434236216633
 51
93.95657637833659
  0
ARC
  5
64
330
1E
100
AcDbEntity
  8
0
100
AcDbCircle
 10
287.974955524878
 20
291.5250444751217
 30
0.0
 40
1.475168134858733
100
AcDbArc
 50
89.0272216216209
 51
180.972778378379
  0
LINE
  5
65
330
1E
100
AcDbEntity
  8
0
100
AcDbLine
 10
288.5
 20
266.0
 30
0.0
 11
288.5
 21
244.4999999999999
 31
0.0
  0
LINE
  5
66
330
1E
100
AcDbEntity
  8
0
100
AcDbLine
 10
288.5
 20
244.4999999999999
 30
0.0
 11
307.5
 21
244.4999999999999
 31
0.0
  0
LINE
  5
67
330
1E
100
AcDbEntity
  8
0
100
AcDbLine
 10
307.5
 20
244.4999999999999
 30
0.0
 11
307.5
 21
266.0
 31
0.0
  0
LINE
  5
68
330
1E
100
AcDbEntity
  8
0
100
AcDbLine
 10
304.0
 20
244.4999999999999
 30
0.0
 11
304.0
 21
215.5
 31
0.0
  0
LINE
  5
69
330
1E
100
AcDbEntity
  8
0
100
AcDbLine
 10
293.0
 20
244.4999999999999
 30
0.0
 11
293.0
 21
214.5
 31
0.0
  0
LINE
  5
6A
330
1E
100
AcDbEntity
  8
1
100
AcDbLine
 10
298.0
 20
304.0
 30
0.0
 11
298.0
 21
207.4999999999998
 31
0.0
  0
LINE
  5
6B
330
1E
100
AcDbEntity
  8
2
100
AcDbLine
 10
390.5
 20
318.9999999999999
 30
0.0
 11
347.0
 21
310.4999999999999
 31
0.0
  0
LINE
  5
6C
330
1E
100
AcDbEntity
  8
2
100
AcDbLine
 10
390.5
 20
318.9999999999999
 30
0.0
 11
393.0
 21
314.5
 31
0.0
  0
LINE
  5
6D
330
1E
100
AcDbEntity
  8
0
100
AcDbLine
 10
120.6234201894607
 20
266.0903715722824
 30
0.0
 11
120.6234201894607
 21
275.0903715722825
 31
0.0
  0
LINE
  5
6E
330
1E
100
AcDbEntity
  8
0
100
AcDbLine
 10
145.6234201894607
 20
266.0903715722824
 30
0.0
 11
145.6234201894607
 21
275.0903715722825
 31
0.0
  0
LINE
  5
6F
330
1E
100
AcDbEntity
  8
0
100
AcDbLine
 10
128.1234201894608
 20
244.5903715722824
 30
0.0
 11
128.1234201894608
 21
214.5
 31
0.0
  0
LINE
  5
70
330
1E
100
AcDbEntity
  8
0
100
AcDbLine
 10
139.1234201894608
 20
244.5903715722824
 30
0.0
 11
139.1234201894608
 21
215.5
 31
0.0
  0
LINE
  5
71
330
1E
100
AcDbEntity
  8
0
100
AcDbLine
 10
133.1234201894607
 20
266.0903715722824
 30
0.0
 11
120.6234201894607
 21
266.0903715722824
 31
0.0
  0
LINE
  5
72
330
1E
100
AcDbEntity
  8
0
100
AcDbLine
 10
123.6234201894607
 20
244.5903715722824
 30
0.0
 11
142.6234201894608
 21
244.5903715722824
 31
0.0
  0
LINE
  5
73
330
1E
100
AcDbEntity
  8
0
100
AcDbLine
 10
133.1234201894607
 20
266.0903715722824
 30
0.0
 11
145.6234201894607
 21
266.0903715722824
 31
0.0
  0
LINE
  5
74
330
1E
100
AcDbEntity
  8
0
100
AcDbLine
 10
123.6234201894607
 20
266.0903715722824
 30
0.0
 11
123.6234201894607
 21
244.5903715722824
 31
0.0
  0
LINE
  5
75
330
1E
100
AcDbEntity
  8
0
100
AcDbLine
 10
142.6234201894608
 20
244.5903715722824
 30
0.0
 11
142.6234201894608
 21
266.0903715722824
 31
0.0
  0
ARC
  5
76
330
1E
100
AcDbEntity
  8
0
100
AcDbCircle
 10
123.0983757143389
 20
291.6154160474043
 30
0.0
 40
1.475168134858733
100
AcDbArc
 50
89.0272216216209
 51
180.972778378379
  0
LINE
  5
77
330
1E
100
AcDbEntity
  8
0
100
AcDbLine
 10
122.1234201894607
 20
275.0903715722825
 30
0.0
 11
123.6234201894607
 21
291.5903715722825
 31
0.0
  0
LINE
  5
78
330
1E
100
AcDbEntity
  8
0
100
AcDbLine
 10
120.1234201894607
 20
275.0903715722825
 30
0.0
 11
146.1234201894608
 21
275.0903715722825
 31
0.0
  0
LINE
  5
79
330
1E
100
AcDbEntity
  8
0
100
AcDbLine
 10
121.6234201894607
 20
291.5903715722825
 30
0.0
 11
120.1234201894607
 21
275.0903715722825
 31
0.0
  0
LINE
  5
7A
330
1E
100
AcDbEntity
  8
0
100
AcDbLine
 10
133.6234201894608
 20
296.0903715722825
 30
0.0
 11
139.1234201894608
 21
296.0903715722825
 31
0.0
  0
LINE
  5
7B
330
1E
100
AcDbEntity
  8
0
100
AcDbLine
 10
132.6234201894608
 20
296.0903715722825
 30
0.0
 11
127.1234201894607
 21
296.0903715722825
 31
0.0
  0
LINE
  5
7C
330
1E
100
AcDbEntity
  8
0
100
AcDbLine
 10
133.1234201894607
 20
293.0903715722823
 30
0.0
 11
123.1234201894607
 21
293.0903715722823
 31
0.0
  0
LINE
  5
7D
330
1E
100
AcDbEntity
  8
0
100
AcDbLine
 10
126.1234201894607
 20
295.0903715722823
 30
0.0
 11
126.1234201894607
 21
293.0903715722823
 31
0.0
  0
LINE
  5
7E
330
1E
100
AcDbEntity
  8
0
100
AcDbLine
 10
127.1234201894607
 20
296.0903715722825
 30
0.0
 11
126.1234201894607
 21
295.0903715722823
 31
0.0
  0
LINE
  5
7F
330
1E
100
AcDbEntity
  8
0
100
AcDbLine
 10
140.1234201894608
 20
295.0903715722823
 30
0.0
 11
140.1234201894608
 21
294.8842904777466
 31
0.0
  0
LINE
  5
80
330
1E
100
AcDbEntity
  8
0
100
AcDbLine
 10
140.1234201894608
 20
295.0903715722823
 30
0.0
 11
140.1234201894608
 21
295.0903715722823
 31
0.0
  0
LINE
  5
81
330
1E
100
AcDbEntity
  8
0
100
AcDbLine
 10
139.1234201894608
 20
296.0903715722825
 30
0.0
 11
140.1234201894608
 21
295.0903715722823
 31
0.0
  0
LINE
  5
82
330
1E
100
AcDbEntity
  8
0
100
AcDbLine
 10
537.8504785454618
 20
266.0
 30
0.0
 11
537.8504785454618
 21
275.0
 31
0.0
  0
LINE
  5
83
330
1E
100
AcDbEntity
  8
0
100
AcDbLine
 10
512.8504785454618
 20
266.0
 30
0.0
 11
512.8504785454618
 21
275.0
 31
0.0
  0
LINE
  5
84
330
1E
100
AcDbEntity
  8
0
100
AcDbLine
 10
515.8504785454616
 20
244.4999999999999
 30
0.0
 11
534.8504785454617
 21
244.4999999999999
 31
0.0
  0
LINE
  5
85
330
1E
100
AcDbEntity
  8
0
100
AcDbLine
 10
525.3504785454618
 20
266.0
 30
0.0
 11
512.8504785454618
 21
266.0
 31
0.0
  0
LINE
  5
86
330
1E
100
AcDbEntity
  8
0
100
AcDbLine
 10
520.3504785454618
 20
244.4999999999999
 30
0.0
 11
520.3504785454618
 21
214.5
 31
0.0
  0
LINE
  5
87
330
1E
100
AcDbEntity
  8
0
100
AcDbLine
 10
515.8504785454616
 20
266.0
 30
0.0
 11
515.8504785454616
 21
244.4999999999999
 31
0.0
  0
LINE
  5
88
330
1E
100
AcDbEntity
  8
0
100
AcDbLine
 10
531.3504785454616
 20
244.4999999999999
 30
0.0
 11
531.3504785454616
 21
215.5
 31
0.0
  0
LINE
  5
89
330
1E
100
AcDbEntity
  8
0
100
AcDbLine
 10
534.8504785454617
 20
244.4999999999999
 30
0.0
 11
534.8504785454617
 21
266.0
 31
0.0
  0
LINE
  5
8A
330
1E
100
AcDbEntity
  8
0
100
AcDbLine
 10
525.3504785454618
 20
266.0
 30
0.0
 11
537.8504785454618
 21
266.0
 31
0.0
  0
LINE
  5
8B
330
1E
100
AcDbEntity
  8
0
100
AcDbLine
 10
512.3504785454618
 20
275.0
 30
0.0
 11
538.3504785454618
 21
275.0
 31
0.0
  0
LINE
  5
8C
330
1E
100
AcDbEntity
  8
0
100
AcDbLine
 10
513.8504785454617
 20
291.5
 30
0.0
 11
512.3504785454618
 21
275.0
 31
0.0
  0
LINE
  5
8D
330
1E
100
AcDbEntity
  8
0
100
AcDbLine
 10
514.3504785454616
 20
275.0
 30
0.0
 11
515.8504785454616
 21
291.5
 31
0.0
  0
ARC
  5
8E
330
1E
100
AcDbEntity
  8
0
100
AcDbCircle
 10
515.3254340703398
 20
291.5250444751217
 30
0.0
 40
1.475168134858733
100
AcDbArc
 50
89.0272216216209
 51
180.972778378379
  0
LINE
  5
8F
330
1E
100
AcDbEntity
  8
0
100
AcDbLine
 10
518.3504785454617
 20
295.0
 30
0.0
 11
518.3504785454617
 21
293.0
 31
0.0
  0
LINE
  5
90
330
1E
100
AcDbEntity
  8
0
100
AcDbLine
 10
532.3504785454616
 20
295.0
 30
0.0
 11
532.3504785454616
 21
295.0
 31
0.0
  0
LINE
  5
91
330
1E
100
AcDbEntity
  8
0
100
AcDbLine
 10
129.1234201894608
 20
315.0903715722825
 30
0.0
 11
137.1234201894607
 21
315.0903715722825
 31
0.0
  0
LINE
  5
92
330
1E
100
AcDbEntity
  8
0
100
AcDbLine
 10
127.1234201894607
 20
310.0903715722825
 30
0.0
 11
125.6234201894607
 21
293.0903715722823
 31
0.0
  0
LINE
  5
93
330
1E
100
AcDbEntity
  8
0
100
AcDbLine
 10
139.1234201894608
 20
310.0903715722825
 30
0.0
 11
140.6234201894608
 21
293.0903715722823
 31
0.0
  0
LINE
  5
94
330
1E
100
AcDbEntity
  8
0
100
AcDbLine
 10
140.1234201894608
 20
295.0903715722823
 30
0.0
 11
140.1234201894608
 21
293.0903715722823
 31
0.0
  0
LINE
  5
95
330
1E
100
AcDbEntity
  8
0
100
AcDbLine
 10
133.6234201894608
 20
296.0903715722825
 30
0.0
 11
132.6234201894608
 21
296.0903715722825
 31
0.0
  0
LINE
  5
96
330
1E
100
AcDbEntity
  8
0
100
AcDbLine
 10
144.1234201894608
 20
275.0903715722825
 30
0.0
 11
142.6234201894608
 21
291.5903715722825
 31
0.0
  0
LINE
  5
97
330
1E
100
AcDbEntity
  8
0
100
AcDbLine
 10
146.1234201894608
 20
275.0903715722825
 30
0.0
 11
144.6234201894607
 21
291.5903715722825
 31
0.0
  0
LINE
  5
98
330
1E
100
AcDbEntity
  8
0
100
AcDbLine
 10
133.1234201894607
 20
293.0903715722823
 30
0.0
 11
143.1234201894608
 21
293.0903715722823
 31
0.0
  0
LINE
  5
99
330
1E
100
AcDbEntity
  8
0
100
AcDbLine
 10
127.6234201894608
 20
299.0903715722824
 30
0.0
 11
138.6234201894608
 21
299.0903715722824
 31
0.0
  0
LINE
  5
9A
330
1E
100
AcDbEntity
  8
0
100
AcDbLine
 10
127.6234201894608
 20
299.0903715722824
 30
0.0
 11
127.1234201894607
 21
296.0903715722825
 31
0.0
  0
LINE
  5
9B
330
1E
100
AcDbEntity
  8
0
100
AcDbLine
 10
138.6234201894608
 20
299.0903715722824
 30
0.0
 11
139.1234201894608
 21
296.0903715722825
 31
0.0
  0
LINE
  5
9C
330
1E
100
AcDbEntity
  8
0
100
AcDbLine
 10
138.6234201894608
 20
299.0903715722824
 30
0.0
 11
137.6234201894608
 21
314.5903715722825
 31
0.0
  0
LINE
  5
9D
330
1E
100
AcDbEntity
  8
0
100
AcDbLine
 10
127.6234201894608
 20
299.0903715722824
 30
0.0
 11
128.6234201894608
 21
314.5903715722825
 31
0.0
  0
LINE
  5
9E
330
1E
100
AcDbEntity
  8
0
100
AcDbLine
 10
139.1234201894608
 20
310.0903715722825
 30
0.0
 11
137.6234201894608
 21
314.5903715722825
 31
0.0
  0
LINE
  5
9F
330
1E
100
AcDbEntity
  8
0
100
AcDbLine
 10
127.1234201894607
 20
310.0903715722825
 30
0.0
 11
128.6234201894608
 21
314.5903715722825
 31
0.0
  0
LINE
  5
A0
330
1E
100
AcDbEntity
  8
0
100
AcDbLine
 10
127.6234201894608
 20
299.0903715722824
 30
0.0
 11
126.3746091380508
 21
295.3439384180525
 31
0.0
  0
LINE
  5
A1
330
1E
100
AcDbEntity
  8
0
100
AcDbLine
 10
138.6234201894608
 20
299.0903715722824
 30
0.0
 11
139.8718871000482
 21
295.3449708405201
 31
0.0
  0
ARC
  5
A2
330
1E
100
AcDbEntity
  8
0
100
AcDbCircle
 10
137.0674873895694
 20
314.5344387723911
 30
0.0
 40
0.5587394348877404
100
AcDbArc
 50
5.745236328229188
 51
84.25476367177081
  0
ARC
  5
A3
330
1E
100
AcDbEntity
  8
0
100
AcDbCircle
 10
129.2794990823294
 20
314.4342926794137
 30
0.0
 40
0.6743887116988551
100
AcDbArc
 50
103.3817229969243
 51
166.6182770030727
  0
ARC
  5
A4
330
1E
100
AcDbEntity
  8
0
100
AcDbCircle
 10
143.1518033379864
 20
291.618754720808
 30
0.0
 40
1.471890539633839
100
AcDbArc
 50
358.8950704014208
 51
91.10492959857907
  0
LINE
  5
A5
330
1E
100
AcDbEntity
  8
0
100
AcDbLine
 10
140.1269716451186
 20
294.5797172053092
 30
0.0
 11
140.6234201894608
 21
293.0903715722823
 31
0.0
  0
LINE
  5
A6
330
1E
100
AcDbEntity
  8
0
100
AcDbLine
 10
126.1263181490787
 20
294.5990654511361
 30
0.0
 11
125.6234201894607
 21
293.0903715722823
 31
0.0
  0
LINE
  5
A7
330
1E
100
AcDbEntity
  8
0
100
AcDbLine
 10
521.3504785454618
 20
314.9999999999999
 30
0.0
 11
529.3504785454618
 21
314.9999999999999
 31
0.0
  0
LINE
  5
A8
330
1E
100
AcDbEntity
  8
0
100
AcDbLine
 10
519.3504785454616
 20
310.0
 30
0.0
 11
517.3504785454618
 21
275.0
 31
0.0
  0
LINE
  5
A9
330
1E
100
AcDbEntity
  8
0
100
AcDbLine
 10
531.3504785454616
 20
310.0
 30
0.0
 11
533.3504785454618
 21
275.0
 31
0.0
  0
LINE
  5
AA
330
1E
100
AcDbEntity
  8
0
100
AcDbLine
 10
536.3504785454616
 20
275.0
 30
0.0
 11
534.8504785454617
 21
291.5
 31
0.0
  0
LINE
  5
AB
330
1E
100
AcDbEntity
  8
0
100
AcDbLine
 10
538.3504785454618
 20
275.0
 30
0.0
 11
536.8504785454616
 21
291.5
 31
0.0
  0
LINE
  5
AC
330
1E
100
AcDbEntity
  8
0
100
AcDbLine
 10
535.3504785454616
 20
293.0
 30
0.0
 11
533.3504785454618
 21
293.0
 31
0.0
  0
ARC
  5
AD
330
1E
100
AcDbEntity
  8
0
100
AcDbCircle
 10
525.3504785454618
 20
304.0
 30
0.0
 40
5.0
100
AcDbArc
 50
180.0
 51
0.0
  0
ARC
  5
AE
330
1E
100
AcDbEntity
  8
0
100
AcDbCircle
 10
525.3504785454618
 20
299.0
 30
0.0
 40
10.0
100
AcDbArc
 50
233.1301023541559
 51
306.8698976458438
  0
ARC
  5
AF
330
1E
100
AcDbEntity
  8
0
100
AcDbCircle
 10
535.3981966144073
 20
291.5477180689456
 30
0.0
 40
1.453065663131159
100
AcDbArc
 50
358.1180921954612
 51
91.88190780453771
  0
ARC
  5
B0
330
1E
100
AcDbEntity
  8
0
100
AcDbCircle
 10
519.6322237824744
 20
309.1954363092531
 30
0.0
 40
11.74584255908202
100
AcDbArc
 50
3.927707031900449
 51
24.14477990395091
  0
ARC
  5
B1
330
1E
100
AcDbEntity
  8
0
100
AcDbCircle
 10
535.8542035502543
 20
307.9990687488018
 30
0.0
 40
16.62458014224242
100
AcDbArc
 50
158.8403815534821
 51
173.0871315106651
  0
ARC
  5
B2
330
1E
100
AcDbEntity
  8
0
100
AcDbCircle
 10
528.4889113597962
 20
313.1384328143345
 30
0.0
 40
2.051275311156743
100
AcDbArc
 50
24.83555869292408
 51
65.16444130707205
  0
ARC
  5
B3
330
1E
100
AcDbEntity
  8
0
100
AcDbCircle
 10
522.5004444216843
 20
312.8500341237775
 30
0.0
 40
2.438190883708108
100
AcDbArc
 50
118.1412723532933
 51
151.8587276467066
  0
LINE
  5
B4
330
1E
100
AcDbEntity
  8
0
100
AcDbLine
 10
530.3504785454618
 20
304.0
 30
0.0
 11
530.8094603406444
 21
309.2065048133717
 31
0.0
  0
LINE
  5
B5
330
1E
100
AcDbEntity
  8
0
100
AcDbLine
 10
520.3504785454618
 20
304.0
 30
0.0
 11
520.0308639273685
 21
309.2065048133717
 31
0.0
  0
LINE
  5
B6
330
1E
100
AcDbEntity
  8
0
100
AcDbLine
 10
532.2723426425762
 20
293.0
 30
0.0
 11
533.8504785454618
 21
293.0
 31
0.0
  0
LINE
  5
B7
330
1E
100
AcDbEntity
  8
0
100
AcDbLine
 10
518.3492676033056
 20
294.9867609186702
 30
0.0
 11
518.5081346309792
 21
295.1735323073494
 31
0.0
  0
LINE
  5
B8
330
1E
100
AcDbEntity
  8
0
100
AcDbLine
 10
518.3679584804593
 20
293.0
 30
0.0
 11
515.3504785454616
 21
293.0
 31
0.0
  0
LINE
  5
B9
330
1E
100
AcDbEntity
  8
0
100
AcDbLine
 10
532.3504785454616
 20
293.0
 30
0.0
 11
532.3504785454616
 21
295.0
 31
0.0
  0
LINE
  5
BA
330
1E
100
AcDbEntity
  8
0
100
AcDbLine
 10
532.3504785454616
 20
295.0
 30
0.0
 11
532.2122133851146
 21
295.1060304595618
 31
0.0
  0
LINE
  5
BB
330
1E
100
AcDbEntity
  8
2
100
AcDbLine
 10
128.6234201894608
 20
319.0903715722825
 30
0.0
 11
137.6234201894608
 21
319.0903715722825
 31
0.0
  0
LINE
  5
BC
330
1E
100
AcDbEntity
  8
2
100
AcDbLine
 10
137.6234201894608
 20
319.0903715722825
 30
0.0
 11
139.1234201894608
 21
317.0903715722825
 31
0.0
  0
LINE
  5
BD
330
1E
100
AcDbEntity
  8
2
100
AcDbLine
 10
128.6234201894608
 20
319.0903715722825
 30
0.0
 11
127.6234201894608
 21
317.5903715722824
 31
0.0
  0
LINE
  5
BE
330
1E
100
AcDbEntity
  8
2
100
AcDbLine
 10
521.3504785454618
 20
318.9999999999999
 30
0.0
 11
530.3504785454618
 21
318.9999999999999
 31
0.0
  0
LINE
  5
BF
330
1E
100
AcDbEntity
  8
2
100
AcDbLine
 10
530.3504785454618
 20
318.9999999999999
 30
0.0
 11
532.3504785454616
 21
316.9999999999999
 31
0.0
  0
LINE
  5
C0
330
1E
100
AcDbEntity
  8
2
100
AcDbLine
 10
521.3504785454618
 20
318.9999999999999
 30
0.0
 11
518.8504785454616
 21
317.5
 31
0.0
  0
LINE
  5
C1
330
1E
100
AcDbEntity
  8
1
100
AcDbLine
 10
298.0
 20
108.6081067408494
 30
0.0
 11
298.0
 21
153.6081067408495
 31
0.0
  0
LINE
  5
C2
330
1E
100
AcDbEntity
  8
1
100
AcDbLine
 10
281.0
 20
130.6081067408495
 30
0.0
 11
399.0
 21
130.6081067408495
 31
0.0
  0
ARC
  5
C3
330
1E
100
AcDbEntity
  8
0
100
AcDbCircle
 10
303.1666666666665
 20
130.6081067408495
 30
0.0
 40
18.16666666666668
100
AcDbArc
 50
146.6015115320127
 51
213.3984884679871
  0
ARC
  5
C4
330
1E
100
AcDbEntity
  8
0
100
AcDbCircle
 10
298.0
 20
125.4414400741827
 30
0.0
 40
18.16666666666668
100
AcDbArc
 50
56.60151153201281
 51
123.398488467987
  0
ARC
  5
C5
330
1E
100
AcDbEntity
  8
0
100
AcDbCircle
 10
298.0
 20
135.7747734075162
 30
0.0
 40
18.16666666666668
100
AcDbArc
 50
236.6015115320127
 51
303.398488467987
  0
LINE
  5
C6
330
1E
100
AcDbEntity
  8
0
100
AcDbLine
 10
393.0
 20
134.6081067408495
 30
0.0
 11
393.0
 21
126.6081067408494
 31
0.0
  0
LINE
  5
C7
330
1E
100
AcDbEntity
  8
0
100
AcDbLine
 10
393.0
 20
134.6081067408495
 30
0.0
 11
393.0
 21
135.6081067408495
 31
0.0
  0
LINE
  5
C8
330
1E
100
AcDbEntity
  8
0
100
AcDbLine
 10
393.0
 20
126.6081067408494
 30
0.0
 11
393.0
 21
125.6081067408494
 31
0.0
  0
LINE
  5
C9
330
1E
100
AcDbEntity
  8
0
100
AcDbLine
 10
390.5
 20
136.6081067408495
 30
0.0
 11
308.6108315811157
 21
139.6040519269063
 31
0.0
  0
ARC
  5
CA
330
1E
100
AcDbEntity
  8
0
100
AcDbCircle
 10
390.2662612215248
 20
131.4231516269491
 30
0.0
 40
5.190220934577344
100
AcDbArc
 50
64.50867032655352
 51
87.41884273759414
  0
ARC
  5
CB
330
1E
100
AcDbEntity
  8
0
100
AcDbCircle
 10
391.9077072728819
 20
135.0158140137315
 30
0.0
 40
1.242543390112343
100
AcDbArc
 50
28.46864131656689
 51
61.53135868343317
  0
ARC
  5
CC
330
1E
100
AcDbEntity
  8
0
100
AcDbCircle
 10
386.9119396285997
 20
139.37228785505
 30
0.0
 40
15.31970239832125
100
AcDbArc
 50
285.476900537802
 51
291.392997108042
  0
ARC
  5
CD
330
1E
100
AcDbEntity
  8
0
100
AcDbCircle
 10
392.0413802380208
 20
126.0667265028285
 30
0.0
 40
1.062677718847276
100
AcDbArc
 50
295.5672339610546
 51
334.4327660389506
  0
LINE
  5
CE
330
1E
100
AcDbEntity
  8
0
100
AcDbLine
 10
390.5
 20
124.6081067408494
 30
0.0
 11
308.6112099622736
 21
121.6121753980059
 31
0.0
  0
LINE
  5
CF
330
1E
100
AcDbEntity
  8
0
100
AcDbLine
 10
390.5
 20
399.5
 30
0.0
 11
308.4999999999999
 21
396.5
 31
0.0
  0
LINE
  5
D0
330
1E
100
AcDbEntity
  8
0
100
AcDbLine
 10
390.0
 20
409.9999999999999
 30
0.0
 11
308.4999999999999
 21
411.0
 31
0.0
  0
LINE
  5
D1
330
1E
100
AcDbEntity
  8
0
100
AcDbLine
 10
308.4999999999999
 20
400.0
 30
0.0
 11
390.0
 21
400.9999999999999
 31
0.0
  0
LINE
  5
D2
330
1E
100
AcDbEntity
  8
0
100
AcDbLine
 10
390.5
 20
411.5
 30
0.0
 11
308.4999999999999
 21
414.5
 31
0.0
  0
LINE
  5
D3
330
1E
100
AcDbEntity
  8
1
100
AcDbLine
 10
281.0
 20
405.4999999999999
 30
0.0
 11
399.0
 21
405.4999999999999
 31
0.0
  0
ARC
  5
D4
330
1E
100
AcDbEntity
  8
0
100
AcDbCircle
 10
324.2560514785739
 20
404.3831663631993
 30
0.0
 40
0.9396871120099968
100
AcDbArc
 50
252.8572929075532
 51
46.70852787937523
  0
LINE
  5
D5
330
1E
100
AcDbEntity
  8
0
100
AcDbLine
 10
322.5
 20
403.5
 30
0.0
 11
322.5
 21
406.5
 31
0.0
  0
LINE
  5
D6
330
1E
100
AcDbEntity
  8
0
100
AcDbLine
 10
320.0
 20
406.5
 30
0.0
 11
322.5
 21
403.5
 31
0.0
  0
LINE
  5
D7
330
1E
100
AcDbEntity
  8
0
100
AcDbLine
 10
320.0
 20
403.5
 30
0.0
 11
320.0
 21
406.5
 31
0.0
  0
ARC
  5
D8
330
1E
100
AcDbEntity
  8
0
100
AcDbCircle
 10
317.0712515908916
 20
403.7856257954458
 30
0.0
 40
1.949782685496505
100
AcDbArc
 50
351.5763654103544
 51
122.7675602243182
  0
LINE
  5
D9
330
1E
100
AcDbEntity
  8
0
100
AcDbLine
 10
315.5
 20
403.5
 30
0.0
 11
315.5
 21
407.5
 31
0.0
  0
LINE
  5
DA
330
1E
100
AcDbEntity
  8
0
100
AcDbLine
 10
297.5
 20
412.4219083371047
 30
0.0
 11
297.5
 21
398.5828589144097
 31
0.0
  0
LINE
  5
DB
330
1E
100
AcDbEntity
  8
0
100
AcDbLine
 10
298.4999999999999
 20
412.418500940549
 30
0.0
 11
298.4999999999999
 21
398.5828589144097
 31
0.0
  0
CIRCLE
  5
DC
330
1E
100
AcDbEntity
  8
0
100
AcDbCircle
 10
298.0
 20
405.4999999999999
 30
0.0
 40
7.117382943654932
  0
LINE
  5
DD
330
1E
100
AcDbEntity
  8
0
100
AcDbLine
 10
326.5
 20
403.0
 30
0.0
 11
326.5
 21
408.0
 31
0.0
  0
LINE
  5
DE
330
1E
100
AcDbEntity
  8
0
100
AcDbLine
 10
314.0
 20
403.0
 30
0.0
 11
314.0
 21
408.0
 31
0.0
  0
LINE
  5
DF
330
1E
100
AcDbEntity
  8
0
100
AcDbLine
 10
308.4999999999999
 20
411.0
 30
0.0
 11
308.4999999999999
 21
400.0
 31
0.0
  0
ARC
  5
E0
330
1E
100
AcDbEntity
  8
0
100
AcDbCircle
 10
301.55
 20
405.4999999999999
 30
0.0
 40
14.05000000000001
100
AcDbArc
 50
145.2919507274773
 51
214.7080492725226
  0
CIRCLE
  5
E1
330
1E
100
AcDbEntity
  8
0
100
AcDbCircle
 10
298.0
 20
405.4999999999999
 30
0.0
 40
7.0
  0
ARC
  5
E2
330
1E
100
AcDbEntity
  8
0
100
AcDbCircle
 10
301.0
 20
405.4999999999999
 30
0.0
 40
15.0
100
AcDbArc
 50
143.1301023541559
 51
216.8698976458439
  0
ARC
  5
E3
330
1E
100
AcDbEntity
  8
0
100
AcDbCircle
 10
303.1666666666665
 20
405.4999999999999
 30
0.0
 40
18.16666666666668
100
AcDbArc
 50
146.6015115320127
 51
213.3984884679871
  0
LINE
  5
E4
330
1E
100
AcDbEntity
  8
1
100
AcDbLine
 10
298.0
 20
383.4999999999999
 30
0.0
 11
298.0
 21
428.5
 31
0.0
  0
LINE
  5
E5
330
1E
100
AcDbEntity
  8
0
100
AcDbLine
 10
326.0
 20
402.5
 30
0.0
 11
314.5
 21
402.5
 31
0.0
  0
ARC
  5
E6
330
1E
100
AcDbEntity
  8
0
100
AcDbCircle
 10
298.0
 20
409.05
 30
0.0
 40
14.05000000000001
100
AcDbArc
 50
235.2919507274772
 51
304.7080492725226
  0
ARC
  5
E7
330
1E
100
AcDbEntity
  8
0
100
AcDbCircle
 10
298.0
 20
408.4999999999999
 30
0.0
 40
15.0
100
AcDbArc
 50
233.1301023541559
 51
306.8698976458438
  0
ARC
  5
E8
330
1E
100
AcDbEntity
  8
0
100
AcDbCircle
 10
298.0
 20
410.6666666666666
 30
0.0
 40
18.16666666666668
100
AcDbArc
 50
236.6015115320127
 51
303.398488467987
  0
LINE
  5
E9
330
1E
100
AcDbEntity
  8
0
100
AcDbLine
 10
302.4999999999999
 20
400.0
 30
0.0
 11
308.4999999999999
 21
396.5
 31
0.0
  0
LINE
  5
EA
330
1E
100
AcDbEntity
  8
0
100
AcDbLine
 10
308.4999999999999
 20
400.0
 30
0.0
 11
302.4999999999999
 21
400.0
 31
0.0
  0
ARC
  5
EB
330
1E
100
AcDbEntity
  8
0
100
AcDbCircle
 10
294.45
 20
405.4999999999999
 30
0.0
 40
14.05000000000001
100
AcDbArc
 50
325.2919507274774
 51
326.6968392311932
  0
ARC
  5
EC
330
1E
100
AcDbEntity
  8
0
100
AcDbCircle
 10
295.0
 20
405.4999999999999
 30
0.0
 40
15.0
100
AcDbArc
 50
323.130102354156
 51
326.1125981879329
  0
ARC
  5
ED
330
1E
100
AcDbEntity
  8
0
100
AcDbCircle
 10
292.8333333333332
 20
405.4999999999999
 30
0.0
 40
18.16666666666668
100
AcDbArc
 50
326.6015115320128
 51
330.3056034931679
  0
ARC
  5
EE
330
1E
100
AcDbEntity
  8
0
100
AcDbCircle
 10
314.4668766991754
 20
402.9668766991754
 30
0.0
 40
0.4680502166333845
100
AcDbArc
 50
175.9418605712181
 51
274.0581394287817
  0
ARC
  5
EF
330
1E
100
AcDbEntity
  8
0
100
AcDbCircle
 10
324.1246507271615
 20
404.2217971381687
 30
0.0
 40
0.7426100520536955
100
AcDbArc
 50
166.9738887370369
 51
258.6950463368533
  0
ARC
  5
F0
330
1E
100
AcDbEntity
  8
0
100
AcDbCircle
 10
326.0409720008664
 20
402.9590279991335
 30
0.0
 40
0.4608529145438162
100
AcDbArc
 50
264.8994002325341
 51
5.100599767465874
  0
LINE
  5
F1
330
1E
100
AcDbEntity
  8
0
100
AcDbLine
 10
315.5
 20
404.9999999999999
 30
0.0
 11
318.5
 21
407.5
 31
0.0
  0
LINE
  5
F2
330
1E
100
AcDbEntity
  8
0
100
AcDbLine
 10
326.0
 20
408.4999999999999
 30
0.0
 11
314.5
 21
408.4999999999999
 31
0.0
  0
ARC
  5
F3
330
1E
100
AcDbEntity
  8
0
100
AcDbCircle
 10
298.0
 20
401.9499999999998
 30
0.0
 40
14.05000000000001
100
AcDbArc
 50
55.2919507274774
 51
124.7080492725226
  0
ARC
  5
F4
330
1E
100
AcDbEntity
  8
0
100
AcDbCircle
 10
298.0
 20
402.5
 30
0.0
 40
15.0
100
AcDbArc
 50
53.13010235415597
 51
126.869897645844
  0
ARC
  5
F5
330
1E
100
AcDbEntity
  8
0
100
AcDbCircle
 10
298.0
 20
400.3333333333332
 30
0.0
 40
18.16666666666668
100
AcDbArc
 50
56.60151153201281
 51
123.398488467987
  0
ARC
  5
F6
330
1E
100
AcDbEntity
  8
0
100
AcDbCircle
 10
292.8333333333332
 20
405.4999999999999
 30
0.0
 40
18.16666666666668
100
AcDbArc
 50
29.94994394059813
 51
33.39848846798719
  0
ARC
  5
F7
330
1E
100
AcDbEntity
  8
0
100
AcDbCircle
 10
295.0
 20
405.4999999999999
 30
0.0
 40
15.0
100
AcDbArc
 50
33.9873896668389
 51
36.869897645844
  0
ARC
  5
F8
330
1E
100
AcDbEntity
  8
0
100
AcDbCircle
 10
294.45
 20
405.4999999999999
 30
0.0
 40
14.05000000000001
100
AcDbArc
 50
33.14858085840239
 51
34.70804927252256
  0
LINE
  5
F9
330
1E
100
AcDbEntity
  8
0
100
AcDbLine
 10
302.4999999999999
 20
411.0
 30
0.0
 11
308.4999999999999
 21
414.5
 31
0.0
  0
LINE
  5
FA
330
1E
100
AcDbEntity
  8
0
100
AcDbLine
 10
308.4999999999999
 20
411.0
 30
0.0
 11
302.4999999999999
 21
411.0
 31
0.0
  0
ARC
  5
FB
330
1E
100
AcDbEntity
  8
0
100
AcDbCircle
 10
314.531970500598
 20
407.9680294994018
 30
0.0
 40
0.5329303204126159
100
AcDbArc
 50
93.43923992569207
 51
176.560760074308
  0
ARC
  5
FC
330
1E
100
AcDbEntity
  8
0
100
AcDbCircle
 10
324.1357724025213
 20
405.8810027819541
 30
0.0
 40
0.5496741106897149
100
AcDbArc
 50
103.8488978523095
 51
254.3454328544648
  0
LINE
  5
FD
330
1E
100
AcDbEntity
  8
0
100
AcDbLine
 10
318.5
 20
407.5
 30
0.0
 11
325.0
 21
407.5
 31
0.0
  0
ARC
  5
FE
330
1E
100
AcDbEntity
  8
0
100
AcDbCircle
 10
324.3431683297048
 20
405.5485289773008
 30
0.0
 40
0.9332173343236435
100
AcDbArc
 50
50.05965523107864
 51
111.8511906233035
  0
ARC
  5
FF
330
1E
100
AcDbEntity
  8
0
100
AcDbCircle
 10
329.0818254649694
 20
421.0466925333457
 30
0.0
 40
16.51160340341753
100
AcDbArc
 50
251.9986017850019
 51
255.3005582960474
  0
ARC
  5
100
330
1E
100
AcDbEntity
  8
0
100
AcDbCircle
 10
326.0004412825962
 20
408.0004412825962
 30
0.0
 40
0.4995589123060213
100
AcDbArc
 50
359.9493880841578
 51
90.05061191584207
  0
LINE
  5
101
330
1E
100
AcDbEntity
  8
0
100
AcDbLine
 10
390.5
 20
401.4999999999999
 30
0.0
 11
390.5
 21
409.4999999999999
 31
0.0
  0
LINE
  5
102
330
1E
100
AcDbEntity
  8
0
100
AcDbLine
 10
393.0
 20
409.4999999999999
 30
0.0
 11
393.0
 21
401.4999999999999
 31
0.0
  0
ARC
  5
103
330
1E
100
AcDbEntity
  8
0
100
AcDbCircle
 10
392.0413802380208
 20
400.9586197619789
 30
0.0
 40
1.062677718847276
100
AcDbArc
 50
295.5672339610546
 51
334.4327660389506
  0
ARC
  5
104
330
1E
100
AcDbEntity
  8
0
100
AcDbCircle
 10
386.9119396285997
 20
414.2641811142006
 30
0.0
 40
15.31970239832125
100
AcDbArc
 50
285.476900537802
 51
291.392997108042
  0
ARC
  5
105
330
1E
100
AcDbEntity
  8
0
100
AcDbCircle
 10
390.0622912077718
 20
401.437708792228
 30
0.0
 40
0.4421189674278759
100
AcDbArc
 50
261.9005104293204
 51
8.099489570679416
  0
LINE
  5
106
330
1E
100
AcDbEntity
  8
0
100
AcDbLine
 10
393.0
 20
401.4999999999999
 30
0.0
 11
393.0
 21
400.4999999999999
 31
0.0
  0
ARC
  5
107
330
1E
100
AcDbEntity
  8
0
100
AcDbCircle
 10
391.9077072728819
 20
409.9077072728818
 30
0.0
 40
1.242543390112343
100
AcDbArc
 50
28.46864131656689
 51
61.53135868343317
  0
ARC
  5
108
330
1E
100
AcDbEntity
  8
0
100
AcDbCircle
 10
390.2662612215248
 20
406.3150448860994
 30
0.0
 40
5.190220934577344
100
AcDbArc
 50
64.50867032655352
 51
87.41884273759414
  0
ARC
  5
109
330
1E
100
AcDbEntity
  8
0
100
AcDbCircle
 10
390.0156000286168
 20
409.5156000286166
 30
0.0
 40
0.484651104578219
100
AcDbArc
 50
358.1554355135608
 51
91.84456448643908
  0
LINE
  5
10A
330
1E
100
AcDbEntity
  8
0
100
AcDbLine
 10
393.0
 20
409.4999999999999
 30
0.0
 11
393.0
 21
410.5
 31
0.0
  0
CIRCLE
  5
10B
330
1E
100
AcDbEntity
  8
0
100
AcDbCircle
 10
298.0
 20
130.6081067408495
 30
0.0
 40
12.5
  0
CIRCLE
  5
10C
330
1E
100
AcDbEntity
  8
0
100
AcDbCircle
 10
298.0
 20
130.6081067408495
 30
0.0
 40
9.5
  0
CIRCLE
  5
10D
330
1E
100
AcDbEntity
  8
0
100
AcDbCircle
 10
298.0
 20
130.6081067408495
 30
0.0
 40
6.0
  0
CIRCLE
  5
10E
330
1E
100
AcDbEntity
  8
0
100
AcDbCircle
 10
298.0
 20
130.6081067408495
 30
0.0
 40
5.0
  0
POLYLINE
  5
10F
330
1E
100
AcDbEntity
  8
0
100
AcDb2dPolyline
 66
     1
 10
0.0
 20
0.0
 30
0.0
 70
   129
  0
VERTEX
  5
110
330
10F
100
AcDbEntity
  8
0
100
AcDbVertex
100
AcDb2dVertex
 10
391.5
 20
130.6081067408495
 30
0.0
 42
0.0674590399341341
  0
VERTEX
  5
111
330
10F
100
AcDbEntity
  8
0
100
AcDbVertex
100
AcDb2dVertex
 10
391.2573267964485
 20
132.3985922375624
 30
0.0
 42
0.0798124861749932
  0
VERTEX
  5
112
330
10F
100
AcDbEntity
  8
0
100
AcDbVertex
100
AcDb2dVertex
 10
390.6213203435596
 20
133.7900872561889
 30
0.0
 42
0.1071181112083202
 70
     2
 50
123.6900675259797
  0
VERTEX
  5
113
330
10F
100
AcDbEntity
  8
0
100
AcDbVertex
100
AcDb2dVertex
 10
389.5780060821923
 20
134.8004841676379
 30
0.0
 42
0.1398891526406588
 50
123.6900675259797
  0
VERTEX
  5
114
330
10F
100
AcDbEntity
  8
0
100
AcDbVertex
100
AcDb2dVertex
 10
388.5
 20
135.1081067408495
 30
0.0
 42
0.1398891526406552
  0
VERTEX
  5
115
330
10F
100
AcDbEntity
  8
0
100
AcDbVertex
100
AcDb2dVertex
 10
387.4219939178077
 20
134.8004841676379
 30
0.0
 42
0.1071181112083475
  0
VERTEX
  5
116
330
10F
100
AcDbEntity
  8
0
100
AcDbVertex
100
AcDb2dVertex
 10
386.3786796564403
 20
133.7900872561889
 30
0.0
 42
0.0798124861749945
 70
     2
 50
236.3099324740201
  0
VERTEX
  5
117
330
10F
100
AcDbEntity
  8
0
100
AcDbVertex
100
AcDb2dVertex
 10
385.7426732035514
 20
132.3985922375626
 30
0.0
 42
0.0674590399341455
 50
236.3099324740201
  0
VERTEX
  5
118
330
10F
100
AcDbEntity
  8
0
100
AcDbVertex
100
AcDb2dVertex
 10
385.5
 20
130.6081067408495
 30
0.0
 42
0.0674590399341548
  0
VERTEX
  5
119
330
10F
100
AcDbEntity
  8
0
100
AcDbVertex
100
AcDb2dVertex
 10
385.7426732035514
 20
128.8176212441362
 30
0.0
 42
0.0798124861749882
  0
VERTEX
  5
11A
330
10F
100
AcDbEntity
  8
0
100
AcDbVertex
100
AcDb2dVertex
 10
386.3786796564403
 20
127.42612622551
 30
0.0
 42
0.1071181112083337
 70
     2
 50
303.6900675259797
  0
VERTEX
  5
11B
330
10F
100
AcDbEntity
  8
0
100
AcDbVertex
100
AcDb2dVertex
 10
387.4219939178077
 20
126.4157293140609
 30
0.0
 42
0.1398891526406482
 50
303.6900675259797
  0
VERTEX
  5
11C
330
10F
100
AcDbEntity
  8
0
100
AcDbVertex
100
AcDb2dVertex
 10
388.5
 20
126.1081067408494
 30
0.0
 42
0.1398891526406552
  0
VERTEX
  5
11D
330
10F
100
AcDbEntity
  8
0
100
AcDbVertex
100
AcDb2dVertex
 10
389.5780060821921
 20
126.4157293140609
 30
0.0
 42
0.1071181112083473
  0
VERTEX
  5
11E
330
10F
100
AcDbEntity
  8
0
100
AcDbVertex
100
AcDb2dVertex
 10
390.6213203435596
 20
127.42612622551
 30
0.0
 42
0.0798124861749962
 70
     2
 50
56.30993247402023
  0
VERTEX
  5
11F
330
10F
100
AcDbEntity
  8
0
100
AcDbVertex
100
AcDb2dVertex
 10
391.2573267964483
 20
128.8176212441362
 30
0.0
 42
0.067459039934157
 50
56.30993247402023
  0
SEQEND
  5
120
330
10F
100
AcDbEntity
  8
0
  0
POLYLINE
  5
121
330
1E
100
AcDbEntity
  8
0
100
AcDb2dPolyline
 66
     1
 10
0.0
 20
0.0
 30
0.0
 70
   129
  0
VERTEX
  5
122
330
121
100
AcDbEntity
  8
0
100
AcDbVertex
100
AcDb2dVertex
 10
328.5
 20
130.6081067408495
 30
0.0
 42
0.1247462610838774
  0
VERTEX
  5
123
330
121
100
AcDbEntity
  8
0
100
AcDbVertex
100
AcDb2dVertex
 10
327.8935974827771
 20
133.000827374885
 30
0.0
 42
0.105774118067222
  0
VERTEX
  5
124
330
121
100
AcDbEntity
  8
0
100
AcDbVertex
100
AcDb2dVertex
 10
326.0104076400856
 20
135.2043008185619
 30
0.0
 42
0.0867398531734977
 70
     2
 50
142.5946433685914
  0
VERTEX
  5
125
330
121
100
AcDbEntity
  8
0
100
AcDbVertex
100
AcDb2dVertex
 10
323.3457198023882
 20
136.5908890497782
 30
0.0
 42
0.0768390576107532
 50
142.5946433685914
  0
VERTEX
  5
126
330
121
100
AcDbEntity
  8
0
100
AcDbVertex
100
AcDb2dVertex
 10
320.0
 20
137.1081067408495
 30
0.0
 42
0.0768390576107647
  0
VERTEX
  5
127
330
121
100
AcDbEntity
  8
0
100
AcDbVertex
100
AcDb2dVertex
 10
316.6542801976115
 20
136.5908890497781
 30
0.0
 42
0.086739853173497
  0
VERTEX
  5
128
330
121
100
AcDbEntity
  8
0
100
AcDbVertex
100
AcDb2dVertex
 10
313.9895923599143
 20
135.2043008185619
 30
0.0
 42
0.1057741180672231
 70
     2
 50
217.4053566314085
  0
VERTEX
  5
129
330
121
100
AcDbEntity
  8
0
100
AcDbVertex
100
AcDb2dVertex
 10
312.1064025172228
 20
133.000827374885
 30
0.0
 42
0.1247462610838858
 50
217.4053566314085
  0
VERTEX
  5
12A
330
121
100
AcDbEntity
  8
0
100
AcDbVertex
100
AcDb2dVertex
 10
311.5
 20
130.6081067408495
 30
0.0
 42
0.1247462610838745
  0
VERTEX
  5
12B
330
121
100
AcDbEntity
  8
0
100
AcDbVertex
100
AcDb2dVertex
 10
312.1064025172228
 20
128.2153861068138
 30
0.0
 42
0.1057741180672157
  0
VERTEX
  5
12C
330
121
100
AcDbEntity
  8
0
100
AcDbVertex
100
AcDb2dVertex
 10
313.9895923599143
 20
126.011912663137
 30
0.0
 42
0.0867398531734841
 70
     2
 50
322.5946433685915
  0
VERTEX
  5
12D
330
121
100
AcDbEntity
  8
0
100
AcDbVertex
100
AcDb2dVertex
 10
316.6542801976115
 20
124.6253244319208
 30
0.0
 42
0.0768390576107551
 50
322.5946433685915
  0
VERTEX
  5
12E
330
121
100
AcDbEntity
  8
0
100
AcDbVertex
100
AcDb2dVertex
 10
320.0
 20
124.1081067408494
 30
0.0
 42
0.0768390576107506
  0
VERTEX
  5
12F
330
121
100
AcDbEntity
  8
0
100
AcDbVertex
100
AcDb2dVertex
 10
323.3457198023883
 20
124.6253244319207
 30
0.0
 42
0.0867398531734888
  0
VERTEX
  5
130
330
121
100
AcDbEntity
  8
0
100
AcDbVertex
100
AcDb2dVertex
 10
326.0104076400856
 20
126.011912663137
 30
0.0
 42
0.1057741180672232
 70
     2
 50
37.40535663140853
  0
VERTEX
  5
131
330
121
100
AcDbEntity
  8
0
100
AcDbVertex
100
AcDb2dVertex
 10
327.893597482777
 20
128.2153861068138
 30
0.0
 42
0.1247462610838858
 50
37.40535663140853
  0
SEQEND
  5
132
330
121
100
AcDbEntity
  8
0
  0
ARC
  5
133
330
1E
100
AcDbEntity
  8
0
100
AcDbCircle
 10
292.8333333333332
 20
130.6081067408495
 30
0.0
 40
18.16666666666668
100
AcDbArc
 50
326.6015115320128
 51
33.39848846798719
  0
LINE
  5
135
330
1E
100
AcDbEntity
  8
0
100
AcDbLine
 10
138.1234201894607
 20
214.5
 30
0.0
 11
138.1234201894607
 21
244.5903715722824
 31
0.0
  0
LINE
  5
136
330
1E
100
AcDbEntity
  8
1
100
AcDbLine
 10
133.1234201894607
 20
209.0
 30
0.0
 11
133.1234201894607
 21
324.0903715722823
 31
0.0
  0
LINE
  5
137
330
1E
100
AcDbEntity
  8
0
100
AcDbLine
 10
127.1234201894607
 20
215.5
 30
0.0
 11
127.1234201894607
 21
244.5903715722824
 31
0.0
  0
LINE
  5
138
330
1E
100
AcDbEntity
  8
0
100
AcDbLine
 10
139.1329524135491
 20
215.4983100360272
 30
0.0
 11
127.1212394027235
 21
215.4983100360272
 31
0.0
  0
LINE
  5
139
330
1E
100
AcDbEntity
  8
0
100
AcDbLine
 10
127.1212394027235
 20
215.4983100360272
 30
0.0
 11
128.1253140471843
 21
214.4949319679111
 31
0.0
  0
LINE
  5
13A
330
1E
100
AcDbEntity
  8
0
100
AcDbLine
 10
128.1253140471843
 20
214.4949319679111
 30
0.0
 11
138.1288777690885
 21
214.4949319679111
 31
0.0
  0
LINE
  5
13B
330
1E
100
AcDbEntity
  8
0
100
AcDbLine
 10
138.1288777690885
 20
214.4949319679111
 30
0.0
 11
139.1329524135491
 21
215.4983100360272
 31
0.0
  0
LINE
  5
13C
330
1E
100
AcDbEntity
  8
0
100
AcDbLine
 10
303.0
 20
214.5
 30
0.0
 11
303.0
 21
244.4999999999999
 31
0.0
  0
LINE
  5
13D
330
1E
100
AcDbEntity
  8
0
100
AcDbLine
 10
291.9999999999999
 20
215.5
 30
0.0
 11
291.9999999999999
 21
244.4999999999999
 31
0.0
  0
LINE
  5
13E
330
1E
100
AcDbEntity
  8
0
100
AcDbLine
 10
304.0
 20
215.5
 30
0.0
 11
291.9999999999999
 21
215.5
 31
0.0
  0
LINE
  5
13F
330
1E
100
AcDbEntity
  8
0
100
AcDbLine
 10
291.9999999999999
 20
215.5
 30
0.0
 11
293.0
 21
214.5
 31
0.0
  0
LINE
  5
140
330
1E
100
AcDbEntity
  8
0
100
AcDbLine
 10
293.0
 20
214.5
 30
0.0
 11
303.0
 21
214.5
 31
0.0
  0
LINE
  5
141
330
1E
100
AcDbEntity
  8
0
100
AcDbLine
 10
303.0
 20
214.5
 30
0.0
 11
304.0
 21
215.5
 31
0.0
  0
LINE
  5
142
330
1E
100
AcDbEntity
  8
0
100
AcDbLine
 10
530.3504785454618
 20
214.5
 30
0.0
 11
530.3504785454618
 21
244.4999999999999
 31
0.0
  0
LINE
  5
143
330
1E
100
AcDbEntity
  8
1
100
AcDbLine
 10
525.3504785454618
 20
208.4999999999999
 30
0.0
 11
525.3504785454618
 21
324.5
 31
0.0
  0
LINE
  5
144
330
1E
100
AcDbEntity
  8
0
100
AcDbLine
 10
519.3504785454616
 20
215.5
 30
0.0
 11
519.3504785454616
 21
244.4999999999999
 31
0.0
  0
LINE
  5
145
330
1E
100
AcDbEntity
  8
0
100
AcDbLine
 10
531.3482497535574
 20
215.5139354440124
 30
0.0
 11
519.3585098320016
 21
215.5139354440124
 31
0.0
  0
LINE
  5
146
330
1E
100
AcDbEntity
  8
0
100
AcDbLine
 10
519.3585098320016
 20
215.5139354440124
 30
0.0
 11
520.3634276467191
 21
214.509712989766
 31
0.0
  0
LINE
  5
147
330
1E
100
AcDbEntity
  8
0
100
AcDbLine
 10
520.3634276467191
 20
214.509712989766
 30
0.0
 11
530.3433283200834
 21
214.4750846292748
 31
0.0
  0
LINE
  5
148
330
1E
100
AcDbEntity
  8
0
100
AcDbLine
 10
530.3433283200834
 20
214.4750846292748
 30
0.0
 11
531.3482497535574
 21
215.5139354440124
 31
0.0
  0
TEXT
  5
258
330
1E
100
AcDbEntity
  8
0
100
AcDbText
 10
409.8704378507317
 20
139.5485599158318
 30
0.0
 40
10.0
  1
KR12-30H
 41
0.8
  7
BIGFONT
100
AcDbText
  0
ENDSEC
  0
SECTION
  2
OBJECTS
  0
DICTIONARY
  5
C
330
0
100
AcDbDictionary
281
     1
  3
ACAD_GROUP
350
D
  3
ACAD_LAYOUT
350
19
  3
ACAD_MLINESTYLE
350
16
  3
ACAD_PLOTSETTINGS
350
18
  3
ACAD_PLOTSTYLENAME
350
E
  3
AcDbVariableDictionary
350
253
  3
AcmDictionary
350
206
  3
AMG
350
14B
  3
AMGSNAPSETTINGS
350
244
  3
DWGPROPS
350
209
  3
MAPISURF_MODULE
350
1D8
  0
DICTIONARY
  5
24B
330
1E
100
AcDbDictionary
280
     1
281
     1
  3
ACAD_INDEX
360
24C
  0
DICTIONARY
  5
D
102
{ACAD_REACTORS
330
C
102
}
330
C
100
AcDbDictionary
281
     1
  0
DICTIONARY
  5
19
102
{ACAD_REACTORS
330
C
102
}
330
C
100
AcDbDictionary
281
     1
  3
Model
350
21
  3
ﾚｲｱｳﾄ1
350
1D
  0
DICTIONARY
  5
16
102
{ACAD_REACTORS
330
C
102
}
330
C
100
AcDbDictionary
281
     1
  3
Standard
350
17
  0
DICTIONARY
  5
18
102
{ACAD_REACTORS
330
C
102
}
330
C
100
AcDbDictionary
281
     1
  0
ACDBDICTIONARYWDFLT
  5
E
102
{ACAD_REACTORS
330
C
102
}
330
C
100
AcDbDictionary
281
     1
  3
Normal
350
F
100
AcDbDictionaryWithDefault
340
F
  0
DICTIONARY
  5
253
102
{ACAD_REACTORS
330
C
102
}
330
C
100
AcDbDictionary
281
     1
  3
DIMASSOC
350
255
  3
INDEXCTL
350
254
  0
DICTIONARY
  5
206
102
{ACAD_REACTORS
330
C
102
}
330
C
100
AcDbDictionary
281
     1
  3
AcmBOMDATA
350
207
  3
AcmStdDictionary
350
215
  0
DICTIONARY
  5
14B
102
{ACAD_REACTORS
330
C
102
}
330
C
100
AcDbDictionary
281
     1
  3
AcMgSettings
350
14C
  3
AMGLAYCFG
350
217
  0
DICTIONARY
  5
244
102
{ACAD_REACTORS
330
C
102
}
330
C
100
AcDbDictionary
281
     1
  3
DIMENSION
350
249
  3
FEA
350
248
  3
HATCH (1)
350
245
  3
HATCH (2)
350
246
  3
SIMPLE WELD
350
24A
  3
SYMBOLS
350
247
  0
XRECORD
  5
209
102
{ACAD_REACTORS
330
C
102
}
330
C
100
AcDbXrecord
280
     1
  1
DWGPROPS COOKIE
  2

  3

  4

  6

  7

  8

  9

300
AmdtFileType=84
301
=
302
=
303
=
304
=
305
=
306
=
307
=
308
=
309
=
 40
0.000001087962963
 41
2450683.501203704
 42
2450683.501203704
  1

 90
        1
  0
DICTIONARY
  5
24C
102
{ACAD_REACTORS
330
24B
102
}
330
24B
100
AcDbDictionary
281
     1
  3
*A1
350
24D
  0
LAYOUT
  5
21
102
{ACAD_REACTORS
330
19
102
}
330
19
100
AcDbPlotSettings
  1

  2
EPSON PM-3700C
  4

  6

 40
0.0
 41
0.0
 42
0.0
 43
0.0
 44
0.0
 45
0.0
 46
0.0
 47
0.0
 48
0.0
 49
0.0
140
0.0
141
0.0
142
1.0
143
1.0
 70
  1712
 72
     0
 73
     0
 74
     0
  7

 75
     0
147
1.0
148
0.0
149
0.0
100
AcDbLayout
  1
Model
 70
     1
 71
     0
 10
0.0
 20
0.0
 11
12.0
 21
9.0
 12
0.0
 22
0.0
 32
0.0
 14
0.0
 24
0.0
 34
0.0
 15
0.0
 25
0.0
 35
0.0
146
0.0
 13
0.0
 23
0.0
 33
0.0
 16
1.0
 26
0.0
 36
0.0
 17
0.0
 27
1.0
 37
0.0
 76
     0
330
1E
  0
LAYOUT
  5
1D
102
{ACAD_REACTORS
330
19
102
}
330
19
100
AcDbPlotSettings
  1

  2
EPSON PM-3700C
  4

  6

 40
0.0
 41
0.0
 42
0.0
 43
0.0
 44
0.0
 45
0.0
 46
0.0
 47
0.0
 48
0.0
 49
0.0
140
0.0
141
0.0
142
1.0
143
1.0
 70
   688
 72
     0
 73
     0
 74
     5
  7

 75
    16
147
1.0
148
0.0
149
0.0
100
AcDbLayout
  1
ﾚｲｱｳﾄ1
 70
     0
 71
     1
 10
0.0
 20
0.0
 11
12.0
 21
9.0
 12
0.0
 22
0.0
 32
0.0
 14
1.000000000000000E+20
 24
1.000000000000000E+20
 34
1.000000000000000E+20
 15
-1.000000000000000E+20
 25
-1.000000000000000E+20
 35
-1.000000000000000E+20
146
0.0
 13
0.0
 23
0.0
 33
0.0
 16
1.0
 26
0.0
 36
0.0
 17
0.0
 27
1.0
 37
0.0
 76
     0
330
1A
  0
MLINESTYLE
  5
17
102
{ACAD_REACTORS
330
16
102
}
330
16
100
AcDbMlineStyle
  2
STANDARD
 70
     0
  3

 62
   256
 51
90.0
 52
90.0
 71
     2
 49
0.5
 62
   256
  6
BYLAYER
 49
-0.5
 62
   256
  6
BYLAYER
  0
ACDBPLACEHOLDER
  5
F
102
{ACAD_REACTORS
330
E
102
}
330
E
  0
DICTIONARYVAR
  5
255
102
{ACAD_REACTORS
330
253
102
}
330
253
100
DictionaryVariables
280
     0
  1
0
  0
DICTIONARYVAR
  5
254
102
{ACAD_REACTORS
330
253
102
}
330
253
100
DictionaryVariables
280
     0
  1
1
  0
ACMDATADICTIONARY
  5
207
102
{ACAD_REACTORS
330
206
102
}
330
206
100
AcDbDictionary
281
     1
  3
*A1
350
208
100
AcmDataDictionary
  0
DICTIONARY
  5
215
102
{ACAD_REACTORS
330
206
102
}
330
206
100
AcDbDictionary
281
     1
  3
ANSI
350
216
  0
DICTIONARY
  5
14C
102
{ACAD_REACTORS
330
14B
102
}
330
14B
100
AcDbDictionary
281
     1
  3
DWGSETTINGS
350
14D
  3
TRANSSETTINGS
350
151
  0
ACAMGFILTERDAT
  5
249
102
{ACAD_REACTORS
330
244
102
}
330
244
100
AcAmgFilterDat
 70
    15
  1
DIMENSION,AMDT_*_DIM
  2
*
  3
*
  4
*
  5
*
290
     1
  0
ACAMGFILTERDAT
  5
248
102
{ACAD_REACTORS
330
244
102
}
330
244
100
AcAmgFilterDat
 70
    15
  1
*
  2
AM_FEA-AM_*
  3
*
  4
*
  5
*
290
     1
  0
ACAMGFILTERDAT
  5
245
102
{ACAD_REACTORS
330
244
102
}
330
244
100
AcAmgFilterDat
 70
    15
  1
HATCH
  2
*
  3
*
  4
*
  5
*
290
     1
  0
ACAMGFILTERDAT
  5
246
102
{ACAD_REACTORS
330
244
102
}
330
244
100
AcAmgFilterDat
 70
    15
  1
LINE
  2
8,8N,*-8,*-8N,AM_8,AM_8N,*-AM_8,*-AM_8N
  3
*
  4
*
  5
INSERT,STDPART2D
290
     1
  0
ACAMGFILTERDAT
  5
24A
102
{ACAD_REACTORS
330
244
102
}
330
244
100
AcAmgFilterDat
 70
    15
  1
ARC
  2
AM_5
  3
*
  4
2
  5
INSERT
290
     0
  0
ACAMGFILTERDAT
  5
247
102
{ACAD_REACTORS
330
244
102
}
330
244
100
AcAmgFilterDat
 70
    15
  1
ACMFCFRAME,ACMDATUMTARGET,ACMDATUMID,ACMWELDSYM,ACMSURFSYM,ACMFEATID,ACMPARTREF,ACMBALLOON,AMDTEDGESYM,AMGSCREWCALCTABLE
  2
*
  3
*
  4
*
  5
*
290
     1
  0
LAYER_INDEX
  5
24D
102
{ACAD_REACTORS
330
24C
102
}
330
24C
100
AcDbIndex
 40
2454383.762708333
100
AcDbLayerIndex
  8
0
360
24E
 90
      214
  8
1
360
24F
 90
        7
  8
10
360
250
 90
        0
  8
11
360
251
 90
        0
  8
2
360
252
 90
        8
  0
ACMDATAENTRYBLOCK
  5
208
102
{ACAD_REACTORS
330
207
102
}
330
207
100
AcmDataEntry
100
AcmDataEntryBlock
  0
IDBUFFER
  5
24E
330
0
100
AcDbIdBuffer
330
B5
330
B6
330
B7
330
B8
330
B9
330
BA
330
C3
330
C4
330
C5
330
C6
330
C7
330
C8
330
C9
330
CA
330
CB
330
CC
330
CD
330
CE
330
CF
330
D0
330
D1
330
D2
330
D4
330
D5
330
D6
330
D7
330
D8
330
D9
330
DA
330
DB
330
DC
330
DD
330
DE
330
DF
330
E0
330
E1
330
E2
330
E3
330
E5
330
E6
330
E7
330
E8
330
E9
330
EA
330
EB
330
EC
330
ED
330
EE
330
EF
330
F0
330
F1
330
F2
330
F3
330
F4
330
F5
330
F6
330
F7
330
F8
330
F9
330
FA
330
FB
330
FC
330
FD
330
FE
330
FF
330
100
330
101
330
102
330
103
330
104
330
105
330
106
330
107
330
108
330
109
330
10A
330
10B
330
10C
330
10D
330
10E
330
10F
330
121
330
133
330
135
330
137
330
138
330
139
330
13A
330
13B
330
13C
330
13D
330
13E
330
13F
330
140
330
141
330
142
330
144
330
145
330
146
330
147
330
148
330
258
330
42
330
43
330
44
330
45
330
46
330
47
330
48
330
49
330
4A
330
4B
330
4C
330
4D
330
4E
330
4F
330
50
330
51
330
52
330
53
330
54
330
55
330
56
330
57
330
58
330
59
330
5A
330
5B
330
5C
330
5D
330
5E
330
5F
330
60
330
61
330
62
330
63
330
64
330
65
330
66
330
67
330
68
330
69
330
6D
330
6E
330
6F
330
70
330
71
330
72
330
73
330
74
330
75
330
76
330
77
330
78
330
79
330
7A
330
7B
330
7C
330
7D
330
7E
330
7F
330
80
330
81
330
82
330
83
330
84
330
85
330
86
330
87
330
88
330
89
330
8A
330
8B
330
8C
330
8D
330
8E
330
8F
330
90
330
91
330
92
330
93
330
94
330
95
330
96
330
97
330
98
330
99
330
9A
330
9B
330
9C
330
9D
330
9E
330
9F
330
A0
330
A1
330
A2
330
A3
330
A4
330
A5
330
A6
330
A7
330
A8
330
A9
330
AA
330
AB
330
AC
330
AD
330
AE
330
AF
330
B0
330
B1
330
B2
330
B3
330
B4
  0
IDBUFFER
  5
24F
330
0
100
AcDbIdBuffer
330
6A
330
C1
330
C2
330
D3
330
E4
330
136
330
143
  0
IDBUFFER
  5
250
330
0
100
AcDbIdBuffer
  0
IDBUFFER
  5
251
330
0
100
AcDbIdBuffer
  0
IDBUFFER
  5
252
330
0
100
AcDbIdBuffer
330
6B
330
6C
330
BB
330
BC
330
BD
330
BE
330
BF
330
C0
  0
ENDSEC
  0
EOF
