  0
SECTION
  2
HEADER
  9
$ACADVER
  1
AC1015
  9
$ACADMAINTVER
 70
    13
  9
$DWGCODEPAGE
  3
ANSI_932
  9
$INSBASE
 10
0.0
 20
0.0
 30
0.0
  9
$EXTMIN
 10
43.0
 20
26.967061
 30
0.0
  9
$EXTMAX
 10
150.999761
 20
104.467061
 30
0.0
  9
$LIMMIN
 10
0.0
 20
0.0
  9
$LIMMAX
 10
200.0
 20
140.0
  9
$ORTHOMODE
 70
     1
  9
$REGENMODE
 70
     1
  9
$FILLMODE
 70
     1
  9
$QTEXTMODE
 70
     0
  9
$MIRRTEXT
 70
     1
  9
$LTSCALE
 40
20.0
  9
$ATTMODE
 70
     1
  9
$TEXTSIZE
 40
10.0
  9
$TRACEWID
 40
0.05
  9
$TEXTSTYLE
  7
BIGFONT
  9
$CLAYER
  8
0
  9
$CELTYPE
  6
BYLAYER
  9
$CECOLOR
 62
   256
  9
$CELTSCALE
 40
1.0
  9
$DISPSILH
 70
     0
  9
$DIMSCALE
 40
2.0
  9
$DIMASZ
 40
3.0
  9
$DIMEXO
 40
2.0
  9
$DIMDLI
 40
0.38
  9
$DIMRND
 40
0.0
  9
$DIMDLE
 40
0.0
  9
$DIMEXE
 40
2.0
  9
$DIMTP
 40
0.0
  9
$DIMTM
 40
0.0
  9
$DIMTXT
 40
3.2
  9
$DIMCEN
 40
0.09
  9
$DIMTSZ
 40
0.0
  9
$DIMTOL
 70
     0
  9
$DIMLIM
 70
     0
  9
$DIMTIH
 70
     0
  9
$DIMTOH
 70
     0
  9
$DIMSE1
 70
     0
  9
$DIMSE2
 70
     0
  9
$DIMTAD
 70
     1
  9
$DIMZIN
 70
     0
  9
$DIMBLK
  1

  9
$DIMASO
 70
     0
  9
$DIMSHO
 70
     0
  9
$DIMPOST
  1

  9
$DIMAPOST
  1

  9
$DIMALT
 70
     0
  9
$DIMALTD
 70
     2
  9
$DIMALTF
 40
25.4
  9
$DIMLFAC
 40
1.0
  9
$DIMTOFL
 70
     0
  9
$DIMTVP
 40
1.6
  9
$DIMTIX
 70
     1
  9
$DIMSOXD
 70
     0
  9
$DIMSAH
 70
     0
  9
$DIMBLK1
  1

  9
$DIMBLK2
  1

  9
$DIMSTYLE
  2
STANDARD
  9
$DIMCLRD
 70
     0
  9
$DIMCLRE
 70
     0
  9
$DIMCLRT
 70
     0
  9
$DIMTFAC
 40
1.0
  9
$DIMGAP
 40
0.09
  9
$DIMJUST
 70
     0
  9
$DIMSD1
 70
     0
  9
$DIMSD2
 70
     0
  9
$DIMTOLJ
 70
     1
  9
$DIMTZIN
 70
     0
  9
$DIMALTZ
 70
     0
  9
$DIMALTTZ
 70
     0
  9
$DIMUPT
 70
     0
  9
$DIMDEC
 70
     4
  9
$DIMTDEC
 70
     4
  9
$DIMALTU
 70
     2
  9
$DIMALTTD
 70
     2
  9
$DIMTXSTY
  7
BIGFONT
  9
$DIMAUNIT
 70
     0
  9
$DIMADEC
 70
     0
  9
$DIMALTRND
 40
0.0
  9
$DIMAZIN
 70
     0
  9
$DIMDSEP
 70
    46
  9
$DIMATFIT
 70
     3
  9
$DIMFRAC
 70
     0
  9
$DIMLDRBLK
  1

  9
$DIMLUNIT
 70
     2
  9
$DIMLWD
 70
    -2
  9
$DIMLWE
 70
    -2
  9
$DIMTMOVE
 70
     0
  9
$LUNITS
 70
     2
  9
$LUPREC
 70
     4
  9
$SKETCHINC
 40
0.1
  9
$FILLETRAD
 40
0.0
  9
$AUNITS
 70
     0
  9
$AUPREC
 70
     0
  9
$MENU
  1
ACAD
  9
$ELEVATION
 40
0.0
  9
$PELEVATION
 40
0.0
  9
$THICKNESS
 40
0.0
  9
$LIMCHECK
 70
     0
  9
$CHAMFERA
 40
0.0
  9
$CHAMFERB
 40
0.0
  9
$CHAMFERC
 40
0.0
  9
$CHAMFERD
 40
0.0
  9
$SKPOLY
 70
     0
  9
$TDCREATE
 40
2450867.009374537
  9
$TDUCREATE
 40
2450866.634374537
  9
$TDUPDATE
 40
2457708.612492222
  9
$TDUUPDATE
 40
2457708.237492222
  9
$TDINDWG
 40
0.0013584954
  9
$TDUSRTIMER
 40
0.0013584954
  9
$USRTIMER
 70
     1
  9
$ANGBASE
 50
0.0
  9
$ANGDIR
 70
     0
  9
$PDMODE
 70
     0
  9
$PDSIZE
 40
0.0
  9
$PLINEWID
 40
0.0
  9
$SPLFRAME
 70
     0
  9
$SPLINETYPE
 70
     6
  9
$SPLINESEGS
 70
     8
  9
$HANDSEED
  5
2A9
  9
$SURFTAB1
 70
     6
  9
$SURFTAB2
 70
     6
  9
$SURFTYPE
 70
     6
  9
$SURFU
 70
     6
  9
$SURFV
 70
     6
  9
$UCSBASE
  2

  9
$UCSNAME
  2

  9
$UCSORG
 10
0.0
 20
0.0
 30
0.0
  9
$UCSXDIR
 10
1.0
 20
0.0
 30
0.0
  9
$UCSYDIR
 10
0.0
 20
1.0
 30
0.0
  9
$UCSORTHOREF
  2

  9
$UCSORTHOVIEW
 70
     0
  9
$UCSORGTOP
 10
0.0
 20
0.0
 30
0.0
  9
$UCSORGBOTTOM
 10
0.0
 20
0.0
 30
0.0
  9
$UCSORGLEFT
 10
0.0
 20
0.0
 30
0.0
  9
$UCSORGRIGHT
 10
0.0
 20
0.0
 30
0.0
  9
$UCSORGFRONT
 10
0.0
 20
0.0
 30
0.0
  9
$UCSORGBACK
 10
0.0
 20
0.0
 30
0.0
  9
$PUCSBASE
  2

  9
$PUCSNAME
  2

  9
$PUCSORG
 10
0.0
 20
0.0
 30
0.0
  9
$PUCSXDIR
 10
1.0
 20
0.0
 30
0.0
  9
$PUCSYDIR
 10
0.0
 20
1.0
 30
0.0
  9
$PUCSORTHOREF
  2

  9
$PUCSORTHOVIEW
 70
     0
  9
$PUCSORGTOP
 10
0.0
 20
0.0
 30
0.0
  9
$PUCSORGBOTTOM
 10
0.0
 20
0.0
 30
0.0
  9
$PUCSORGLEFT
 10
0.0
 20
0.0
 30
0.0
  9
$PUCSORGRIGHT
 10
0.0
 20
0.0
 30
0.0
  9
$PUCSORGFRONT
 10
0.0
 20
0.0
 30
0.0
  9
$PUCSORGBACK
 10
0.0
 20
0.0
 30
0.0
  9
$USERI1
 70
     0
  9
$USERI2
 70
     0
  9
$USERI3
 70
     0
  9
$USERI4
 70
     0
  9
$USERI5
 70
     0
  9
$USERR1
 40
0.0
  9
$USERR2
 40
0.0
  9
$USERR3
 40
0.0
  9
$USERR4
 40
0.0
  9
$USERR5
 40
0.0
  9
$WORLDVIEW
 70
     1
  9
$SHADEDGE
 70
     3
  9
$SHADEDIF
 70
    70
  9
$TILEMODE
 70
     1
  9
$MAXACTVP
 70
    16
  9
$PINSBASE
 10
0.0
 20
0.0
 30
0.0
  9
$PLIMCHECK
 70
     0
  9
$PEXTMIN
 10
1.000000000000000E+20
 20
1.000000000000000E+20
 30
1.000000000000000E+20
  9
$PEXTMAX
 10
-1.000000000000000E+20
 20
-1.000000000000000E+20
 30
-1.000000000000000E+20
  9
$PLIMMIN
 10
0.0
 20
0.0
  9
$PLIMMAX
 10
12.0
 20
9.0
  9
$UNITMODE
 70
     0
  9
$VISRETAIN
 70
     0
  9
$PLINEGEN
 70
     1
  9
$PSLTSCALE
 70
     0
  9
$TREEDEPTH
 70
  3020
  9
$CMLSTYLE
  2
STANDARD
  9
$CMLJUST
 70
     0
  9
$CMLSCALE
 40
1.0
  9
$PROXYGRAPHICS
 70
     1
  9
$MEASUREMENT
 70
     0
  9
$CELWEIGHT
370
    -1
  9
$ENDCAPS
280
     0
  9
$JOINSTYLE
280
     0
  9
$LWDISPLAY
290
     0
  9
$INSUNITS
 70
     0
  9
$HYPERLINKBASE
  1

  9
$STYLESHEET
  1

  9
$XEDIT
290
     1
  9
$CEPSNTYPE
380
     0
  9
$PSTYLEMODE
290
     1
  9
$FINGERPRINTGUID
  2
{DB0B295A-2ACC-4393-BF5F-752840ECAF47}
  9
$VERSIONGUID
  2
{F8302DF2-A548-4D81-B0C8-097A8EEBF379}
  9
$EXTNAMES
290
     1
  9
$PSVPSCALE
 40
0.0
  9
$OLESTARTUP
290
     0
  0
ENDSEC
  0
SECTION
  2
CLASSES
  0
CLASS
  1
DICTIONARYVAR
  2
AcDbDictionaryVar
  3
AutoCAD 2000
 90
        0
280
     0
281
     0
  0
CLASS
  1
ACDBDICTIONARYWDFLT
  2
AcDbDictionaryWithDefault
  3
AutoCAD 2000
 90
        0
280
     0
281
     0
  0
CLASS
  1
ACDBPLACEHOLDER
  2
AcDbPlaceHolder
  3
AutoCAD 2000
 90
        0
280
     0
281
     0
  0
CLASS
  1
LAYOUT
  2
AcDbLayout
  3
AutoCAD 2000
 90
        0
280
     0
281
     0
  0
CLASS
  1
AMGSETTINGSOBJ
  2
AmgSettingsObj
  3
"AcadM|Product Description: AutoCAD Mechanical 2000|Company: Autodesk"
 90
        0
280
     0
281
     0
  0
CLASS
  1
ACME_DOCUMENT
  2
AcMeDbDoc
  3
AcMeServices
 90
        0
280
     0
281
     0
  0
CLASS
  1
ACMESCOPE
  2
AcMeScope
  3
AcMeServices
 90
        0
280
     0
281
     0
  0
CLASS
  1
ACMECOMMANDHISTORY
  2
AcMeCommandHistory
  3
AcMeServices
 90
        0
280
     0
281
     0
  0
CLASS
  1
ACIMSYSVARMAN
  2
AcImSysVarManager
  3
AcMeServices
 90
        0
280
     0
281
     0
  0
CLASS
  1
ACIMREALSYSVAR
  2
AcImRealSysVar
  3
AcMeServices
 90
        0
280
     0
281
     0
  0
CLASS
  1
ACIMINTSYSVAR
  2
AcImIntSysVar
  3
AcMeServices
 90
        0
280
     0
281
     0
  0
CLASS
  1
ACMEDRAWINGMAN
  2
AcMeDrawingMan
  3
AcMeServices
 90
        0
280
     0
281
     0
  0
CLASS
  1
ACMEVIEW
  2
AcMeView
  3
AcMeServices
 90
        0
280
     0
281
     0
  0
CLASS
  1
ACDBENTITYCACHE
  2
AcMeEntityCache
  3
AcMeServices
 90
        0
280
     0
281
     0
  0
CLASS
  1
GSMANAGER
  2
AcMeGSManager
  3
AcMeServices
 90
        0
280
     0
281
     0
  0
CLASS
  1
AMDTINTERNALREACTOR
  2
AmdtInternalReactor
  3
AcMeServices
 90
        0
280
     0
281
     0
  0
CLASS
  1
ACMESTATEMGR
  2
AcMeStateMgr
  3
AcMeServices
 90
        0
280
     0
281
     0
  0
CLASS
  1
ACGREFMASTER
  2
AcGrefMaster
  3
AcAttribServices
 90
        0
280
     0
281
     0
  0
CLASS
  1
AM_DRAWING_MGR
  2
AcDmDwgMgr
  3
AcMechDwgViewMgmt
 90
        0
280
     0
281
     0
  0
CLASS
  1
AM_DWG_DOCUMENT
  2
AcDmDwgDocument
  3
AcMechDwgViewMgmt
 90
        0
280
     0
281
     0
  0
CLASS
  1
AM_DWG_SHEET
  2
AcDmSheet
  3
AcMechDwgViewMgmt
 90
        0
280
     0
281
     0
  0
CLASS
  1
AM_VIEWDIMPARMAP
  2
AcDmViewDimParMap
  3
AcMechDwgViewMgmt
 90
        0
280
     0
281
     0
  0
CLASS
  1
AM_DWGMGR_NAME
  2
AcDmDwgMgrName
  3
AcMechDwgViewMgmt
 90
        0
280
     0
281
     0
  0
CLASS
  1
ACME_DATABASE
  2
AcMeDbDatabase
  3
AcMeServices
 90
        0
280
     0
281
     0
  0
CLASS
  1
ACRFINSADJUSTERMGR
  2
AcRfInsAdjusterMgr
  3
AcMeServices
 90
        0
280
     0
281
     0
  0
CLASS
  1
ACGREFACADMASTER
  2
AcGrefacadMaster
  3
AcGrefServices
 90
        0
280
     0
281
     0
  0
CLASS
  1
AMDTMENUSTATEMGR
  2
AmdtMenuStateMgr
  3
McadcomServices
 90
        0
280
     0
281
     0
  0
CLASS
  1
AMDTMCOMMENUSTATE
  2
AmdtMcomMenuState
  3
McadcomServices
 90
        0
280
     0
281
     0
  0
CLASS
  1
AMIMASTER
  2
AmiMaster
  3
AmiServices
 90
        0
280
     0
281
     0
  0
CLASS
  1
ASAPP
  2
AcAsAppObject
  3
AutoSurfServices
 90
        0
280
     0
281
     0
  0
CLASS
  1
IM_STATIC_MAN
  2
AcImStaticVarManager
  3
AcMeServices
 90
        0
280
     0
281
     0
  0
CLASS
  1
ACIMSTRSYSVAR
  2
AcImStrSysVar
  3
AcMeServices
 90
        0
280
     0
281
     0
  0
CLASS
  1
ACIMDBLSTATICVAR
  2
AcImDblStaticVar
  3
AcMeServices
 90
        0
280
     0
281
     0
  0
CLASS
  1
ACIMSTRSTATICVAR
  2
AcImStrStaticVar
  3
AcMeServices
 90
        0
280
     0
281
     0
  0
CLASS
  1
ACIMINTSTATICVAR
  2
AcImIntStaticVar
  3
AcMeServices
 90
        0
280
     0
281
     0
  0
CLASS
  1
ACASGREFMASTER
  2
AcAsGrefMaster
  3
AutoSurfResolverServices
 90
        0
280
     0
281
     0
  0
CLASS
  1
ACADGREFMODULE
  2
AcAdGrefModule
  3
AdGrefServices
 90
        0
280
     0
281
     0
  0
CLASS
  1
AMDTMAPISURFMOUDULE
  2
AmdtMApiSurfModule
  3
MApiSurfServices
 90
        0
280
     0
281
     0
  0
CLASS
  1
MAPIAMMOUDLE
  2
MApiAmModule
  3
MApiAmServices
 90
        0
280
     0
281
     0
  0
CLASS
  1
AMDTADMENUSTATE
  2
AmdtAdMenuState
  3
DesignerServices
 90
        0
280
     0
281
     0
  0
CLASS
  1
ADAPPL
  2
AcAdAppl
  3
DesignerServices
 90
        0
280
     0
281
     0
  0
CLASS
  1
DEPMGR
  2
AcAdDepMgr
  3
DesignerServices
 90
        0
280
     0
281
     0
  0
CLASS
  1
PARAMMGR
  2
AcAdParamMgr
  3
DesignerServices
 90
        0
280
     0
281
     0
  0
CLASS
  1
PARAMSCOPE
  2
AcAdParamScope
  3
DesignerServices
 90
        0
280
     0
281
     0
  0
CLASS
  1
NAMEDAPPL
  2
AcAdNamedAppl
  3
DesignerServices
 90
        0
280
     0
281
     0
  0
CLASS
  1
AMDTDMMENUSTATE
  2
AmdtDmMenuState
  3
AcMechDwgViewMgmt
 90
        0
280
     0
281
     0
  0
CLASS
  1
MAPIADMODULE
  2
MApiAdModule
  3
MApiAdServices
 90
        0
280
     0
281
     0
  0
CLASS
  1
AMDTAMMENUSTATE
  2
AmdtAmMenuState
  3
DesignerAssemblies
 90
        0
280
     0
281
     0
  0
CLASS
  1
ACAMPROJECT
  2
AcAmProject
  3
DesignerAssemblies
 90
        0
280
     0
281
     0
  0
CLASS
  1
ACAMGRCOMPDEF
  2
AcAmGrCompDef
  3
DesignerAssemblies
 90
        0
280
     0
281
     0
  0
CLASS
  1
ACCMCONTEXT
  2
AcCmContext
  3
DesignerAssemblies
 90
        0
280
     0
281
     0
  0
CLASS
  1
ACAMCOMPDEF
  2
AcAmCompDef
  3
DesignerAssemblies
 90
        0
280
     0
281
     0
  0
CLASS
  1
ACAMCOMPDEFMGR
  2
AcAmCompDefMgr
  3
DesignerAssemblies
 90
        0
280
     0
281
     0
  0
CLASS
  1
AMCONTEXTMGR
  2
AcAmContextMgr
  3
DesignerAssemblies
 90
        0
280
     0
281
     0
  0
CLASS
  1
ACAMCONTEXTMODELER
  2
AcAmContextModeler
  3
DesignerAssemblies
 90
        0
280
     0
281
     0
  0
CLASS
  1
ACMDATADICTIONARY
  2
AcmDataDictionary
  3
"AcmSymBB|Product Description: AutoCAD Mechanical 2000|Company: Autodesk"
 90
        0
280
     0
281
     0
  0
CLASS
  1
ACMDATAENTRYBLOCK
  2
AcmDataEntryBlock
  3
"AcmSymBB|Product Description: AutoCAD Mechanical 2000|Company: Autodesk"
 90
        0
280
     0
281
     0
  0
CLASS
  1
CATALOGSTATE
  2
AcAmCatalogState
  3
DesignerAssemblies
 90
        0
280
     0
281
     0
  0
CLASS
  1
ACAMGRCOMPDEFSET
  2
AcAmGrCompDefSet
  3
DesignerAssemblies
 90
        0
280
     0
281
     0
  0
CLASS
  1
AMDTBROWSERDBTAB
  2
AmdtBrowserDbTab
  3
McadcomServices
 90
        0
280
     0
281
     0
  0
CLASS
  1
CBROWSERAPPOBJECT
  2
CBrowserAppObject
  3
McadcomServices
 90
        0
280
     0
281
     0
  0
CLASS
  1
DM_PLACEHOLDER
  2
AcDmSelsetPlaceholder
  3
AcMechDwgViewMgmt
 90
        0
280
     0
281
     0
  0
CLASS
  1
AMGOBJPROPCFG
  2
AmgObjPropCfg
  3
"AmgLay|Product Description: AutoCAD Mechanical 2000|Company: Autodesk"
 90
        1
280
     0
281
     0
  0
CLASS
  1
LAYER_INDEX
  2
AcDbLayerIndex
  3
AutoCAD 2000
 90
        0
280
     0
281
     0
  0
CLASS
  1
IDBUFFER
  2
AcDbIdBuffer
  3
AutoCAD 2000
 90
        0
280
     0
281
     0
  0
CLASS
  1
ACAMGFILTERDAT
  2
AcAmgFilterDat
  3
"AcadM|Product Description: AutoCAD Mechanical 2000|Company: Autodesk"
 90
        0
280
     0
281
     0
  0
ENDSEC
  0
SECTION
  2
TABLES
  0
TABLE
  2
VPORT
  5
183
330
0
100
AcDbSymbolTable
 70
     4
  0
VPORT
  5
2A8
330
183
100
AcDbSymbolTableRecord
100
AcDbViewportTableRecord
  2
*Active
 70
     0
 10
0.0
 20
0.0
 11
1.0
 21
1.0
 12
0.0
 22
0.0
 13
0.0
 23
0.0
 14
5.0
 24
5.0
 15
10.0
 25
10.0
 16
0.0
 26
0.0
 36
1.0
 17
128.8930084951903
 27
86.52151100000001
 37
0.0
 40
173.043022
 41
1.489721886336154
 42
50.0
 43
0.0
 44
0.0
 50
0.0
 51
0.0
 71
     0
 72
   500
 73
     1
 74
     1
 75
     0
 76
     0
 77
     0
 78
     0
281
     0
 65
     0
110
0.0
120
0.0
130
0.0
111
1.0
121
0.0
131
0.0
112
0.0
122
1.0
132
0.0
 79
     0
146
0.0
  0
ENDTAB
  0
TABLE
  2
LTYPE
  5
180
330
0
100
AcDbSymbolTable
 70
    17
  0
LTYPE
  5
18C
330
180
100
AcDbSymbolTableRecord
100
AcDbLinetypeTableRecord
  2
BYBLOCK
 70
     0
  3

 72
    65
 73
     0
 40
0.0
  0
LTYPE
  5
18D
330
180
100
AcDbSymbolTableRecord
100
AcDbLinetypeTableRecord
  2
BYLAYER
 70
     0
  3

 72
    65
 73
     0
 40
0.0
  0
LTYPE
  5
18E
330
180
100
AcDbSymbolTableRecord
100
AcDbLinetypeTableRecord
  2
CONTINUOUS
 70
     0
  3
実線
 72
    65
 73
     0
 40
0.0
  0
LTYPE
  5
19C
330
180
100
AcDbSymbolTableRecord
100
AcDbLinetypeTableRecord
  2
CENTER
 70
     0
  3
____ _ ____ _ ____ _ ____ _ ____ _ ____ _ ____
 72
    65
 73
     4
 40
2.0
 49
1.25
 74
     0
 49
-0.25
 74
     0
 49
0.25
 74
     0
 49
-0.25
 74
     0
  0
LTYPE
  5
19D
330
180
100
AcDbSymbolTableRecord
100
AcDbLinetypeTableRecord
  2
HIDDEN
 70
     0
  3
_ _ _ _ _ _ _ _ _ _ _ _ _ _ _ _ _ _ _ _ _ _ _
 72
    65
 73
     2
 40
0.375
 49
0.25
 74
     0
 49
-0.125
 74
     0
  0
LTYPE
  5
19E
330
180
100
AcDbSymbolTableRecord
100
AcDbLinetypeTableRecord
  2
TENSEN1
 70
     0
  3

 72
    65
 73
     2
 40
0.4
 49
0.3
 74
     0
 49
-0.1
 74
     0
  0
LTYPE
  5
1E3
330
180
100
AcDbSymbolTableRecord
100
AcDbLinetypeTableRecord
  2
PHANTOM2
 70
     0
  3
Phantom (.5x) ___ _ _ ___ _ _ ___ _ _ ___ _ _
 72
    65
 73
     6
 40
1.25
 49
0.625
 74
     0
 49
-0.125
 74
     0
 49
0.125
 74
     0
 49
-0.125
 74
     0
 49
0.125
 74
     0
 49
-0.125
 74
     0
  0
LTYPE
  5
245
330
180
100
AcDbSymbolTableRecord
100
AcDbLinetypeTableRecord
  2
ASULTYPE
 70
     0
  3
実線
 72
    65
 73
     2
 40
3.0
 49
2.5
 74
     0
 49
0.5
 74
     0
  0
LTYPE
  5
246
330
180
100
AcDbSymbolTableRecord
100
AcDbLinetypeTableRecord
  2
ASVLTYPE
 70
     0
  3
__ __ __ __ __ __ __ __ __ __ __ __ __ __ __ __ __ __ __ __ __
 72
    65
 73
     2
 40
0.75
 49
0.5
 74
     0
 49
-0.25
 74
     0
  0
LTYPE
  5
287
330
180
100
AcDbSymbolTableRecord
100
AcDbLinetypeTableRecord
  2
AM_ISO02W050
 70
     0
  3
__ __ __ __ __ __ __ __ __ __ __ __ __ __ __
 72
    65
 73
     2
 40
7.5
 49
6.0
 74
     0
 49
-1.5
 74
     0
  0
LTYPE
  5
288
330
180
100
AcDbSymbolTableRecord
100
AcDbLinetypeTableRecord
  2
AM_ISO08W050
 70
     0
  3
____ . ____ . ____ . ____ . ____ . ____ . ____
 72
    65
 73
     4
 40
18.0
 49
12.0
 74
     0
 49
-1.5
 74
     0
 49
3.0
 74
     0
 49
-1.5
 74
     0
  0
LTYPE
  5
289
330
180
100
AcDbSymbolTableRecord
100
AcDbLinetypeTableRecord
  2
AM_ISO09W050
 70
     0
  3
_____ . . _____ . . _____ . . ____ .. ____
 72
    65
 73
     6
 40
22.5
 49
12.0
 74
     0
 49
-1.5
 74
     0
 49
3.0
 74
     0
 49
-1.5
 74
     0
 49
3.0
 74
     0
 49
-1.5
 74
     0
  0
LTYPE
  5
28A
330
180
100
AcDbSymbolTableRecord
100
AcDbLinetypeTableRecord
  2
Amconstr
 70
     0
  3
_______________________
 72
    65
 73
     2
 40
9999.0
 49
9999.0
 74
     0
 49
0.0
 74
     0
  0
LTYPE
  5
28B
330
180
100
AcDbSymbolTableRecord
100
AcDbLinetypeTableRecord
  2
AM_ISO08W050x2
 70
     0
  3
__ . __ . __ . __ . __ . __
 72
    65
 73
     4
 40
9.0
 49
6.0
 74
     0
 49
-0.75
 74
     0
 49
1.5
 74
     0
 49
-0.75
 74
     0
  0
LTYPE
  5
28C
330
180
100
AcDbSymbolTableRecord
100
AcDbLinetypeTableRecord
  2
AM_ISO02W050x2
 70
     0
  3
 _ _ _ _ _ _ _ _ _ _ _ _
 72
    65
 73
     2
 40
3.75
 49
3.0
 74
     0
 49
-0.75
 74
     0
  0
LTYPE
  5
28F
330
180
100
AcDbSymbolTableRecord
100
AcDbLinetypeTableRecord
  2
Amzigzag
 70
     0
  3
/\/-/\/-/\/-/\/-/\/-/\/
 72
    65
 73
     2
 40
11.00009999999999
 49
0.0001
 74
     4
 75
   135
340
28E
 46
0.04
 50
0.0
 44
0.0
 45
0.0
 49
-11.0
 74
     0
  0
LTYPE
  5
290
330
180
100
AcDbSymbolTableRecord
100
AcDbLinetypeTableRecord
  2
CENTER2
 70
     0
  3
Center (.5x) ___ _ ___ _ ___ _ ___ _ ___ _ ___
 72
    65
 73
     4
 40
1.125
 49
0.75
 74
     0
 49
-0.125
 74
     0
 49
0.125
 74
     0
 49
-0.125
 74
     0
  0
LTYPE
  5
291
330
180
100
AcDbSymbolTableRecord
100
AcDbLinetypeTableRecord
  2
HIDDEN2
 70
     0
  3
Hidden (.5x) _ _ _ _ _ _ _ _ _ _ _ _ _ _ _ _ _
 72
    65
 73
     2
 40
0.1875
 49
0.125
 74
     0
 49
-0.0625
 74
     0
  0
LTYPE
  5
292
330
180
100
AcDbSymbolTableRecord
100
AcDbLinetypeTableRecord
  2
Amzigzag2
 70
     0
  3
/\/-/\/-/\/-/\/-/\/-/\/
 72
    65
 73
     2
 40
0.4401
 49
0.0001
 74
     4
 75
   135
340
28E
 46
0.0016
 50
0.0
 44
0.0
 45
0.0
 49
-0.4400000000000001
 74
     0
  0
ENDTAB
  0
TABLE
  2
LAYER
  5
17D
330
0
100
AcDbSymbolTable
 70
     7
  0
LAYER
  5
189
330
17D
100
AcDbSymbolTableRecord
100
AcDbLayerTableRecord
  2
0
 70
     0
 62
     7
  6
CONTINUOUS
370
    -3
390
1B9
  0
LAYER
  5
1A3
330
17D
100
AcDbSymbolTableRecord
100
AcDbLayerTableRecord
  2
1
 70
     0
 62
     1
  6
CENTER
370
    -3
390
1B9
  0
LAYER
  5
1A4
330
17D
100
AcDbSymbolTableRecord
100
AcDbLayerTableRecord
  2
3
 70
     0
 62
     3
  6
CONTINUOUS
370
    -3
390
1B9
  0
LAYER
  5
1A5
330
17D
100
AcDbSymbolTableRecord
100
AcDbLayerTableRecord
  2
4
 70
     0
 62
     4
  6
CONTINUOUS
370
    -3
390
1B9
  0
LAYER
  5
1A6
330
17D
100
AcDbSymbolTableRecord
100
AcDbLayerTableRecord
  2
10
 70
     0
 62
     7
  6
CONTINUOUS
370
    -3
390
1B9
  0
LAYER
  5
1A7
330
17D
100
AcDbSymbolTableRecord
100
AcDbLayerTableRecord
  2
11
 70
     0
 62
     3
  6
CONTINUOUS
370
    -3
390
1B9
  0
LAYER
  5
1A8
330
17D
100
AcDbSymbolTableRecord
100
AcDbLayerTableRecord
  2
2
 70
     0
 62
     2
  6
TENSEN1
370
    -3
390
1B9
  0
ENDTAB
  0
TABLE
  2
STYLE
  5
17E
330
0
100
AcDbSymbolTable
 70
     5
  0
STYLE
  5
18A
330
17E
100
AcDbSymbolTableRecord
100
AcDbTextStyleTableRecord
  2
STANDARD
 70
     0
 40
0.0
 41
1.0
 50
0.0
 71
     0
 42
0.2
  3
TXT
  4
BIGFONT
  0
STYLE
  5
199
330
17E
100
AcDbSymbolTableRecord
100
AcDbTextStyleTableRecord
  2
K80
 70
     0
 40
0.0
 41
0.8
 50
0.0
 71
     0
 42
0.2
  3
TXT
  4
BIGFONT
  0
STYLE
  5
19A
330
17E
100
AcDbSymbolTableRecord
100
AcDbTextStyleTableRecord
  2
07500
 70
     0
 40
0.0
 41
0.75
 50
0.0
 71
     0
 42
6.0
  3
TXT
  4
BIGFONT
  0
STYLE
  5
19B
330
17E
100
AcDbSymbolTableRecord
100
AcDbTextStyleTableRecord
  2
BIGFONT
 70
     0
 40
10.0
 41
0.8
 50
0.0
 71
     0
 42
10.0
  3

  4
bigfont
  0
STYLE
  5
28E
330
17E
100
AcDbSymbolTableRecord
100
AcDbTextStyleTableRecord
  2

 70
     1
 40
0.0
 41
1.0
 50
0.0
 71
     0
 42
10.0
  3
ltypeshp.shx
  4

  0
ENDTAB
  0
TABLE
  2
VIEW
  5
181
330
0
100
AcDbSymbolTable
 70
     1
  0
VIEW
  5
19F
330
181
100
AcDbSymbolTableRecord
100
AcDbViewTableRecord
  2
ALL
 70
     0
 40
540.0
 10
441.9831929999999
 20
270.0
 41
0.0
 11
0.0
 21
0.0
 31
1.0
 12
0.0
 22
0.0
 32
0.0
 42
50.0
 43
0.0
 44
0.0
 50
0.0
 71
     0
281
     0
 72
     0
  0
ENDTAB
  0
TABLE
  2
UCS
  5
182
330
0
100
AcDbSymbolTable
 70
     0
  0
ENDTAB
  0
TABLE
  2
APPID
  5
184
330
0
100
AcDbSymbolTable
 70
    12
  0
APPID
  5
18B
330
184
100
AcDbSymbolTableRecord
100
AcDbRegAppTableRecord
  2
ACAD
 70
     0
  0
APPID
  5
1C2
330
184
100
AcDbSymbolTableRecord
100
AcDbRegAppTableRecord
  2
GENIUS_GENDIM_13
 70
     0
  0
APPID
  5
1C3
330
184
100
AcDbSymbolTableRecord
100
AcDbRegAppTableRecord
  2
GENIUS_GENDTOL_13
 70
     0
  0
APPID
  5
1C4
330
184
100
AcDbSymbolTableRecord
100
AcDbRegAppTableRecord
  2
GENIUS_GE3DTOL_13
 70
     0
  0
APPID
  5
1C6
330
184
100
AcDbSymbolTableRecord
100
AcDbRegAppTableRecord
  2
MCAD_NO_VIS
 70
     0
  0
APPID
  5
1C7
330
184
100
AcDbSymbolTableRecord
100
AcDbRegAppTableRecord
  2
ACAD_TEMP_GRAPHIC
 70
     0
  0
APPID
  5
1F8
330
184
100
AcDbSymbolTableRecord
100
AcDbRegAppTableRecord
  2
AD_DRAW
 70
     0
  0
APPID
  5
1FB
330
184
100
AcDbSymbolTableRecord
100
AcDbRegAppTableRecord
  2
ACATTRIBSERVICES
 70
     0
  0
APPID
  5
247
330
184
100
AcDbSymbolTableRecord
100
AcDbRegAppTableRecord
  2
ASURF_PCURVE_APPNAME
 70
     0
  0
APPID
  5
276
330
184
100
AcDbSymbolTableRecord
100
AcDbRegAppTableRecord
  2
DESIGNERASSEMBLIES
 70
     0
  0
APPID
  5
27E
330
184
100
AcDbSymbolTableRecord
100
AcDbRegAppTableRecord
  2
ACADM_DIM_EDIT
 70
     0
  0
APPID
  5
27F
330
184
100
AcDbSymbolTableRecord
100
AcDbRegAppTableRecord
  2
AMDT_DM_ADJ
 70
     0
  0
ENDTAB
  0
TABLE
  2
DIMSTYLE
  5
185
330
0
100
AcDbSymbolTable
 70
     1
100
AcDbDimStyleTable
 71
     0
  0
DIMSTYLE
105
1A2
330
185
100
AcDbSymbolTableRecord
100
AcDbDimStyleTableRecord
  2
STANDARD
 70
     0
340
19B
  0
ENDTAB
  0
TABLE
  2
BLOCK_RECORD
  5
17C
330
0
100
AcDbSymbolTable
 70
     3
  0
BLOCK_RECORD
  5
192
102
{ACAD_XDICTIONARY
360
294
102
}
330
17C
100
AcDbSymbolTableRecord
100
AcDbBlockTableRecord
  2
*MODEL_SPACE
340
1BC
  0
BLOCK_RECORD
  5
18F
330
17C
100
AcDbSymbolTableRecord
100
AcDbBlockTableRecord
  2
*PAPER_SPACE
340
1BD
  0
BLOCK_RECORD
  5
197
330
17C
100
AcDbSymbolTableRecord
100
AcDbBlockTableRecord
  2
WAKU
340
0
  0
BLOCK_RECORD
  5
198
330
17C
100
AcDbSymbolTableRecord
100
AcDbBlockTableRecord
  2
QQ
340
0
  0
BLOCK_RECORD
  5
26D
330
17C
100
AcDbSymbolTableRecord
100
AcDbBlockTableRecord
  2
*U2
340
0
  0
ENDTAB
  0
ENDSEC
  0
SECTION
  2
BLOCKS
  0
BLOCK
  5
1AB
330
192
100
AcDbEntity
  8
0
100
AcDbBlockBegin
  2
*MODEL_SPACE
 70
     0
 10
0.0
 20
0.0
 30
0.0
  3
*MODEL_SPACE
  1

  0
ENDBLK
  5
1AC
330
192
100
AcDbEntity
  8
0
100
AcDbBlockEnd
  0
BLOCK
  5
1A9
330
18F
100
AcDbEntity
 67
     1
  8
0
100
AcDbBlockBegin
  2
*PAPER_SPACE
 70
     0
 10
0.0
 20
0.0
 30
0.0
  3
*PAPER_SPACE
  1

  0
ENDBLK
  5
1AA
330
18F
100
AcDbEntity
 67
     1
  8
0
100
AcDbBlockEnd
  0
BLOCK
  5
31
330
197
100
AcDbEntity
  8
0
100
AcDbBlockBegin
  2
WAKU
 70
     0
 10
549.0
 20
0.0
 30
0.0
  3
WAKU
  1

  0
LINE
  5
32
330
197
100
AcDbEntity
  8
11
100
AcDbLine
 10
452.0
 20
12.0
 30
0.0
 11
549.0
 21
12.0
 31
0.0
  0
LINE
  5
33
330
197
100
AcDbEntity
  8
11
100
AcDbLine
 10
477.0
 20
0.0
 30
0.0
 11
477.0
 21
12.0
 31
0.0
  0
LINE
  5
34
330
197
100
AcDbEntity
  8
11
100
AcDbLine
 10
452.0
 20
12.0
 30
0.0
 11
452.0
 21
0.0
 31
0.0
  0
TEXT
  5
35
330
197
100
AcDbEntity
  8
11
100
AcDbText
 10
454.0
 20
8.5
 30
0.0
 40
2.5
  1
尺度
100
AcDbText
  0
TEXT
  5
36
330
197
100
AcDbEntity
  8
11
100
AcDbText
 10
479.0
 20
8.5
 30
0.0
 40
2.5
  1
図番
100
AcDbText
  0
ENDBLK
  5
37
330
197
100
AcDbEntity
  8
0
100
AcDbBlockEnd
  0
BLOCK
  5
38
330
198
100
AcDbEntity
  8
0
100
AcDbBlockBegin
  2
QQ
 70
     0
 10
270.0
 20
0.0
 30
0.0
  3
QQ
  1

  0
LINE
  5
39
330
198
100
AcDbEntity
  8
11
100
AcDbLine
 10
173.0
 20
36.0
 30
0.0
 11
270.0
 21
36.0
 31
0.0
  0
TEXT
  5
3A
330
198
100
AcDbEntity
  8
11
100
AcDbText
 10
175.0
 20
32.5
 30
0.0
 40
2.5
  1
部品名称
100
AcDbText
  0
LINE
  5
3B
330
198
100
AcDbEntity
  8
11
100
AcDbLine
 10
173.0
 20
36.0
 30
0.0
 11
173.0
 21
0.0
 31
0.0
  0
LINE
  5
3C
330
198
100
AcDbEntity
  8
11
100
AcDbLine
 10
173.0
 20
24.0
 30
0.0
 11
270.0
 21
24.0
 31
0.0
  0
TEXT
  5
3D
330
198
100
AcDbEntity
  8
11
100
AcDbText
 10
175.0
 20
20.5
 30
0.0
 40
2.5
  1
品番
100
AcDbText
  0
LINE
  5
3E
330
198
100
AcDbEntity
  8
11
100
AcDbLine
 10
173.0
 20
12.0
 30
0.0
 11
270.0
 21
12.0
 31
0.0
  0
TEXT
  5
3F
330
198
100
AcDbEntity
  8
11
100
AcDbText
 10
175.0
 20
8.5
 30
0.0
 40
2.5
  1
尺度
100
AcDbText
  0
TEXT
  5
40
330
198
100
AcDbEntity
  8
11
100
AcDbText
 10
200.0
 20
8.5
 30
0.0
 40
2.5
  1
図番
100
AcDbText
  0
LINE
  5
41
330
198
100
AcDbEntity
  8
11
100
AcDbLine
 10
198.0
 20
0.0
 30
0.0
 11
198.0
 21
12.0
 31
0.0
  0
ENDBLK
  5
42
330
198
100
AcDbEntity
  8
0
100
AcDbBlockEnd
  0
BLOCK
  5
26E
330
26D
100
AcDbEntity
  8
0
100
AcDbBlockBegin
  2
*U2
 70
     1
 10
0.0
 20
0.0
 30
0.0
  3
*U2
  1

  0
ENDBLK
  5
26F
330
26D
100
AcDbEntity
  8
0
100
AcDbBlockEnd
  0
ENDSEC
  0
SECTION
  2
ENTITIES
  0
LINE
  5
4A
330
192
100
AcDbEntity
  8
0
100
AcDbLine
 10
117.749761
 20
71.467061
 30
0.0
 11
117.749761
 21
76.967061
 31
0.0
  0
LINE
  5
4B
330
192
100
AcDbEntity
  8
0
100
AcDbLine
 10
104.2497609999999
 20
71.467061
 30
0.0
 11
104.2497609999999
 21
76.967061
 31
0.0
  0
LINE
  5
4C
330
192
100
AcDbEntity
  8
0
100
AcDbLine
 10
110.999761
 20
76.967061
 30
0.0
 11
117.999761
 21
76.967061
 31
0.0
  0
LINE
  5
4D
330
192
100
AcDbEntity
  8
0
100
AcDbLine
 10
110.999761
 20
76.967061
 30
0.0
 11
103.9997609999999
 21
76.967061
 31
0.0
  0
LINE
  5
4E
330
192
100
AcDbEntity
  8
0
100
AcDbLine
 10
110.999761
 20
89.717061
 30
0.0
 11
105.499761
 21
89.717061
 31
0.0
  0
LINE
  5
4F
330
192
100
AcDbEntity
  8
0
100
AcDbLine
 10
104.999761
 20
89.21706099999999
 30
0.0
 11
103.9997609999999
 21
76.967061
 31
0.0
  0
ARC
  5
50
330
192
100
AcDbEntity
  8
0
100
AcDbCircle
 10
105.565886
 20
89.150936
 30
0.0
 40
0.569973
100
AcDbArc
 50
96.662089
 51
173.337911
  0
LINE
  5
51
330
192
100
AcDbEntity
  8
0
100
AcDbLine
 10
110.999761
 20
89.717061
 30
0.0
 11
115.999761
 21
89.717061
 31
0.0
  0
LINE
  5
52
330
192
100
AcDbEntity
  8
0
100
AcDbLine
 10
116.499761
 20
76.967061
 30
0.0
 11
116.249761
 21
89.21706099999999
 31
0.0
  0
LINE
  5
53
330
192
100
AcDbEntity
  8
0
100
AcDbLine
 10
116.249761
 20
89.21706099999999
 30
0.0
 11
116.249761
 21
89.467061
 31
0.0
  0
ARC
  5
54
330
192
100
AcDbEntity
  8
0
100
AcDbCircle
 10
115.999986
 20
89.467286
 30
0.0
 40
0.249775
100
AcDbArc
 50
359.948299
 51
90.05170099999999
  0
LINE
  5
55
330
192
100
AcDbEntity
  8
0
100
AcDbLine
 10
117.999761
 20
91.967061
 30
0.0
 11
149.21395
 21
99.28288600000001
 31
0.0
  0
LINE
  5
56
330
192
100
AcDbEntity
  8
0
100
AcDbLine
 10
150.999761
 20
96.46706100000001
 30
0.0
 11
118.999761
 21
85.46706099999999
 31
0.0
  0
LINE
  5
57
330
192
100
AcDbEntity
  8
0
100
AcDbLine
 10
113.9997609999999
 20
89.717061
 30
0.0
 11
117.999761
 21
91.967061
 31
0.0
  0
LINE
  5
58
330
192
100
AcDbEntity
  8
0
100
AcDbLine
 10
149.999761
 20
89.467061
 30
0.0
 11
150.999761
 21
96.46706100000001
 31
0.0
  0
LINE
  5
59
330
192
100
AcDbEntity
  8
0
100
AcDbLine
 10
118.999761
 20
85.46706099999999
 30
0.0
 11
116.999761
 21
76.967061
 31
0.0
  0
LINE
  5
5A
330
192
100
AcDbEntity
  8
0
100
AcDbLine
 10
128.749761
 20
84.467061
 30
0.0
 11
144.999761
 21
91.217061
 31
0.0
  0
ARC
  5
5B
330
192
100
AcDbEntity
  8
0
100
AcDbCircle
 10
125.375431
 20
77.84943299999999
 30
0.0
 40
7.428263
100
AcDbArc
 50
62.982955
 51
186.822037
  0
ARC
  5
5C
330
192
100
AcDbEntity
  8
0
100
AcDbCircle
 10
145.749761
 20
89.59206100000001
 30
0.0
 40
1.789728
100
AcDbArc
 50
12.094757
 51
114.7751409999999
  0
LINE
  5
5D
330
192
100
AcDbEntity
  8
0
100
AcDbLine
 10
147.499761
 20
89.967061
 30
0.0
 11
147.499761
 21
89.467061
 31
0.0
  0
ARC
  5
5E
330
192
100
AcDbEntity
  8
0
100
AcDbCircle
 10
148.749761
 20
90.13372700000001
 30
0.0
 40
1.416666999999999
100
AcDbArc
 50
208.072487
 51
331.9275129999999
  0
ARC
  5
5F
330
192
100
AcDbEntity
  8
0
100
AcDbCircle
 10
149.421829
 20
98.43341600000002
 30
0.0
 40
0.8751709999999999
100
AcDbArc
 50
18.91114599999999
 51
102.206864
  0
LINE
  5
60
330
192
100
AcDbEntity
  8
0
100
AcDbLine
 10
150.264209
 20
98.673715
 30
0.0
 11
150.999761
 21
96.46706100000001
 31
0.0
  0
LINE
  5
61
330
192
100
AcDbEntity
  8
0
100
AcDbLine
 10
149.2134899999999
 20
99.282865
 30
0.0
 11
149.236853
 21
99.28878
 31
0.0
  0
LINE
  5
62
330
192
100
AcDbEntity
  8
0
100
AcDbLine
 10
150.2640659999999
 20
98.67409100000001
 30
0.0
 11
150.249725
 21
98.71708400000001
 31
0.0
  0
LINE
  5
63
330
192
100
AcDbEntity
  8
0
100
AcDbLine
 10
110.749761
 20
91.46706100000001
 30
0.0
 11
110.749761
 21
90.21706100000001
 31
0.0
  0
LINE
  5
64
330
192
100
AcDbEntity
  8
0
100
AcDbLine
 10
110.749761
 20
90.21706100000001
 30
0.0
 11
111.249761
 21
90.21706100000001
 31
0.0
  0
LINE
  5
65
330
192
100
AcDbEntity
  8
0
100
AcDbLine
 10
111.249761
 20
90.21706100000001
 30
0.0
 11
111.249761
 21
91.46706100000001
 31
0.0
  0
LINE
  5
66
330
192
100
AcDbEntity
  8
0
100
AcDbLine
 10
111.249761
 20
91.46706100000001
 30
0.0
 11
113.9997609999999
 21
91.46706100000001
 31
0.0
  0
LINE
  5
67
330
192
100
AcDbEntity
  8
0
100
AcDbLine
 10
113.9997609999999
 20
91.46706100000001
 30
0.0
 11
114.499761
 21
90.967061
 31
0.0
  0
LINE
  5
68
330
192
100
AcDbEntity
  8
0
100
AcDbLine
 10
114.499761
 20
90.967061
 30
0.0
 11
114.499761
 21
89.998733
 31
0.0
  0
LINE
  5
69
330
192
100
AcDbEntity
  8
0
100
AcDbLine
 10
110.749761
 20
91.46706100000001
 30
0.0
 11
107.999761
 21
91.46706100000001
 31
0.0
  0
LINE
  5
6A
330
192
100
AcDbEntity
  8
0
100
AcDbLine
 10
107.999761
 20
91.46706100000001
 30
0.0
 11
107.499761
 21
90.967061
 31
0.0
  0
LINE
  5
6B
330
192
100
AcDbEntity
  8
0
100
AcDbLine
 10
107.499761
 20
90.967061
 30
0.0
 11
107.499761
 21
89.717061
 31
0.0
  0
LINE
  5
6C
330
192
100
AcDbEntity
  8
0
100
AcDbLine
 10
104.2497609999999
 20
71.467061
 30
0.0
 11
117.749761
 21
71.467061
 31
0.0
  0
LINE
  5
6D
330
192
100
AcDbEntity
  8
0
100
AcDbLine
 10
105.999761
 20
71.467061
 30
0.0
 11
105.999761
 21
67.467061
 31
0.0
  0
LINE
  5
6E
330
192
100
AcDbEntity
  8
0
100
AcDbLine
 10
105.999761
 20
67.467061
 30
0.0
 11
115.999761
 21
67.467061
 31
0.0
  0
LINE
  5
6F
330
192
100
AcDbEntity
  8
0
100
AcDbLine
 10
115.999761
 20
67.467061
 30
0.0
 11
115.999761
 21
71.467061
 31
0.0
  0
LINE
  5
70
330
192
100
AcDbEntity
  8
2
100
AcDbLine
 10
115.999761
 20
71.467061
 30
0.0
 11
115.999761
 21
79.967061
 31
0.0
  0
LINE
  5
71
330
192
100
AcDbEntity
  8
2
100
AcDbLine
 10
105.999761
 20
71.467061
 30
0.0
 11
105.999761
 21
79.967061
 31
0.0
  0
LINE
  5
72
330
192
100
AcDbEntity
  8
2
100
AcDbLine
 10
105.999761
 20
79.967061
 30
0.0
 11
115.999761
 21
79.967061
 31
0.0
  0
LINE
  5
73
330
192
100
AcDbEntity
  8
2
100
AcDbLine
 10
55.0
 20
71.5
 30
0.0
 11
55.0
 21
80.0
 31
0.0
  0
LINE
  5
74
330
192
100
AcDbEntity
  8
2
100
AcDbLine
 10
45.0
 20
71.5
 30
0.0
 11
45.0
 21
80.0
 31
0.0
  0
LINE
  5
75
330
192
100
AcDbEntity
  8
0
100
AcDbLine
 10
43.25
 20
71.5
 30
0.0
 11
43.25
 21
77.0
 31
0.0
  0
LINE
  5
76
330
192
100
AcDbEntity
  8
0
100
AcDbLine
 10
56.75
 20
71.5
 30
0.0
 11
56.75
 21
77.0
 31
0.0
  0
LINE
  5
77
330
192
100
AcDbEntity
  8
0
100
AcDbLine
 10
45.0
 20
67.5
 30
0.0
 11
55.0
 21
67.5
 31
0.0
  0
LINE
  5
78
330
192
100
AcDbEntity
  8
0
100
AcDbLine
 10
43.25
 20
71.5
 30
0.0
 11
56.75
 21
71.5
 31
0.0
  0
LINE
  5
79
330
192
100
AcDbEntity
  8
0
100
AcDbLine
 10
45.0
 20
71.5
 30
0.0
 11
45.0
 21
67.5
 31
0.0
  0
LINE
  5
7A
330
192
100
AcDbEntity
  8
0
100
AcDbLine
 10
55.0
 20
67.5
 30
0.0
 11
55.0
 21
71.5
 31
0.0
  0
LINE
  5
7B
330
192
100
AcDbEntity
  8
0
100
AcDbLine
 10
44.0
 20
89.25
 30
0.0
 11
43.0
 21
77.0
 31
0.0
  0
LINE
  5
7C
330
192
100
AcDbEntity
  8
2
100
AcDbLine
 10
45.0
 20
80.0
 30
0.0
 11
55.0
 21
80.0
 31
0.0
  0
LINE
  5
7D
330
192
100
AcDbEntity
  8
0
100
AcDbLine
 10
50.0
 20
77.0
 30
0.0
 11
57.0
 21
77.0
 31
0.0
  0
LINE
  5
7E
330
192
100
AcDbEntity
  8
0
100
AcDbLine
 10
50.0
 20
77.0
 30
0.0
 11
43.0
 21
77.0
 31
0.0
  0
LINE
  5
7F
330
192
100
AcDbEntity
  8
0
100
AcDbLine
 10
50.0
 20
89.74999999999999
 30
0.0
 11
55.0
 21
89.74999999999999
 31
0.0
  0
LINE
  5
80
330
192
100
AcDbEntity
  8
0
100
AcDbLine
 10
46.5
 20
91.0
 30
0.0
 11
46.5
 21
89.74999999999999
 31
0.0
  0
LINE
  5
81
330
192
100
AcDbEntity
  8
0
100
AcDbLine
 10
47.0
 20
91.5
 30
0.0
 11
46.5
 21
91.0
 31
0.0
  0
LINE
  5
82
330
192
100
AcDbEntity
  8
0
100
AcDbLine
 10
49.75
 20
91.5
 30
0.0
 11
47.0
 21
91.5
 31
0.0
  0
ARC
  5
83
330
192
100
AcDbEntity
  8
0
100
AcDbCircle
 10
44.566125
 20
89.18387499999999
 30
0.0
 40
0.569973
100
AcDbArc
 50
96.662089
 51
173.337911
  0
LINE
  5
84
330
192
100
AcDbEntity
  8
0
100
AcDbLine
 10
50.0
 20
89.74999999999999
 30
0.0
 11
44.5
 21
89.74999999999999
 31
0.0
  0
LINE
  5
85
330
192
100
AcDbEntity
  8
0
100
AcDbLine
 10
53.5
 20
91.0
 30
0.0
 11
53.5
 21
90.031672
 31
0.0
  0
LINE
  5
86
330
192
100
AcDbEntity
  8
0
100
AcDbLine
 10
53.0
 20
91.5
 30
0.0
 11
53.5
 21
91.0
 31
0.0
  0
LINE
  5
87
330
192
100
AcDbEntity
  8
0
100
AcDbLine
 10
50.25
 20
91.5
 30
0.0
 11
53.0
 21
91.5
 31
0.0
  0
LINE
  5
88
330
192
100
AcDbEntity
  8
0
100
AcDbLine
 10
53.5
 20
90.25
 30
0.0
 11
53.5
 21
89.74999999999999
 31
0.0
  0
LINE
  5
89
330
192
100
AcDbEntity
  8
0
100
AcDbLine
 10
55.0
 20
89.74999999999999
 30
0.0
 11
55.5
 21
89.74999999999999
 31
0.0
  0
LINE
  5
8A
330
192
100
AcDbEntity
  8
0
100
AcDbLine
 10
57.0
 20
77.0
 30
0.0
 11
56.0
 21
89.25
 31
0.0
  0
ARC
  5
8B
330
192
100
AcDbEntity
  8
0
100
AcDbCircle
 10
55.46506899999999
 20
89.215069
 30
0.0
 40
0.53607
100
AcDbArc
 50
3.736082
 51
86.263918
  0
LINE
  5
8C
330
192
100
AcDbEntity
  8
0
100
AcDbLine
 10
49.75
 20
91.5
 30
0.0
 11
50.25
 21
91.5
 31
0.0
  0
LINE
  5
8D
330
192
100
AcDbEntity
  8
0
100
AcDbLine
 10
50.0
 20
92.0
 30
0.0
 11
52.75
 21
92.0
 31
0.0
  0
LINE
  5
8E
330
192
100
AcDbEntity
  8
0
100
AcDbLine
 10
50.0
 20
92.0
 30
0.0
 11
47.25
 21
92.0
 31
0.0
  0
LINE
  5
8F
330
192
100
AcDbEntity
  8
0
100
AcDbLine
 10
50.0
 20
99.25
 30
0.0
 11
47.0
 21
99.25
 31
0.0
  0
LINE
  5
90
330
192
100
AcDbEntity
  8
0
100
AcDbLine
 10
50.0
 20
99.25
 30
0.0
 11
53.0
 21
99.25
 31
0.0
  0
LINE
  5
91
330
192
100
AcDbEntity
  8
0
100
AcDbLine
 10
46.5
 20
98.50000000000001
 30
0.0
 11
45.75
 21
89.74999999999999
 31
0.0
  0
LINE
  5
92
330
192
100
AcDbEntity
  8
0
100
AcDbLine
 10
53.5
 20
98.50000000000001
 30
0.0
 11
54.25
 21
89.74999999999999
 31
0.0
  0
LINE
  5
93
330
192
100
AcDbEntity
  8
0
100
AcDbLine
 10
52.75
 20
92.0
 30
0.0
 11
53.5
 21
92.0
 31
0.0
  0
LINE
  5
94
330
192
100
AcDbEntity
  8
0
100
AcDbLine
 10
53.5
 20
92.0
 30
0.0
 11
53.0
 21
99.25
 31
0.0
  0
LINE
  5
95
330
192
100
AcDbEntity
  8
0
100
AcDbLine
 10
47.25
 20
92.0
 30
0.0
 11
46.5
 21
92.0
 31
0.0
  0
LINE
  5
96
330
192
100
AcDbEntity
  8
0
100
AcDbLine
 10
46.5
 20
92.0
 30
0.0
 11
47.0
 21
99.25
 31
0.0
  0
LINE
  5
97
330
192
100
AcDbEntity
  8
0
100
AcDbLine
 10
46.5
 20
92.0
 30
0.0
 11
46.25
 21
89.74999999999999
 31
0.0
  0
LINE
  5
98
330
192
100
AcDbEntity
  8
0
100
AcDbLine
 10
53.5
 20
92.0
 30
0.0
 11
53.75
 21
89.74999999999999
 31
0.0
  0
ARC
  5
99
330
192
100
AcDbEntity
  8
0
100
AcDbCircle
 10
52.60758599999999
 20
98.446724
 30
0.0
 40
0.894003
100
AcDbArc
 50
3.416430999999999
 51
63.96370400000001
  0
ARC
  5
9A
330
192
100
AcDbEntity
  8
0
100
AcDbCircle
 10
47.754746
 20
98.20516900000001
 30
0.0
 40
1.288919
100
AcDbArc
 50
125.8429129999999
 51
166.776952
  0
LINE
  5
12A
330
192
100
AcDbEntity
  8
0
100
AcDbLine
 10
51.999761
 20
67.467061
 30
0.0
 11
51.999761
 21
32.967061
 31
0.0
  0
LINE
  5
12B
330
192
100
AcDbEntity
  8
0
100
AcDbLine
 10
51.999761
 20
32.967061
 30
0.0
 11
51.49976099999999
 21
32.467061
 31
0.0
  0
LINE
  5
12C
330
192
100
AcDbEntity
  8
0
100
AcDbLine
 10
51.49976099999999
 20
32.467061
 30
0.0
 11
48.499761
 21
32.467061
 31
0.0
  0
LINE
  5
12D
330
192
100
AcDbEntity
  8
0
100
AcDbLine
 10
48.499761
 20
32.467061
 30
0.0
 11
47.999761
 21
32.967061
 31
0.0
  0
LINE
  5
12E
330
192
100
AcDbEntity
  8
0
100
AcDbLine
 10
47.999761
 20
32.967061
 30
0.0
 11
47.999761
 21
67.467061
 31
0.0
  0
LINE
  5
12F
330
192
100
AcDbEntity
  8
0
100
AcDbLine
 10
51.999761
 20
32.967061
 30
0.0
 11
47.999761
 21
32.967061
 31
0.0
  0
LINE
  5
130
330
192
100
AcDbEntity
  8
0
100
AcDbLine
 10
51.49976099999999
 20
32.467061
 30
0.0
 11
51.49976099999999
 21
67.467061
 31
0.0
  0
LINE
  5
131
330
192
100
AcDbEntity
  8
0
100
AcDbLine
 10
48.499761
 20
32.467061
 30
0.0
 11
48.499761
 21
67.467061
 31
0.0
  0
LINE
  5
132
330
192
100
AcDbEntity
  8
0
100
AcDbLine
 10
112.9997609999999
 20
67.467061
 30
0.0
 11
112.9997609999999
 21
32.967061
 31
0.0
  0
LINE
  5
133
330
192
100
AcDbEntity
  8
0
100
AcDbLine
 10
112.9997609999999
 20
32.967061
 30
0.0
 11
112.499761
 21
32.467061
 31
0.0
  0
LINE
  5
134
330
192
100
AcDbEntity
  8
0
100
AcDbLine
 10
112.499761
 20
32.467061
 30
0.0
 11
109.499761
 21
32.467061
 31
0.0
  0
LINE
  5
135
330
192
100
AcDbEntity
  8
0
100
AcDbLine
 10
109.499761
 20
32.467061
 30
0.0
 11
108.999761
 21
32.967061
 31
0.0
  0
LINE
  5
136
330
192
100
AcDbEntity
  8
0
100
AcDbLine
 10
108.999761
 20
32.967061
 30
0.0
 11
108.999761
 21
67.467061
 31
0.0
  0
LINE
  5
137
330
192
100
AcDbEntity
  8
0
100
AcDbLine
 10
112.9997609999999
 20
32.967061
 30
0.0
 11
108.999761
 21
32.967061
 31
0.0
  0
LINE
  5
138
330
192
100
AcDbEntity
  8
0
100
AcDbLine
 10
112.499761
 20
32.467061
 30
0.0
 11
112.499761
 21
67.467061
 31
0.0
  0
LINE
  5
139
330
192
100
AcDbEntity
  8
0
100
AcDbLine
 10
109.499761
 20
32.467061
 30
0.0
 11
109.499761
 21
67.467061
 31
0.0
  0
LINE
  5
13A
330
192
100
AcDbEntity
  8
1
100
AcDbLine
 10
110.999761
 20
94.467061
 30
0.0
 11
110.999761
 21
26.967061
 31
0.0
  0
LINE
  5
13B
330
192
100
AcDbEntity
  8
1
100
AcDbLine
 10
49.999761
 20
104.467061
 30
0.0
 11
49.999761
 21
26.967061
 31
0.0
  0
ENDSEC
  0
SECTION
  2
OBJECTS
  0
DICTIONARY
  5
187
330
0
100
AcDbDictionary
281
     1
  3
ACAD_GROUP
350
188
  3
ACAD_LAYOUT
350
1BA
  3
ACAD_MLINESTYLE
350
195
  3
ACAD_PLOTSETTINGS
350
1BB
  3
ACAD_PLOTSTYLENAME
350
1B8
  3
ACDBVARIABLEDICTIONARY
350
1AD
  3
AcmDictionary
350
277
  3
AMG
350
1BF
  3
AMGSNAPSETTINGS
350
2A1
  3
DWGPROPS
350
27A
  3
MAPISURF_MODULE
350
24A
  0
DICTIONARY
  5
294
330
192
100
AcDbDictionary
280
     1
281
     1
  3
ACAD_INDEX
360
295
  0
DICTIONARY
  5
188
102
{ACAD_REACTORS
330
187
102
}
330
187
100
AcDbDictionary
281
     1
  0
DICTIONARY
  5
1BA
102
{ACAD_REACTORS
330
187
102
}
330
187
100
AcDbDictionary
281
     1
  3
Model
350
1BC
  3
ﾚｲｱｳﾄ1
350
1BD
  0
DICTIONARY
  5
195
102
{ACAD_REACTORS
330
187
102
}
330
187
100
AcDbDictionary
281
     1
  3
STANDARD
350
196
  0
DICTIONARY
  5
1BB
102
{ACAD_REACTORS
330
187
102
}
330
187
100
AcDbDictionary
281
     1
  0
ACDBDICTIONARYWDFLT
  5
1B8
102
{ACAD_REACTORS
330
187
102
}
330
187
100
AcDbDictionary
281
     1
  3
Normal
350
1B9
100
AcDbDictionaryWithDefault
340
1B9
  0
DICTIONARY
  5
1AD
102
{ACAD_REACTORS
330
187
102
}
330
187
100
AcDbDictionary
281
     1
  3
DIMADEC
350
1AE
  3
DIMASSOC
350
29F
  3
INDEXCTL
350
29E
  0
DICTIONARY
  5
277
102
{ACAD_REACTORS
330
187
102
}
330
187
100
AcDbDictionary
281
     1
  3
AcmBOMDATA
350
278
  0
DICTIONARY
  5
1BF
102
{ACAD_REACTORS
330
187
102
}
330
187
100
AcDbDictionary
281
     1
  3
AcMgSettings
350
1C0
  3
AMGLAYCFG
350
284
  0
DICTIONARY
  5
2A1
102
{ACAD_REACTORS
330
187
102
}
330
187
100
AcDbDictionary
281
     1
  3
DIMENSION
350
2A6
  3
FEA
350
2A5
  3
HATCH (1)
350
2A2
  3
HATCH (2)
350
2A3
  3
SIMPLE WELD
350
2A7
  3
SYMBOLS
350
2A4
  0
XRECORD
  5
27A
102
{ACAD_REACTORS
330
187
102
}
330
187
100
AcDbXrecord
280
     1
  1
DWGPROPS COOKIE
  2

  3

  4

  6

  7

  8

  9

300
AmdtFileType=84
301
=
302
=
303
=
304
=
305
=
306
=
307
=
308
=
309
=
 40
0.0006765277777778
 41
2450867.009374537
 42
2453593.651149259
  1

 90
        1
  0
DICTIONARY
  5
295
102
{ACAD_REACTORS
330
294
102
}
330
294
100
AcDbDictionary
281
     1
  3
*A1
350
296
  0
LAYOUT
  5
1BC
102
{ACAD_REACTORS
330
1BA
102
}
330
1BA
100
AcDbPlotSettings
  1

  2
\\KONISHIDENXP\SHARP MX-2700FG
  4

  6

 40
0.0
 41
0.0
 42
0.0
 43
0.0
 44
0.0
 45
0.0
 46
0.0
 47
0.0
 48
0.0
 49
0.0
140
0.0
141
0.0
142
1.0
143
1.0
 70
  1712
 72
     0
 73
     0
 74
     0
  7

 75
     0
147
1.0
148
0.0
149
0.0
100
AcDbLayout
  1
Model
 70
     1
 71
     0
 10
0.0
 20
0.0
 11
12.0
 21
9.0
 12
0.0
 22
0.0
 32
0.0
 14
0.0
 24
0.0
 34
0.0
 15
0.0
 25
0.0
 35
0.0
146
0.0
 13
0.0
 23
0.0
 33
0.0
 16
1.0
 26
0.0
 36
0.0
 17
0.0
 27
1.0
 37
0.0
 76
     0
330
192
  0
LAYOUT
  5
1BD
102
{ACAD_REACTORS
330
1BA
102
}
330
1BA
100
AcDbPlotSettings
  1

  2
\\KONISHIDENXP\SHARP MX-2700FG
  4

  6

 40
0.0
 41
0.0
 42
0.0
 43
0.0
 44
0.0
 45
0.0
 46
0.0
 47
0.0
 48
0.0
 49
0.0
140
0.0
141
0.0
142
1.0
143
1.0
 70
   688
 72
     0
 73
     0
 74
     5
  7

 75
    16
147
1.0
148
0.0
149
0.0
100
AcDbLayout
  1
ﾚｲｱｳﾄ1
 70
     0
 71
     1
 10
0.0
 20
0.0
 11
12.0
 21
9.0
 12
0.0
 22
0.0
 32
0.0
 14
1.000000000000000E+20
 24
1.000000000000000E+20
 34
1.000000000000000E+20
 15
-1.000000000000000E+20
 25
-1.000000000000000E+20
 35
-1.000000000000000E+20
146
0.0
 13
0.0
 23
0.0
 33
0.0
 16
1.0
 26
0.0
 36
0.0
 17
0.0
 27
1.0
 37
0.0
 76
     0
330
18F
  0
MLINESTYLE
  5
196
102
{ACAD_REACTORS
330
195
102
}
330
195
100
AcDbMlineStyle
  2
STANDARD
 70
     0
  3

 62
   256
 51
90.0
 52
90.0
 71
     2
 49
0.5
 62
   256
  6
BYLAYER
 49
-0.5
 62
   256
  6
BYLAYER
  0
ACDBPLACEHOLDER
  5
1B9
102
{ACAD_REACTORS
330
1B8
102
}
330
1B8
  0
DICTIONARYVAR
  5
1AE
102
{ACAD_REACTORS
330
1AD
102
}
330
1AD
100
DictionaryVariables
280
     0
  1
0
  0
DICTIONARYVAR
  5
29F
102
{ACAD_REACTORS
330
1AD
102
}
330
1AD
100
DictionaryVariables
280
     0
  1
0
  0
DICTIONARYVAR
  5
29E
102
{ACAD_REACTORS
330
1AD
102
}
330
1AD
100
DictionaryVariables
280
     0
  1
1
  0
ACMDATADICTIONARY
  5
278
102
{ACAD_REACTORS
330
277
102
}
330
277
100
AcDbDictionary
281
     1
  3
*A1
350
279
100
AcmDataDictionary
  0
DICTIONARY
  5
1C0
102
{ACAD_REACTORS
330
1BF
102
}
330
1BF
100
AcDbDictionary
281
     1
  3
DWGSETTINGS
350
1C1
  0
ACAMGFILTERDAT
  5
2A6
102
{ACAD_REACTORS
330
2A1
102
}
330
2A1
100
AcAmgFilterDat
 70
    15
  1
DIMENSION,AMDT_*_DIM
  2
*
  3
*
  4
*
  5
*
290
     1
  0
ACAMGFILTERDAT
  5
2A5
102
{ACAD_REACTORS
330
2A1
102
}
330
2A1
100
AcAmgFilterDat
 70
    15
  1
*
  2
AM_FEA-AM_*
  3
*
  4
*
  5
*
290
     1
  0
ACAMGFILTERDAT
  5
2A2
102
{ACAD_REACTORS
330
2A1
102
}
330
2A1
100
AcAmgFilterDat
 70
    15
  1
HATCH
  2
*
  3
*
  4
*
  5
*
290
     1
  0
ACAMGFILTERDAT
  5
2A3
102
{ACAD_REACTORS
330
2A1
102
}
330
2A1
100
AcAmgFilterDat
 70
    15
  1
LINE
  2
8,8N,*-8,*-8N,AM_8,AM_8N,*-AM_8,*-AM_8N
  3
*
  4
*
  5
INSERT,STDPART2D
290
     1
  0
ACAMGFILTERDAT
  5
2A7
102
{ACAD_REACTORS
330
2A1
102
}
330
2A1
100
AcAmgFilterDat
 70
    15
  1
ARC
  2
AM_5
  3
*
  4
2
  5
INSERT
290
     0
  0
ACAMGFILTERDAT
  5
2A4
102
{ACAD_REACTORS
330
2A1
102
}
330
2A1
100
AcAmgFilterDat
 70
    15
  1
ACMFCFRAME,ACMDATUMTARGET,ACMDATUMID,ACMWELDSYM,ACMSURFSYM,ACMFEATID,ACMPARTREF,ACMBALLOON,AMDTEDGESYM,AMGSCREWCALCTABLE
  2
*
  3
*
  4
*
  5
*
290
     1
  0
LAYER_INDEX
  5
296
102
{ACAD_REACTORS
330
295
102
}
330
295
100
AcDbIndex
 40
2457708.612492222
100
AcDbLayerIndex
  8
0
360
297
 90
       91
  8
1
360
298
 90
        2
  8
3
360
299
 90
        0
  8
4
360
29A
 90
        0
  8
10
360
29B
 90
        0
  8
11
360
29C
 90
        0
  8
2
360
29D
 90
        6
  0
ACMDATAENTRYBLOCK
  5
279
102
{ACAD_REACTORS
330
278
102
}
330
278
100
AcmDataEntry
100
AcmDataEntryBlock
  0
IDBUFFER
  5
297
330
0
100
AcDbIdBuffer
330
80
330
81
330
82
330
83
330
84
330
85
330
86
330
87
330
88
330
89
330
8A
330
8B
330
8C
330
8D
330
8E
330
8F
330
90
330
91
330
92
330
93
330
94
330
95
330
96
330
97
330
98
330
99
330
9A
330
12A
330
12B
330
12C
330
12D
330
12E
330
12F
330
130
330
131
330
132
330
133
330
134
330
135
330
136
330
137
330
138
330
139
330
4A
330
4B
330
4C
330
4D
330
4E
330
4F
330
50
330
51
330
52
330
53
330
54
330
55
330
56
330
57
330
58
330
59
330
5A
330
5B
330
5C
330
5D
330
5E
330
5F
330
60
330
61
330
62
330
63
330
64
330
65
330
66
330
67
330
68
330
69
330
6A
330
6B
330
6C
330
6D
330
6E
330
6F
330
75
330
76
330
77
330
78
330
79
330
7A
330
7B
330
7D
330
7E
330
7F
  0
IDBUFFER
  5
298
330
0
100
AcDbIdBuffer
330
13A
330
13B
  0
IDBUFFER
  5
299
330
0
100
AcDbIdBuffer
  0
IDBUFFER
  5
29A
330
0
100
AcDbIdBuffer
  0
IDBUFFER
  5
29B
330
0
100
AcDbIdBuffer
  0
IDBUFFER
  5
29C
330
0
100
AcDbIdBuffer
  0
IDBUFFER
  5
29D
330
0
100
AcDbIdBuffer
330
70
330
71
330
72
330
73
330
74
330
7C
  0
ENDSEC
  0
EOF
