  0
SECTION
  2
HEADER
  9
$ACADVER
  1
AC1015
  9
$ACADMAINTVER
 70
    13
  9
$DWGCODEPAGE
  3
ANSI_932
  9
$INSBASE
 10
0.0
 20
0.0
 30
0.0
  9
$EXTMIN
 10
0.0
 20
0.0
 30
0.0
  9
$EXTMAX
 10
750.0
 20
540.0
 30
0.0
  9
$LIMMIN
 10
0.0
 20
0.0
  9
$LIMMAX
 10
750.0
 20
540.0
  9
$ORTHOMODE
 70
     1
  9
$REGENMODE
 70
     1
  9
$FILLMODE
 70
     1
  9
$QTEXTMODE
 70
     0
  9
$MIRRTEXT
 70
     1
  9
$LTSCALE
 40
20.0
  9
$ATTMODE
 70
     1
  9
$TEXTSIZE
 40
10.0
  9
$TRACEWID
 40
0.05
  9
$TEXTSTYLE
  7
BIGFONT
  9
$CLAYER
  8
0
  9
$CELTYPE
  6
ByLayer
  9
$CECOLOR
 62
   256
  9
$CELTSCALE
 40
1.0
  9
$DISPSILH
 70
     0
  9
$DIMSCALE
 40
2.0
  9
$DIMASZ
 40
3.0
  9
$DIMEXO
 40
2.0
  9
$DIMDLI
 40
0.3799999999999999
  9
$DIMRND
 40
0.0
  9
$DIMDLE
 40
0.0
  9
$DIMEXE
 40
2.0
  9
$DIMTP
 40
0.0
  9
$DIMTM
 40
0.0
  9
$DIMTXT
 40
3.2
  9
$DIMCEN
 40
0.09
  9
$DIMTSZ
 40
0.0
  9
$DIMTOL
 70
     0
  9
$DIMLIM
 70
     0
  9
$DIMTIH
 70
     0
  9
$DIMTOH
 70
     0
  9
$DIMSE1
 70
     0
  9
$DIMSE2
 70
     0
  9
$DIMTAD
 70
     1
  9
$DIMZIN
 70
     0
  9
$DIMBLK
  1

  9
$DIMASO
 70
     0
  9
$DIMSHO
 70
     0
  9
$DIMPOST
  1

  9
$DIMAPOST
  1

  9
$DIMALT
 70
     0
  9
$DIMALTD
 70
     2
  9
$DIMALTF
 40
25.4
  9
$DIMLFAC
 40
1.0
  9
$DIMTOFL
 70
     0
  9
$DIMTVP
 40
1.6
  9
$DIMTIX
 70
     1
  9
$DIMSOXD
 70
     0
  9
$DIMSAH
 70
     0
  9
$DIMBLK1
  1

  9
$DIMBLK2
  1

  9
$DIMSTYLE
  2
STANDARD
  9
$DIMCLRD
 70
     0
  9
$DIMCLRE
 70
     0
  9
$DIMCLRT
 70
     0
  9
$DIMTFAC
 40
1.0
  9
$DIMGAP
 40
0.09
  9
$DIMJUST
 70
     0
  9
$DIMSD1
 70
     0
  9
$DIMSD2
 70
     0
  9
$DIMTOLJ
 70
     1
  9
$DIMTZIN
 70
     0
  9
$DIMALTZ
 70
     0
  9
$DIMALTTZ
 70
     0
  9
$DIMUPT
 70
     0
  9
$DIMDEC
 70
     4
  9
$DIMTDEC
 70
     4
  9
$DIMALTU
 70
     2
  9
$DIMALTTD
 70
     2
  9
$DIMTXSTY
  7
STANDARD
  9
$DIMAUNIT
 70
     0
  9
$DIMADEC
 70
     0
  9
$DIMALTRND
 40
0.0
  9
$DIMAZIN
 70
     0
  9
$DIMDSEP
 70
    46
  9
$DIMATFIT
 70
     3
  9
$DIMFRAC
 70
     0
  9
$DIMLDRBLK
  1

  9
$DIMLUNIT
 70
     2
  9
$DIMLWD
 70
    -2
  9
$DIMLWE
 70
    -2
  9
$DIMTMOVE
 70
     0
  9
$LUNITS
 70
     2
  9
$LUPREC
 70
     4
  9
$SKETCHINC
 40
0.1
  9
$FILLETRAD
 40
0.0
  9
$AUNITS
 70
     0
  9
$AUPREC
 70
     0
  9
$MENU
  1
ACAD
  9
$ELEVATION
 40
0.0
  9
$PELEVATION
 40
0.0
  9
$THICKNESS
 40
0.0
  9
$LIMCHECK
 70
     0
  9
$CHAMFERA
 40
0.0
  9
$CHAMFERB
 40
0.0
  9
$CHAMFERC
 40
0.0
  9
$CHAMFERD
 40
0.0
  9
$SKPOLY
 70
     0
  9
$TDCREATE
 40
2450683.503159722
  9
$TDUCREATE
 40
2450683.128159722
  9
$TDUPDATE
 40
2454383.776849490
  9
$TDUUPDATE
 40
2454383.401849490
  9
$TDINDWG
 40
0.0013814699
  9
$TDUSRTIMER
 40
0.0013814699
  9
$USRTIMER
 70
     1
  9
$ANGBASE
 50
0.0
  9
$ANGDIR
 70
     0
  9
$PDMODE
 70
     0
  9
$PDSIZE
 40
0.0
  9
$PLINEWID
 40
0.0
  9
$SPLFRAME
 70
     0
  9
$SPLINETYPE
 70
     6
  9
$SPLINESEGS
 70
     8
  9
$HANDSEED
  5
277
  9
$SURFTAB1
 70
     6
  9
$SURFTAB2
 70
     6
  9
$SURFTYPE
 70
     6
  9
$SURFU
 70
     6
  9
$SURFV
 70
     6
  9
$UCSBASE
  2

  9
$UCSNAME
  2

  9
$UCSORG
 10
0.0
 20
0.0
 30
0.0
  9
$UCSXDIR
 10
1.0
 20
0.0
 30
0.0
  9
$UCSYDIR
 10
0.0
 20
1.0
 30
0.0
  9
$UCSORTHOREF
  2

  9
$UCSORTHOVIEW
 70
     0
  9
$UCSORGTOP
 10
0.0
 20
0.0
 30
0.0
  9
$UCSORGBOTTOM
 10
0.0
 20
0.0
 30
0.0
  9
$UCSORGLEFT
 10
0.0
 20
0.0
 30
0.0
  9
$UCSORGRIGHT
 10
0.0
 20
0.0
 30
0.0
  9
$UCSORGFRONT
 10
0.0
 20
0.0
 30
0.0
  9
$UCSORGBACK
 10
0.0
 20
0.0
 30
0.0
  9
$PUCSBASE
  2

  9
$PUCSNAME
  2

  9
$PUCSORG
 10
0.0
 20
0.0
 30
0.0
  9
$PUCSXDIR
 10
1.0
 20
0.0
 30
0.0
  9
$PUCSYDIR
 10
0.0
 20
1.0
 30
0.0
  9
$PUCSORTHOREF
  2

  9
$PUCSORTHOVIEW
 70
     0
  9
$PUCSORGTOP
 10
0.0
 20
0.0
 30
0.0
  9
$PUCSORGBOTTOM
 10
0.0
 20
0.0
 30
0.0
  9
$PUCSORGLEFT
 10
0.0
 20
0.0
 30
0.0
  9
$PUCSORGRIGHT
 10
0.0
 20
0.0
 30
0.0
  9
$PUCSORGFRONT
 10
0.0
 20
0.0
 30
0.0
  9
$PUCSORGBACK
 10
0.0
 20
0.0
 30
0.0
  9
$USERI1
 70
     0
  9
$USERI2
 70
     0
  9
$USERI3
 70
     0
  9
$USERI4
 70
     0
  9
$USERI5
 70
     0
  9
$USERR1
 40
0.0
  9
$USERR2
 40
0.0
  9
$USERR3
 40
0.0
  9
$USERR4
 40
0.0
  9
$USERR5
 40
0.0
  9
$WORLDVIEW
 70
     1
  9
$SHADEDGE
 70
     3
  9
$SHADEDIF
 70
    70
  9
$TILEMODE
 70
     1
  9
$MAXACTVP
 70
    16
  9
$PINSBASE
 10
0.0
 20
0.0
 30
0.0
  9
$PLIMCHECK
 70
     0
  9
$PEXTMIN
 10
1.000000000000000E+20
 20
1.000000000000000E+20
 30
1.000000000000000E+20
  9
$PEXTMAX
 10
-1.000000000000000E+20
 20
-1.000000000000000E+20
 30
-1.000000000000000E+20
  9
$PLIMMIN
 10
0.0
 20
0.0
  9
$PLIMMAX
 10
12.0
 20
9.0
  9
$UNITMODE
 70
     0
  9
$VISRETAIN
 70
     0
  9
$PLINEGEN
 70
     1
  9
$PSLTSCALE
 70
     0
  9
$TREEDEPTH
 70
  3020
  9
$CMLSTYLE
  2
Standard
  9
$CMLJUST
 70
     0
  9
$CMLSCALE
 40
1.0
  9
$PROXYGRAPHICS
 70
     1
  9
$MEASUREMENT
 70
     0
  9
$CELWEIGHT
370
    -1
  9
$ENDCAPS
280
     0
  9
$JOINSTYLE
280
     0
  9
$LWDISPLAY
290
     0
  9
$INSUNITS
 70
     0
  9
$HYPERLINKBASE
  1

  9
$STYLESHEET
  1

  9
$XEDIT
290
     1
  9
$CEPSNTYPE
380
     0
  9
$PSTYLEMODE
290
     1
  9
$FINGERPRINTGUID
  2
{2C200732-C3E2-4903-B5D1-DFF8A4620970}
  9
$VERSIONGUID
  2
{CEF035D6-B536-4388-A612-68F2FD296647}
  9
$EXTNAMES
290
     1
  9
$PSVPSCALE
 40
0.0
  9
$OLESTARTUP
290
     0
  0
ENDSEC
  0
SECTION
  2
CLASSES
  0
CLASS
  1
ACDBDICTIONARYWDFLT
  2
AcDbDictionaryWithDefault
  3
AutoCAD 2000
 90
        0
280
     0
281
     0
  0
CLASS
  1
ACDBPLACEHOLDER
  2
AcDbPlaceHolder
  3
AutoCAD 2000
 90
        0
280
     0
281
     0
  0
CLASS
  1
LAYOUT
  2
AcDbLayout
  3
AutoCAD 2000
 90
        0
280
     0
281
     0
  0
CLASS
  1
AMGSETTINGSOBJ
  2
AmgSettingsObj
  3
"AcadM|Product Description: AutoCAD Mechanical 2000|Company: Autodesk"
 90
        0
280
     0
281
     0
  0
CLASS
  1
ACME_DOCUMENT
  2
AcMeDbDoc
  3
AcMeServices
 90
        0
280
     0
281
     0
  0
CLASS
  1
ACMESCOPE
  2
AcMeScope
  3
AcMeServices
 90
        0
280
     0
281
     0
  0
CLASS
  1
ACMECOMMANDHISTORY
  2
AcMeCommandHistory
  3
AcMeServices
 90
        0
280
     0
281
     0
  0
CLASS
  1
ACIMSYSVARMAN
  2
AcImSysVarManager
  3
AcMeServices
 90
        0
280
     0
281
     0
  0
CLASS
  1
ACIMREALSYSVAR
  2
AcImRealSysVar
  3
AcMeServices
 90
        0
280
     0
281
     0
  0
CLASS
  1
ACIMINTSYSVAR
  2
AcImIntSysVar
  3
AcMeServices
 90
        0
280
     0
281
     0
  0
CLASS
  1
ACMEDRAWINGMAN
  2
AcMeDrawingMan
  3
AcMeServices
 90
        0
280
     0
281
     0
  0
CLASS
  1
ACMEVIEW
  2
AcMeView
  3
AcMeServices
 90
        0
280
     0
281
     0
  0
CLASS
  1
ACDBENTITYCACHE
  2
AcMeEntityCache
  3
AcMeServices
 90
        0
280
     0
281
     0
  0
CLASS
  1
GSMANAGER
  2
AcMeGSManager
  3
AcMeServices
 90
        0
280
     0
281
     0
  0
CLASS
  1
AMDTINTERNALREACTOR
  2
AmdtInternalReactor
  3
AcMeServices
 90
        0
280
     0
281
     0
  0
CLASS
  1
ACMESTATEMGR
  2
AcMeStateMgr
  3
AcMeServices
 90
        0
280
     0
281
     0
  0
CLASS
  1
ACGREFMASTER
  2
AcGrefMaster
  3
AcAttribServices
 90
        0
280
     0
281
     0
  0
CLASS
  1
AM_DRAWING_MGR
  2
AcDmDwgMgr
  3
AcMechDwgViewMgmt
 90
        0
280
     0
281
     0
  0
CLASS
  1
AM_DWG_DOCUMENT
  2
AcDmDwgDocument
  3
AcMechDwgViewMgmt
 90
        0
280
     0
281
     0
  0
CLASS
  1
AM_DWG_SHEET
  2
AcDmSheet
  3
AcMechDwgViewMgmt
 90
        0
280
     0
281
     0
  0
CLASS
  1
AM_VIEWDIMPARMAP
  2
AcDmViewDimParMap
  3
AcMechDwgViewMgmt
 90
        0
280
     0
281
     0
  0
CLASS
  1
AM_DWGMGR_NAME
  2
AcDmDwgMgrName
  3
AcMechDwgViewMgmt
 90
        0
280
     0
281
     0
  0
CLASS
  1
ACME_DATABASE
  2
AcMeDbDatabase
  3
AcMeServices
 90
        0
280
     0
281
     0
  0
CLASS
  1
ACRFINSADJUSTERMGR
  2
AcRfInsAdjusterMgr
  3
AcMeServices
 90
        0
280
     0
281
     0
  0
CLASS
  1
ACGREFACADMASTER
  2
AcGrefacadMaster
  3
AcGrefServices
 90
        0
280
     0
281
     0
  0
CLASS
  1
AMDTMENUSTATEMGR
  2
AmdtMenuStateMgr
  3
McadcomServices
 90
        0
280
     0
281
     0
  0
CLASS
  1
AMDTMCOMMENUSTATE
  2
AmdtMcomMenuState
  3
McadcomServices
 90
        0
280
     0
281
     0
  0
CLASS
  1
AMIMASTER
  2
AmiMaster
  3
AmiServices
 90
        0
280
     0
281
     0
  0
CLASS
  1
ASAPP
  2
AcAsAppObject
  3
AutoSurfServices
 90
        0
280
     0
281
     0
  0
CLASS
  1
IM_STATIC_MAN
  2
AcImStaticVarManager
  3
AcMeServices
 90
        0
280
     0
281
     0
  0
CLASS
  1
ACIMSTRSYSVAR
  2
AcImStrSysVar
  3
AcMeServices
 90
        0
280
     0
281
     0
  0
CLASS
  1
ACIMDBLSTATICVAR
  2
AcImDblStaticVar
  3
AcMeServices
 90
        0
280
     0
281
     0
  0
CLASS
  1
ACIMSTRSTATICVAR
  2
AcImStrStaticVar
  3
AcMeServices
 90
        0
280
     0
281
     0
  0
CLASS
  1
ACIMINTSTATICVAR
  2
AcImIntStaticVar
  3
AcMeServices
 90
        0
280
     0
281
     0
  0
CLASS
  1
ACASGREFMASTER
  2
AcAsGrefMaster
  3
AutoSurfResolverServices
 90
        0
280
     0
281
     0
  0
CLASS
  1
ACADGREFMODULE
  2
AcAdGrefModule
  3
AdGrefServices
 90
        0
280
     0
281
     0
  0
CLASS
  1
AMDTMAPISURFMOUDULE
  2
AmdtMApiSurfModule
  3
MApiSurfServices
 90
        0
280
     0
281
     0
  0
CLASS
  1
MAPIAMMOUDLE
  2
MApiAmModule
  3
MApiAmServices
 90
        0
280
     0
281
     0
  0
CLASS
  1
AMDTADMENUSTATE
  2
AmdtAdMenuState
  3
DesignerServices
 90
        0
280
     0
281
     0
  0
CLASS
  1
ADAPPL
  2
AcAdAppl
  3
DesignerServices
 90
        0
280
     0
281
     0
  0
CLASS
  1
DEPMGR
  2
AcAdDepMgr
  3
DesignerServices
 90
        0
280
     0
281
     0
  0
CLASS
  1
PARAMMGR
  2
AcAdParamMgr
  3
DesignerServices
 90
        0
280
     0
281
     0
  0
CLASS
  1
PARAMSCOPE
  2
AcAdParamScope
  3
DesignerServices
 90
        0
280
     0
281
     0
  0
CLASS
  1
NAMEDAPPL
  2
AcAdNamedAppl
  3
DesignerServices
 90
        0
280
     0
281
     0
  0
CLASS
  1
AMDTDMMENUSTATE
  2
AmdtDmMenuState
  3
AcMechDwgViewMgmt
 90
        0
280
     0
281
     0
  0
CLASS
  1
MAPIADMODULE
  2
MApiAdModule
  3
MApiAdServices
 90
        0
280
     0
281
     0
  0
CLASS
  1
AMDTAMMENUSTATE
  2
AmdtAmMenuState
  3
DesignerAssemblies
 90
        0
280
     0
281
     0
  0
CLASS
  1
ACAMPROJECT
  2
AcAmProject
  3
DesignerAssemblies
 90
        0
280
     0
281
     0
  0
CLASS
  1
ACAMGRCOMPDEF
  2
AcAmGrCompDef
  3
DesignerAssemblies
 90
        0
280
     0
281
     0
  0
CLASS
  1
ACCMCONTEXT
  2
AcCmContext
  3
DesignerAssemblies
 90
        0
280
     0
281
     0
  0
CLASS
  1
ACAMCOMPDEF
  2
AcAmCompDef
  3
DesignerAssemblies
 90
        0
280
     0
281
     0
  0
CLASS
  1
ACAMCOMPDEFMGR
  2
AcAmCompDefMgr
  3
DesignerAssemblies
 90
        0
280
     0
281
     0
  0
CLASS
  1
AMCONTEXTMGR
  2
AcAmContextMgr
  3
DesignerAssemblies
 90
        0
280
     0
281
     0
  0
CLASS
  1
ACAMCONTEXTMODELER
  2
AcAmContextModeler
  3
DesignerAssemblies
 90
        0
280
     0
281
     0
  0
CLASS
  1
ACMDATADICTIONARY
  2
AcmDataDictionary
  3
"AcmSymBB|Product Description: AutoCAD Mechanical 2000|Company: Autodesk"
 90
        0
280
     0
281
     0
  0
CLASS
  1
ACMDATAENTRYBLOCK
  2
AcmDataEntryBlock
  3
"AcmSymBB|Product Description: AutoCAD Mechanical 2000|Company: Autodesk"
 90
        0
280
     0
281
     0
  0
CLASS
  1
CATALOGSTATE
  2
AcAmCatalogState
  3
DesignerAssemblies
 90
        0
280
     0
281
     0
  0
CLASS
  1
ACAMGRCOMPDEFSET
  2
AcAmGrCompDefSet
  3
DesignerAssemblies
 90
        0
280
     0
281
     0
  0
CLASS
  1
AMDTBROWSERDBTAB
  2
AmdtBrowserDbTab
  3
McadcomServices
 90
        0
280
     0
281
     0
  0
CLASS
  1
CBROWSERAPPOBJECT
  2
CBrowserAppObject
  3
McadcomServices
 90
        0
280
     0
281
     0
  0
CLASS
  1
DM_PLACEHOLDER
  2
AcDmSelsetPlaceholder
  3
AcMechDwgViewMgmt
 90
        0
280
     0
281
     0
  0
CLASS
  1
ACMSTANDARDANSI
  2
AcmStandardANSI
  3
"Amdt_StdImp|Product Description: AutoCAD Mechanical 2000|Company: Autodesk"
 90
        0
280
     0
281
     0
  0
CLASS
  1
AMGOBJPROPCFG
  2
AmgObjPropCfg
  3
"AmgLay|Product Description: AutoCAD Mechanical 2000|Company: Autodesk"
 90
        1
280
     0
281
     0
  0
CLASS
  1
ACMSURFSTANDARDANSI
  2
AcmSurfTextStdANSI
  3
"Amdt_StdImp|Product Description: AutoCAD Mechanical 2000|Company: Autodesk"
 90
        0
280
     0
281
     0
  0
CLASS
  1
ACMFCFSTANDARDANSI
  2
AcmFCFStdANSI
  3
"Amdt_StdImp|Product Description: AutoCAD Mechanical 2000|Company: Autodesk"
 90
        0
280
     0
281
     0
  0
CLASS
  1
ACMWELDSTANDARDANSI
  2
AcmWeldingStdANSI
  3
"Amdt_StdImp|Product Description: AutoCAD Mechanical 2000|Company: Autodesk"
 90
        0
280
     0
281
     0
  0
CLASS
  1
ACMIDSTANDARDANSI
  2
AcmIdStdANSI
  3
"Amdt_StdImp|Product Description: AutoCAD Mechanical 2000|Company: Autodesk"
 90
        0
280
     0
281
     0
  0
CLASS
  1
ACMDATUMSTANDARDANSI
  2
AcmDatumStdANSI
  3
"Amdt_StdImp|Product Description: AutoCAD Mechanical 2000|Company: Autodesk"
 90
        0
280
     0
281
     0
  0
CLASS
  1
ACMBOMSTANDARDANSI
  2
AcmBOMStdANSI
  3
"Amdt_StdImp|Product Description: AutoCAD Mechanical 2000|Company: Autodesk"
 90
        0
280
     0
281
     0
  0
CLASS
  1
ACMDETAILSTANDARDANSI
  2
AmdtDetailSymStdANSI
  3
"Amdt_StdImp|Product Description: AutoCAD Mechanical 2000|Company: Autodesk"
 90
        0
280
     0
281
     0
  0
CLASS
  1
ACMSECTIONSTANDARDANSI
  2
AmdtSectionSymStdANSI
  3
"Amdt_StdImp|Product Description: AutoCAD Mechanical 2000|Company: Autodesk"
 90
        0
280
     0
281
     0
  0
CLASS
  1
ACMCENTERLINESTANDARDANSI
  2
AmdtCenterLineStdANSI
  3
"Amdt_StdImp|Product Description: AutoCAD Mechanical 2000|Company: Autodesk"
 90
        0
280
     0
281
     0
  0
CLASS
  1
ACMTHREADLINESTANDARDANSI
  2
AmdtThreadLineStdANSI
  3
"Amdt_StdImp|Product Description: AutoCAD Mechanical 2000|Company: Autodesk"
 90
        0
280
     0
281
     0
  0
CLASS
  1
ACMNOTESTANDARDANSI
  2
AmdtNoteStdANSI
  3
"Amdt_StdImp|Product Description: AutoCAD Mechanical 2000|Company: Autodesk"
 90
        0
280
     0
281
     0
  0
CLASS
  1
ACAMGLAYSTD
  2
AcAmgLayStd
  3
"AcAmgLayStd|Product Description: AutoCAD Mechanical 2000|Company: Autodesk"
 90
        0
280
     0
281
     0
  0
CLASS
  1
ACAMGDIMSTD
  2
AcAmgDimStd
  3
"AcAmgDimStd|Product Description: AutoCAD Mechanical 2000|Company: Autodesk"
 90
        0
280
     0
281
     0
  0
CLASS
  1
ACAMGHOLECHARTSTDANSI
  2
AcAmgHoleChartStdANSI
  3
ACMSYMBB_MODULE_NAME
 90
        0
280
     0
281
     0
  0
CLASS
  1
ACAMGTITLESTD
  2
AcAmgTitleStd
  3
"TITLEAPP"
 90
        0
280
     0
281
     0
  0
CLASS
  1
ACAMGFILTERDAT
  2
AcAmgFilterDat
  3
"AcadM|Product Description: AutoCAD Mechanical 2000|Company: Autodesk"
 90
        0
280
     0
281
     0
  0
CLASS
  1
LAYER_INDEX
  2
AcDbLayerIndex
  3
AutoCAD 2000
 90
        0
280
     0
281
     0
  0
CLASS
  1
IDBUFFER
  2
AcDbIdBuffer
  3
AutoCAD 2000
 90
        0
280
     0
281
     0
  0
CLASS
  1
DICTIONARYVAR
  2
AcDbDictionaryVar
  3
AutoCAD 2000
 90
        0
280
     0
281
     0
  0
ENDSEC
  0
SECTION
  2
TABLES
  0
TABLE
  2
VPORT
  5
8
330
0
100
AcDbSymbolTable
 70
     5
  0
VPORT
  5
276
330
8
100
AcDbSymbolTableRecord
100
AcDbViewportTableRecord
  2
*Active
 70
     0
 10
0.0
 20
0.0
 11
1.0
 21
1.0
 12
-90.36944559739767
 22
-39.37497127589336
 13
0.0
 23
0.0
 14
0.5
 24
0.5
 15
1.0
 25
1.0
 16
0.0
 26
0.0
 36
1.0
 17
465.7502154966
 27
307.2791878172588
 37
0.0
 40
398.3820629941592
 41
1.515723270440251
 42
50.0
 43
0.0
 44
0.0
 50
0.0
 51
0.0
 71
     0
 72
   500
 73
     1
 74
     1
 75
     0
 76
     0
 77
     0
 78
     0
281
     0
 65
     0
110
0.0
120
0.0
130
0.0
111
1.0
121
0.0
131
0.0
112
0.0
122
1.0
132
0.0
 79
     0
146
0.0
  0
ENDTAB
  0
TABLE
  2
LTYPE
  5
5
330
0
100
AcDbSymbolTable
 70
    20
  0
LTYPE
  5
13
330
5
100
AcDbSymbolTableRecord
100
AcDbLinetypeTableRecord
  2
ByBlock
 70
     0
  3

 72
    65
 73
     0
 40
0.0
  0
LTYPE
  5
14
330
5
100
AcDbSymbolTableRecord
100
AcDbLinetypeTableRecord
  2
ByLayer
 70
     0
  3

 72
    65
 73
     0
 40
0.0
  0
LTYPE
  5
15
330
5
100
AcDbSymbolTableRecord
100
AcDbLinetypeTableRecord
  2
CONTINUOUS
 70
     0
  3
実線
 72
    65
 73
     0
 40
0.0
  0
LTYPE
  5
23
330
5
100
AcDbSymbolTableRecord
100
AcDbLinetypeTableRecord
  2
BYLAYER
 70
     0
  3

 72
    65
 73
     0
 40
0.0
  0
LTYPE
  5
24
330
5
100
AcDbSymbolTableRecord
100
AcDbLinetypeTableRecord
  2
CENTER
 70
     0
  3
____ _ ____ _ ____ _ ____ _ ____ _ ____ _ ____
 72
    65
 73
     4
 40
2.0
 49
1.25
 74
     0
 49
-0.25
 74
     0
 49
0.25
 74
     0
 49
-0.25
 74
     0
  0
LTYPE
  5
25
330
5
100
AcDbSymbolTableRecord
100
AcDbLinetypeTableRecord
  2
TENSEN1
 70
     0
  3

 72
    65
 73
     2
 40
0.4
 49
0.3
 74
     0
 49
-0.1
 74
     0
  0
LTYPE
  5
18D
330
5
100
AcDbSymbolTableRecord
100
AcDbLinetypeTableRecord
  2
HIDDEN
 70
     0
  3
Hidden __ __ __ __ __ __ __ __ __ __ __ __ __ _
 72
    65
 73
     2
 40
0.375
 49
0.25
 74
     0
 49
-0.125
 74
     0
  0
LTYPE
  5
18E
330
5
100
AcDbSymbolTableRecord
100
AcDbLinetypeTableRecord
  2
PHANTOM2
 70
     0
  3
Phantom (.5x) ___ _ _ ___ _ _ ___ _ _ ___ _ _
 72
    65
 73
     6
 40
1.25
 49
0.625
 74
     0
 49
-0.125
 74
     0
 49
0.125
 74
     0
 49
-0.125
 74
     0
 49
0.125
 74
     0
 49
-0.125
 74
     0
  0
LTYPE
  5
1F0
330
5
100
AcDbSymbolTableRecord
100
AcDbLinetypeTableRecord
  2
ASULTYPE
 70
     0
  3
実線
 72
    65
 73
     2
 40
3.0
 49
2.5
 74
     0
 49
0.5
 74
     0
  0
LTYPE
  5
1F1
330
5
100
AcDbSymbolTableRecord
100
AcDbLinetypeTableRecord
  2
ASVLTYPE
 70
     0
  3
__ __ __ __ __ __ __ __ __ __ __ __ __ __ __ __ __ __ __ __ __
 72
    65
 73
     2
 40
0.75
 49
0.5
 74
     0
 49
-0.25
 74
     0
  0
LTYPE
  5
235
330
5
100
AcDbSymbolTableRecord
100
AcDbLinetypeTableRecord
  2
AM_ISO02W050
 70
     0
  3
__ __ __ __ __ __ __ __ __ __ __ __ __ __ __
 72
    65
 73
     2
 40
7.5
 49
6.0
 74
     0
 49
-1.5
 74
     0
  0
LTYPE
  5
236
330
5
100
AcDbSymbolTableRecord
100
AcDbLinetypeTableRecord
  2
AM_ISO08W050
 70
     0
  3
____ . ____ . ____ . ____ . ____ . ____ . ____
 72
    65
 73
     4
 40
18.0
 49
12.0
 74
     0
 49
-1.5
 74
     0
 49
3.0
 74
     0
 49
-1.5
 74
     0
  0
LTYPE
  5
237
330
5
100
AcDbSymbolTableRecord
100
AcDbLinetypeTableRecord
  2
AM_ISO09W050
 70
     0
  3
_____ . . _____ . . _____ . . ____ .. ____
 72
    65
 73
     6
 40
22.5
 49
12.0
 74
     0
 49
-1.5
 74
     0
 49
3.0
 74
     0
 49
-1.5
 74
     0
 49
3.0
 74
     0
 49
-1.5
 74
     0
  0
LTYPE
  5
238
330
5
100
AcDbSymbolTableRecord
100
AcDbLinetypeTableRecord
  2
Amconstr
 70
     0
  3
_______________________
 72
    65
 73
     2
 40
9999.0
 49
9999.0
 74
     0
 49
0.0
 74
     0
  0
LTYPE
  5
239
330
5
100
AcDbSymbolTableRecord
100
AcDbLinetypeTableRecord
  2
AM_ISO08W050x2
 70
     0
  3
__ . __ . __ . __ . __ . __
 72
    65
 73
     4
 40
9.0
 49
6.0
 74
     0
 49
-0.75
 74
     0
 49
1.5
 74
     0
 49
-0.75
 74
     0
  0
LTYPE
  5
23A
330
5
100
AcDbSymbolTableRecord
100
AcDbLinetypeTableRecord
  2
AM_ISO02W050x2
 70
     0
  3
 _ _ _ _ _ _ _ _ _ _ _ _
 72
    65
 73
     2
 40
3.75
 49
3.0
 74
     0
 49
-0.75
 74
     0
  0
LTYPE
  5
23D
330
5
100
AcDbSymbolTableRecord
100
AcDbLinetypeTableRecord
  2
Amzigzag
 70
     0
  3
/\/-/\/-/\/-/\/-/\/-/\/
 72
    65
 73
     2
 40
11.00009999999999
 49
0.0001
 74
     4
 75
   135
340
23C
 46
0.04
 50
0.0
 44
0.0
 45
0.0
 49
-11.0
 74
     0
  0
LTYPE
  5
23E
330
5
100
AcDbSymbolTableRecord
100
AcDbLinetypeTableRecord
  2
CENTER2
 70
     0
  3
Center (.5x) ___ _ ___ _ ___ _ ___ _ ___ _ ___
 72
    65
 73
     4
 40
1.125
 49
0.75
 74
     0
 49
-0.125
 74
     0
 49
0.125
 74
     0
 49
-0.125
 74
     0
  0
LTYPE
  5
23F
330
5
100
AcDbSymbolTableRecord
100
AcDbLinetypeTableRecord
  2
HIDDEN2
 70
     0
  3
Hidden (.5x) _ _ _ _ _ _ _ _ _ _ _ _ _ _ _ _ _
 72
    65
 73
     2
 40
0.1875
 49
0.125
 74
     0
 49
-0.0625
 74
     0
  0
LTYPE
  5
240
330
5
100
AcDbSymbolTableRecord
100
AcDbLinetypeTableRecord
  2
Amzigzag2
 70
     0
  3
/\/-/\/-/\/-/\/-/\/-/\/
 72
    65
 73
     2
 40
0.4401
 49
0.0001
 74
     4
 75
   135
340
23C
 46
0.0016
 50
0.0
 44
0.0
 45
0.0
 49
-0.4400000000000001
 74
     0
  0
LTYPE
  5
24E
330
5
100
AcDbSymbolTableRecord
100
AcDbLinetypeTableRecord
  2
ACANSTGB
 70
     0
  3
__ . . __ . .
 72
    65
 73
     6
 40
0.35433070866
 49
0.15748031496
 74
     0
 49
-0.03937007874
 74
     0
 49
0.03937007874
 74
     0
 49
-0.03937007874
 74
     0
 49
0.03937007874
 74
     0
 49
-0.03937007874
 74
     0
  0
LTYPE
  5
24F
330
5
100
AcDbSymbolTableRecord
100
AcDbLinetypeTableRecord
  2
ACANSTGL
 70
     0
  3
_ _ _ _ _
 72
    65
 73
     2
 40
0.11811023622
 49
0.07874015748
 74
     0
 49
-0.03937007874
 74
     0
  0
ENDTAB
  0
TABLE
  2
LAYER
  5
2
330
0
100
AcDbSymbolTable
 70
     5
  0
LAYER
  5
10
330
2
100
AcDbSymbolTableRecord
100
AcDbLayerTableRecord
  2
0
 70
     0
 62
     7
  6
CONTINUOUS
370
    -3
390
F
  0
LAYER
  5
26
330
2
100
AcDbSymbolTableRecord
100
AcDbLayerTableRecord
  2
1
 70
     0
 62
     1
  6
CENTER
370
    -3
390
F
  0
LAYER
  5
27
330
2
100
AcDbSymbolTableRecord
100
AcDbLayerTableRecord
  2
10
 70
     0
 62
     7
  6
CONTINUOUS
370
    -3
390
F
  0
LAYER
  5
28
330
2
100
AcDbSymbolTableRecord
100
AcDbLayerTableRecord
  2
11
 70
     0
 62
     3
  6
CONTINUOUS
370
    -3
390
F
  0
LAYER
  5
29
330
2
100
AcDbSymbolTableRecord
100
AcDbLayerTableRecord
  2
2
 70
     0
 62
     2
  6
TENSEN1
370
    -3
390
F
  0
ENDTAB
  0
TABLE
  2
STYLE
  5
3
330
0
100
AcDbSymbolTable
 70
     5
  0
STYLE
  5
11
330
3
100
AcDbSymbolTableRecord
100
AcDbTextStyleTableRecord
  2
STANDARD
 70
     0
 40
0.0
 41
1.0
 50
0.0
 71
     0
 42
0.2
  3
TXT
  4
BIGFONT
  0
STYLE
  5
22
330
3
100
AcDbSymbolTableRecord
100
AcDbTextStyleTableRecord
  2
BIGFONT
 70
     0
 40
10.0
 41
0.8
 50
0.0
 71
     0
 42
10.0
  3

  4
bigfont
  0
STYLE
  5
23C
330
3
100
AcDbSymbolTableRecord
100
AcDbTextStyleTableRecord
  2

 70
     1
 40
0.0
 41
1.0
 50
0.0
 71
     0
 42
10.0
  3
ltypeshp.shx
  4

  0
STYLE
  5
241
330
3
100
AcDbSymbolTableRecord
100
AcDbTextStyleTableRecord
  2
ACANSTS
 70
     0
 40
1.0
 41
1.0
 50
0.0
 71
     0
 42
10.0
  3
romans.shx
  4
extfont.shx
  0
STYLE
  5
24D
330
3
100
AcDbSymbolTableRecord
100
AcDbTextStyleTableRecord
  2
ACANSGDT
 70
     0
 40
0.0
 41
1.0
 50
0.0
 71
     0
 42
10.0
  3
amgdtans.shx
  4

  0
ENDTAB
  0
TABLE
  2
VIEW
  5
6
330
0
100
AcDbSymbolTable
 70
     1
  0
VIEW
  5
2B
330
6
100
AcDbSymbolTableRecord
100
AcDbViewTableRecord
  2
ALL
 70
     0
 40
540.0
 10
441.9831932773108
 20
270.0
 41
0.0
 11
0.0
 21
0.0
 31
1.0
 12
0.0
 22
0.0
 32
0.0
 42
0.0
 43
0.0
 44
0.0
 50
0.0
 71
     0
281
     0
 72
     0
  0
ENDTAB
  0
TABLE
  2
UCS
  5
7
330
0
100
AcDbSymbolTable
 70
     0
  0
ENDTAB
  0
TABLE
  2
APPID
  5
9
330
0
100
AcDbSymbolTable
 70
    13
  0
APPID
  5
12
330
9
100
AcDbSymbolTableRecord
100
AcDbRegAppTableRecord
  2
ACAD
 70
     0
  0
APPID
  5
16B
330
9
100
AcDbSymbolTableRecord
100
AcDbRegAppTableRecord
  2
GENIUS_GENDIM_13
 70
     0
  0
APPID
  5
16C
330
9
100
AcDbSymbolTableRecord
100
AcDbRegAppTableRecord
  2
GENIUS_GENDTOL_13
 70
     0
  0
APPID
  5
16D
330
9
100
AcDbSymbolTableRecord
100
AcDbRegAppTableRecord
  2
GENIUS_GE3DTOL_13
 70
     0
  0
APPID
  5
170
330
9
100
AcDbSymbolTableRecord
100
AcDbRegAppTableRecord
  2
MCAD_NO_VIS
 70
     0
  0
APPID
  5
171
330
9
100
AcDbSymbolTableRecord
100
AcDbRegAppTableRecord
  2
ACAD_TEMP_GRAPHIC
 70
     0
  0
APPID
  5
1A3
330
9
100
AcDbSymbolTableRecord
100
AcDbRegAppTableRecord
  2
AD_DRAW
 70
     0
  0
APPID
  5
1A6
330
9
100
AcDbSymbolTableRecord
100
AcDbRegAppTableRecord
  2
ACATTRIBSERVICES
 70
     0
  0
APPID
  5
1F2
330
9
100
AcDbSymbolTableRecord
100
AcDbRegAppTableRecord
  2
ASURF_PCURVE_APPNAME
 70
     0
  0
APPID
  5
1F7
330
9
100
AcDbSymbolTableRecord
100
AcDbRegAppTableRecord
  2
AMG_3D2D_5.0
 70
     0
  0
APPID
  5
222
330
9
100
AcDbSymbolTableRecord
100
AcDbRegAppTableRecord
  2
DESIGNERASSEMBLIES
 70
     0
  0
APPID
  5
22A
330
9
100
AcDbSymbolTableRecord
100
AcDbRegAppTableRecord
  2
ACADM_DIM_EDIT
 70
     0
  0
APPID
  5
22B
330
9
100
AcDbSymbolTableRecord
100
AcDbRegAppTableRecord
  2
AMDT_DM_ADJ
 70
     0
  0
ENDTAB
  0
TABLE
  2
DIMSTYLE
  5
A
330
0
100
AcDbSymbolTable
 70
     7
100
AcDbDimStyleTable
 71
     0
  0
DIMSTYLE
105
2A
330
A
100
AcDbSymbolTableRecord
100
AcDbDimStyleTableRecord
  2
STANDARD
 70
     0
279
     2
340
22
  0
DIMSTYLE
105
254
330
A
100
AcDbSymbolTableRecord
100
AcDbDimStyleTableRecord
  2
AM_ANSI
 70
     0
  4
mm
 41
0.1
 42
0.05
 43
0.5
 44
0.1
 47
0.1
 48
0.1
 78
     7
 79
     2
140
0.12
141
0.0
146
0.71
147
0.06
176
   256
177
   256
178
     2
274
     4
284
     7
340
11
371
    -1
372
    -1
  0
DIMSTYLE
105
255
330
A
100
AcDbSymbolTableRecord
100
AcDbDimStyleTableRecord
  2
AM_ANSI$3
 70
     0
  4
mm
 41
0.1
 42
0.05
 43
0.5
 44
0.1
 47
0.1
 48
0.1
 78
     7
 79
     2
140
0.12
141
0.0
146
0.71
147
0.06
176
   256
177
   256
178
     2
274
     4
284
     7
288
     1
289
     0
340
11
371
    -1
372
    -1
  0
DIMSTYLE
105
256
330
A
100
AcDbSymbolTableRecord
100
AcDbDimStyleTableRecord
  2
AM_ANSI$4
 70
     0
  4
mm
 41
0.1
 42
0.05
 43
0.5
 44
0.1
 47
0.1
 48
0.1
 78
     7
 79
     2
140
0.12
141
0.0
146
0.71
147
0.06
176
   256
177
   256
178
     2
274
     4
284
     7
288
     1
289
     0
340
11
371
    -1
372
    -1
  0
DIMSTYLE
105
257
330
A
100
AcDbSymbolTableRecord
100
AcDbDimStyleTableRecord
  2
AM_ANSI$7
 70
     0
  4
mm
 41
0.1
 42
0.05
 43
0.5
 44
0.1
 47
0.1
 48
0.1
 78
     7
 79
     2
140
0.24
141
0.0
146
0.71
147
0.06
176
   256
177
   256
178
     2
274
     4
284
     7
340
11
371
    -1
372
    -1
  0
DIMSTYLE
105
258
330
A
100
AcDbSymbolTableRecord
100
AcDbDimStyleTableRecord
  2
AM_ANSI$SF
 70
     0
  4
mm
 41
0.1
 42
0.05
 43
0.5
 44
0.1
 47
0.1
 48
0.1
 75
     1
 76
     1
 78
     7
 79
     2
140
0.12
141
0.0
146
0.71
147
0.06
176
   256
177
   256
178
     2
274
     4
284
     7
340
11
371
    -1
372
    -1
  0
DIMSTYLE
105
25D
330
A
100
AcDbSymbolTableRecord
100
AcDbDimStyleTableRecord
  2
AM_ANSI$SH
 70
     0
  4
mm
 41
0.1
 42
0.05
 43
0.5
 44
0.1
 47
0.1
 48
0.1
 75
     1
 76
     1
 78
     7
 79
     2
140
0.12
141
0.0
146
0.71
147
0.06
173
     1
176
   256
177
   256
178
     2
274
     4
284
     7
340
11
343
259
371
    -1
372
    -1
  0
ENDTAB
  0
TABLE
  2
BLOCK_RECORD
  5
1
330
0
100
AcDbSymbolTable
 70
     3
  0
BLOCK_RECORD
  5
1E
102
{ACAD_XDICTIONARY
360
268
102
}
330
1
100
AcDbSymbolTableRecord
100
AcDbBlockTableRecord
  2
*Model_Space
340
21
  0
BLOCK_RECORD
  5
1A
330
1
100
AcDbSymbolTableRecord
100
AcDbBlockTableRecord
  2
*Paper_Space
340
1D
  0
BLOCK_RECORD
  5
2F
330
1
100
AcDbSymbolTableRecord
100
AcDbBlockTableRecord
  2
QQ
340
0
102
{BLKREFS
331
3B
102
}
  0
BLOCK_RECORD
  5
219
330
1
100
AcDbSymbolTableRecord
100
AcDbBlockTableRecord
  2
*U1
340
0
  0
BLOCK_RECORD
  5
259
330
1
100
AcDbSymbolTableRecord
100
AcDbBlockTableRecord
  2
GENAXEH
340
0
  0
ENDTAB
  0
ENDSEC
  0
SECTION
  2
BLOCKS
  0
BLOCK
  5
1F
330
1E
100
AcDbEntity
  8
0
100
AcDbBlockBegin
  2
*Model_Space
 70
     0
 10
0.0
 20
0.0
 30
0.0
  3
*Model_Space
  1

  0
ENDBLK
  5
20
330
1E
100
AcDbEntity
  8
0
100
AcDbBlockEnd
  0
BLOCK
  5
1B
330
1A
100
AcDbEntity
 67
     1
  8
0
100
AcDbBlockBegin
  2
*Paper_Space
 70
     0
 10
0.0
 20
0.0
 30
0.0
  3
*Paper_Space
  1

  0
ENDBLK
  5
1C
330
1A
100
AcDbEntity
 67
     1
  8
0
100
AcDbBlockEnd
  0
BLOCK
  5
30
330
2F
100
AcDbEntity
  8
0
100
AcDbBlockBegin
  2
QQ
 70
     0
 10
270.0
 20
0.0
 30
0.0
  3
QQ
  1

  0
LINE
  5
31
330
2F
100
AcDbEntity
  8
11
100
AcDbLine
 10
172.9999999999998
 20
36.0
 30
0.0
 11
270.0
 21
36.0
 31
0.0
  0
TEXT
  5
32
330
2F
100
AcDbEntity
  8
11
100
AcDbText
 10
175.0
 20
32.5
 30
0.0
 40
2.5
  1
部品名称
100
AcDbText
  0
LINE
  5
33
330
2F
100
AcDbEntity
  8
11
100
AcDbLine
 10
172.9999999999998
 20
36.0
 30
0.0
 11
172.9999999999998
 21
0.0
 31
0.0
  0
LINE
  5
34
330
2F
100
AcDbEntity
  8
11
100
AcDbLine
 10
172.9999999999998
 20
24.0
 30
0.0
 11
270.0
 21
24.0
 31
0.0
  0
TEXT
  5
35
330
2F
100
AcDbEntity
  8
11
100
AcDbText
 10
175.0
 20
20.5
 30
0.0
 40
2.5
  1
品番
100
AcDbText
  0
LINE
  5
36
330
2F
100
AcDbEntity
  8
11
100
AcDbLine
 10
172.9999999999998
 20
12.0
 30
0.0
 11
270.0
 21
12.0
 31
0.0
  0
TEXT
  5
37
330
2F
100
AcDbEntity
  8
11
100
AcDbText
 10
175.0
 20
8.5
 30
0.0
 40
2.5
  1
尺度
100
AcDbText
  0
TEXT
  5
38
330
2F
100
AcDbEntity
  8
11
100
AcDbText
 10
200.0
 20
8.5
 30
0.0
 40
2.5
  1
図番
100
AcDbText
  0
LINE
  5
39
330
2F
100
AcDbEntity
  8
11
100
AcDbLine
 10
198.0
 20
0.0
 30
0.0
 11
198.0
 21
12.0
 31
0.0
  0
ENDBLK
  5
3A
330
2F
100
AcDbEntity
  8
0
100
AcDbBlockEnd
  0
BLOCK
  5
21A
330
219
100
AcDbEntity
  8
0
100
AcDbBlockBegin
  2
*U1
 70
     1
 10
0.0
 20
0.0
 30
0.0
  3
*U1
  1

  0
ENDBLK
  5
21B
330
219
100
AcDbEntity
  8
0
100
AcDbBlockEnd
  0
BLOCK
  5
25B
330
259
100
AcDbEntity
  8
0
100
AcDbBlockBegin
  2
GENAXEH
 70
     0
 10
0.0
 20
0.0
 30
0.0
  3
GENAXEH
  1

  0
LINE
  5
25A
330
259
100
AcDbEntity
  8
0
100
AcDbLine
 10
-1.0
 20
0.0
 30
0.0
 11
1.0
 21
0.0
 31
0.0
  0
ENDBLK
  5
25C
330
259
100
AcDbEntity
  8
0
100
AcDbBlockEnd
  0
ENDSEC
  0
SECTION
  2
ENTITIES
  0
LINE
  5
43
330
1E
100
AcDbEntity
  8
0
100
AcDbLine
 10
279.0
 20
278.0
 30
0.0
 11
293.75
 21
278.0
 31
0.0
  0
LINE
  5
44
330
1E
100
AcDbEntity
  8
0
100
AcDbLine
 10
293.75
 20
278.0
 30
0.0
 11
293.75
 21
287.9999999999999
 31
0.0
  0
LINE
  5
45
330
1E
100
AcDbEntity
  8
0
100
AcDbLine
 10
279.0
 20
278.0
 30
0.0
 11
264.25
 21
278.0
 31
0.0
  0
LINE
  5
46
330
1E
100
AcDbEntity
  8
0
100
AcDbLine
 10
264.25
 20
278.0
 30
0.0
 11
264.25
 21
287.9999999999999
 31
0.0
  0
LINE
  5
47
330
1E
100
AcDbEntity
  8
0
100
AcDbLine
 10
279.0
 20
287.9999999999999
 30
0.0
 11
294.2499999999999
 21
287.9999999999999
 31
0.0
  0
LINE
  5
48
330
1E
100
AcDbEntity
  8
0
100
AcDbLine
 10
279.0
 20
287.9999999999999
 30
0.0
 11
263.75
 21
287.9999999999999
 31
0.0
  0
LINE
  5
49
330
1E
100
AcDbEntity
  8
0
100
AcDbLine
 10
279.0
 20
310.9999999999998
 30
0.0
 11
266.9999999999999
 21
310.9999999999998
 31
0.0
  0
LINE
  5
4A
330
1E
100
AcDbEntity
  8
0
100
AcDbLine
 10
279.0
 20
310.9999999999998
 30
0.0
 11
290.0
 21
310.9999999999998
 31
0.0
  0
LINE
  5
4B
330
1E
100
AcDbEntity
  8
0
100
AcDbLine
 10
264.9999999999999
 20
308.9999999999998
 30
0.0
 11
263.75
 21
287.9999999999999
 31
0.0
  0
LINE
  5
4C
330
1E
100
AcDbEntity
  8
0
100
AcDbLine
 10
265.75
 20
287.9999999999999
 30
0.0
 11
266.7499999999999
 21
308.9999999999998
 31
0.0
  0
LINE
  5
4D
330
1E
100
AcDbEntity
  8
0
100
AcDbLine
 10
292.2499999999999
 20
287.9999999999999
 30
0.0
 11
291.25
 21
308.9999999999998
 31
0.0
  0
ARC
  5
4E
330
1E
100
AcDbEntity
  8
0
100
AcDbCircle
 10
267.0244411932784
 20
308.9755588067215
 30
0.0
 40
2.024588727858518
100
AcDbArc
 50
90.69170158790859
 51
179.3082984120914
  0
LINE
  5
4F
330
1E
100
AcDbEntity
  8
0
100
AcDbLine
 10
283.9999999999998
 20
310.9999999999998
 30
0.0
 11
291.9999999999999
 21
318.9999999999999
 31
0.0
  0
LINE
  5
50
330
1E
100
AcDbEntity
  8
0
100
AcDbLine
 10
291.9999999999999
 20
318.9999999999999
 30
0.0
 11
385.5659202605414
 21
335.8319644913143
 31
0.0
  0
LINE
  5
51
330
1E
100
AcDbEntity
  8
0
100
AcDbLine
 10
389.0
 20
333.0
 30
0.0
 11
297.0
 21
308.9999999999998
 31
0.0
  0
LINE
  5
52
330
1E
100
AcDbEntity
  8
0
100
AcDbLine
 10
389.0
 20
333.0
 30
0.0
 11
387.9999999999999
 21
320.0
 31
0.0
  0
LINE
  5
53
330
1E
100
AcDbEntity
  8
0
100
AcDbLine
 10
380.5
 20
320.0
 30
0.0
 11
380.0
 21
322.0
 31
0.0
  0
ARC
  5
54
330
1E
100
AcDbEntity
  8
0
100
AcDbCircle
 10
384.25
 20
322.5
 30
0.0
 40
4.506939094329985
100
AcDbArc
 50
213.6900675259797
 51
326.30993247402
  0
ARC
  5
55
330
1E
100
AcDbEntity
  8
0
100
AcDbCircle
 10
376.5
 20
320.5
 30
0.0
 40
3.807886552931953
100
AcDbArc
 50
23.19859051364755
 51
113.1985905136482
  0
LINE
  5
56
330
1E
100
AcDbEntity
  8
0
100
AcDbLine
 10
375.0
 20
324.0
 30
0.0
 11
313.5
 21
306.0
 31
0.0
  0
LINE
  5
57
330
1E
100
AcDbEntity
  8
0
100
AcDbLine
 10
297.0
 20
308.9999999999998
 30
0.0
 11
292.75
 21
287.9999999999999
 31
0.0
  0
LINE
  5
58
330
1E
100
AcDbEntity
  8
0
100
AcDbLine
 10
292.75
 20
287.9999999999999
 30
0.0
 11
291.9999999999999
 21
308.9999999999998
 31
0.0
  0
ARC
  5
59
330
1E
100
AcDbEntity
  8
0
100
AcDbCircle
 10
290.1345002808321
 20
309.1345002808322
 30
0.0
 40
1.870342088431667
100
AcDbArc
 50
355.8761790225561
 51
94.12382097744371
  0
ARC
  5
5A
330
1E
100
AcDbEntity
  8
0
100
AcDbCircle
 10
308.2143254262415
 20
293.602946627131
 30
0.0
 40
13.47684265803505
100
AcDbArc
 50
66.90827783778455
 51
168.6726071211196
  0
LINE
  5
5B
330
1E
100
AcDbEntity
  8
0
100
AcDbLine
 10
294.2499999999999
 20
287.9999999999999
 30
0.0
 11
295.0
 21
296.25
 31
0.0
  0
ARC
  5
5C
330
1E
100
AcDbEntity
  8
0
100
AcDbCircle
 10
385.7668091248017
 20
334.0070169397116
 30
0.0
 40
1.842747691602348
100
AcDbArc
 50
42.47969691205547
 51
93.35758460377807
  0
LINE
  5
5D
330
1E
100
AcDbEntity
  8
0
100
AcDbLine
 10
387.1696394679886
 20
335.1964326384136
 30
0.0
 11
389.0
 21
333.0
 31
0.0
  0
LINE
  5
5E
330
1E
100
AcDbEntity
  8
0
100
AcDbLine
 10
385.5655924076721
 20
335.8318652509282
 30
0.0
 11
385.6586957740646
 21
335.8466633310888
 31
0.0
  0
LINE
  5
5F
330
1E
100
AcDbEntity
  8
0
100
AcDbLine
 10
387.1696460181524
 20
335.1963367506562
 30
0.0
 11
387.1259929588865
 21
335.2513860353116
 31
0.0
  0
LINE
  5
60
330
1E
100
AcDbEntity
  8
0
100
AcDbLine
 10
278.5
 20
314.9999999999999
 30
0.0
 11
278.5
 21
312.9999999999999
 31
0.0
  0
LINE
  5
61
330
1E
100
AcDbEntity
  8
0
100
AcDbLine
 10
278.5
 20
312.9999999999999
 30
0.0
 11
279.4999999999999
 21
312.9999999999999
 31
0.0
  0
LINE
  5
62
330
1E
100
AcDbEntity
  8
0
100
AcDbLine
 10
279.4999999999999
 20
312.9999999999999
 30
0.0
 11
279.4999999999999
 21
314.9999999999999
 31
0.0
  0
LINE
  5
63
330
1E
100
AcDbEntity
  8
0
100
AcDbLine
 10
279.4999999999999
 20
314.9999999999999
 30
0.0
 11
286.5
 21
314.9999999999999
 31
0.0
  0
LINE
  5
64
330
1E
100
AcDbEntity
  8
0
100
AcDbLine
 10
286.5
 20
314.9999999999999
 30
0.0
 11
287.2489927122277
 21
314.2510072877721
 31
0.0
  0
LINE
  5
65
330
1E
100
AcDbEntity
  8
0
100
AcDbLine
 10
278.5
 20
314.9999999999999
 30
0.0
 11
271.4999999999998
 21
314.9999999999999
 31
0.0
  0
LINE
  5
66
330
1E
100
AcDbEntity
  8
0
100
AcDbLine
 10
271.4999999999998
 20
314.9999999999999
 30
0.0
 11
270.5
 21
314.0
 31
0.0
  0
LINE
  5
67
330
1E
100
AcDbEntity
  8
0
100
AcDbLine
 10
270.5
 20
314.0
 30
0.0
 11
270.5
 21
310.9999999999998
 31
0.0
  0
LINE
  5
68
330
1E
100
AcDbEntity
  8
0
100
AcDbLine
 10
287.0
 20
266.0
 30
0.0
 11
287.0
 21
188.0
 31
0.0
  0
LINE
  5
69
330
1E
100
AcDbEntity
  8
0
100
AcDbLine
 10
270.9999999999999
 20
188.0
 30
0.0
 11
270.9999999999999
 21
266.0
 31
0.0
  0
LINE
  5
6A
330
1E
100
AcDbEntity
  8
0
100
AcDbLine
 10
287.0
 20
188.0
 30
0.0
 11
287.0
 21
187.5
 31
0.0
  0
LINE
  5
6B
330
1E
100
AcDbEntity
  8
0
100
AcDbLine
 10
287.0
 20
187.5
 30
0.0
 11
285.5
 21
186.0
 31
0.0
  0
LINE
  5
6C
330
1E
100
AcDbEntity
  8
0
100
AcDbLine
 10
285.5
 20
186.0
 30
0.0
 11
272.5
 21
186.0
 31
0.0
  0
LINE
  5
6D
330
1E
100
AcDbEntity
  8
0
100
AcDbLine
 10
272.5
 20
186.0
 30
0.0
 11
270.9999999999999
 21
187.5
 31
0.0
  0
LINE
  5
6E
330
1E
100
AcDbEntity
  8
0
100
AcDbLine
 10
270.9999999999999
 20
187.5
 30
0.0
 11
270.9999999999999
 21
188.4999999999998
 31
0.0
  0
LINE
  5
6F
330
1E
100
AcDbEntity
  8
0
100
AcDbLine
 10
270.9999999999999
 20
187.5
 30
0.0
 11
287.0
 21
187.5
 31
0.0
  0
LINE
  5
70
330
1E
100
AcDbEntity
  8
0
100
AcDbLine
 10
285.5
 20
186.0
 30
0.0
 11
285.5
 21
266.0
 31
0.0
  0
LINE
  5
71
330
1E
100
AcDbEntity
  8
0
100
AcDbLine
 10
272.5
 20
186.0
 30
0.0
 11
272.5
 21
266.0
 31
0.0
  0
LINE
  5
72
330
1E
100
AcDbEntity
  8
0
100
AcDbLine
 10
270.9999999999999
 20
266.0
 30
0.0
 11
272.5
 21
264.5
 31
0.0
  0
LINE
  5
73
330
1E
100
AcDbEntity
  8
0
100
AcDbLine
 10
272.5
 20
264.5
 30
0.0
 11
285.5
 21
264.5
 31
0.0
  0
LINE
  5
74
330
1E
100
AcDbEntity
  8
0
100
AcDbLine
 10
285.5
 20
264.5
 30
0.0
 11
287.0
 21
266.0
 31
0.0
  0
LINE
  5
75
330
1E
100
AcDbEntity
  8
1
100
AcDbLine
 10
279.0
 20
326.0
 30
0.0
 11
279.0
 21
190.4999999999999
 31
0.0
  0
LINE
  5
76
330
1E
100
AcDbEntity
  8
2
100
AcDbLine
 10
384.5
 20
341.0
 30
0.0
 11
343.9999999999998
 21
333.4999999999999
 31
0.0
  0
LINE
  5
77
330
1E
100
AcDbEntity
  8
2
100
AcDbLine
 10
385.9999999999999
 20
341.0
 30
0.0
 11
389.0
 21
338.5
 31
0.0
  0
LINE
  5
78
330
1E
100
AcDbEntity
  8
1
100
AcDbLine
 10
154.0
 20
345.9999999999998
 30
0.0
 11
154.0
 21
190.9999999999998
 31
0.0
  0
LINE
  5
79
330
1E
100
AcDbEntity
  8
0
100
AcDbLine
 10
147.5
 20
186.0
 30
0.0
 11
147.5
 21
266.0
 31
0.0
  0
LINE
  5
7A
330
1E
100
AcDbEntity
  8
0
100
AcDbLine
 10
160.4999999999998
 20
186.0
 30
0.0
 11
160.4999999999998
 21
266.0
 31
0.0
  0
LINE
  5
7B
330
1E
100
AcDbEntity
  8
0
100
AcDbLine
 10
145.9999999999998
 20
188.0
 30
0.0
 11
145.9999999999998
 21
266.0
 31
0.0
  0
LINE
  5
7C
330
1E
100
AcDbEntity
  8
0
100
AcDbLine
 10
162.0
 20
266.0
 30
0.0
 11
162.0
 21
188.0
 31
0.0
  0
LINE
  5
7D
330
1E
100
AcDbEntity
  8
0
100
AcDbLine
 10
145.9999999999998
 20
187.5
 30
0.0
 11
162.0
 21
187.5
 31
0.0
  0
LINE
  5
7E
330
1E
100
AcDbEntity
  8
0
100
AcDbLine
 10
147.5
 20
186.0
 30
0.0
 11
145.9999999999998
 21
187.5
 31
0.0
  0
LINE
  5
7F
330
1E
100
AcDbEntity
  8
0
100
AcDbLine
 10
145.9999999999998
 20
187.5
 30
0.0
 11
145.9999999999998
 21
188.4999999999998
 31
0.0
  0
LINE
  5
80
330
1E
100
AcDbEntity
  8
0
100
AcDbLine
 10
160.4999999999998
 20
186.0
 30
0.0
 11
147.5
 21
186.0
 31
0.0
  0
LINE
  5
81
330
1E
100
AcDbEntity
  8
0
100
AcDbLine
 10
162.0
 20
187.5
 30
0.0
 11
160.4999999999998
 21
186.0
 31
0.0
  0
LINE
  5
82
330
1E
100
AcDbEntity
  8
0
100
AcDbLine
 10
162.0
 20
188.0
 30
0.0
 11
162.0
 21
187.5
 31
0.0
  0
LINE
  5
83
330
1E
100
AcDbEntity
  8
0
100
AcDbLine
 10
145.5
 20
314.0
 30
0.0
 11
145.5
 21
310.9999999999998
 31
0.0
  0
LINE
  5
84
330
1E
100
AcDbEntity
  8
0
100
AcDbLine
 10
154.0
 20
278.0
 30
0.0
 11
168.75
 21
278.0
 31
0.0
  0
LINE
  5
85
330
1E
100
AcDbEntity
  8
0
100
AcDbLine
 10
140.7499999999998
 20
287.9999999999999
 30
0.0
 11
141.7499999999998
 21
308.9999999999998
 31
0.0
  0
LINE
  5
86
330
1E
100
AcDbEntity
  8
0
100
AcDbLine
 10
140.0
 20
308.9999999999998
 30
0.0
 11
138.7499999999998
 21
287.9999999999999
 31
0.0
  0
LINE
  5
87
330
1E
100
AcDbEntity
  8
0
100
AcDbLine
 10
145.9999999999998
 20
266.0
 30
0.0
 11
147.5
 21
264.5
 31
0.0
  0
LINE
  5
88
330
1E
100
AcDbEntity
  8
0
100
AcDbLine
 10
154.0
 20
287.9999999999999
 30
0.0
 11
138.7499999999998
 21
287.9999999999999
 31
0.0
  0
LINE
  5
89
330
1E
100
AcDbEntity
  8
0
100
AcDbLine
 10
154.0
 20
278.0
 30
0.0
 11
139.25
 21
278.0
 31
0.0
  0
LINE
  5
8A
330
1E
100
AcDbEntity
  8
0
100
AcDbLine
 10
139.25
 20
278.0
 30
0.0
 11
139.25
 21
287.9999999999999
 31
0.0
  0
LINE
  5
8B
330
1E
100
AcDbEntity
  8
0
100
AcDbLine
 10
147.5
 20
264.5
 30
0.0
 11
160.4999999999998
 21
264.5
 31
0.0
  0
LINE
  5
8C
330
1E
100
AcDbEntity
  8
0
100
AcDbLine
 10
160.4999999999998
 20
264.5
 30
0.0
 11
162.0
 21
266.0
 31
0.0
  0
LINE
  5
8D
330
1E
100
AcDbEntity
  8
0
100
AcDbLine
 10
154.0
 20
310.9999999999998
 30
0.0
 11
141.9999999999998
 21
310.9999999999998
 31
0.0
  0
ARC
  5
8E
330
1E
100
AcDbEntity
  8
0
100
AcDbCircle
 10
142.0244411932785
 20
308.9755588067215
 30
0.0
 40
2.024588727858518
100
AcDbArc
 50
90.69170158790859
 51
179.3082984120914
  0
LINE
  5
8F
330
1E
100
AcDbEntity
  8
0
100
AcDbLine
 10
167.25
 20
287.9999999999999
 30
0.0
 11
166.25
 21
308.9999999999998
 31
0.0
  0
LINE
  5
90
330
1E
100
AcDbEntity
  8
0
100
AcDbLine
 10
168.75
 20
278.0
 30
0.0
 11
168.75
 21
287.9999999999999
 31
0.0
  0
LINE
  5
91
330
1E
100
AcDbEntity
  8
0
100
AcDbLine
 10
153.5
 20
314.9999999999999
 30
0.0
 11
146.5
 21
314.9999999999999
 31
0.0
  0
LINE
  5
92
330
1E
100
AcDbEntity
  8
0
100
AcDbLine
 10
146.5
 20
314.9999999999999
 30
0.0
 11
145.5
 21
314.0
 31
0.0
  0
LINE
  5
93
330
1E
100
AcDbEntity
  8
0
100
AcDbLine
 10
154.4999999999998
 20
312.9999999999999
 30
0.0
 11
154.4999999999998
 21
314.9999999999999
 31
0.0
  0
LINE
  5
94
330
1E
100
AcDbEntity
  8
0
100
AcDbLine
 10
153.5
 20
312.9999999999999
 30
0.0
 11
154.4999999999998
 21
312.9999999999999
 31
0.0
  0
LINE
  5
95
330
1E
100
AcDbEntity
  8
0
100
AcDbLine
 10
153.5
 20
314.9999999999999
 30
0.0
 11
153.5
 21
312.9999999999999
 31
0.0
  0
LINE
  5
96
330
1E
100
AcDbEntity
  8
0
100
AcDbLine
 10
154.0
 20
287.9999999999999
 30
0.0
 11
169.25
 21
287.9999999999999
 31
0.0
  0
LINE
  5
97
330
1E
100
AcDbEntity
  8
0
100
AcDbLine
 10
169.25
 20
287.9999999999999
 30
0.0
 11
167.9999999999998
 21
308.9999999999998
 31
0.0
  0
LINE
  5
98
330
1E
100
AcDbEntity
  8
0
100
AcDbLine
 10
154.0
 20
310.9999999999998
 30
0.0
 11
166.0
 21
310.9999999999998
 31
0.0
  0
LINE
  5
99
330
1E
100
AcDbEntity
  8
0
100
AcDbLine
 10
154.4999999999998
 20
314.9999999999999
 30
0.0
 11
161.5
 21
314.9999999999999
 31
0.0
  0
LINE
  5
9A
330
1E
100
AcDbEntity
  8
0
100
AcDbLine
 10
161.5
 20
314.9999999999999
 30
0.0
 11
162.5
 21
314.0
 31
0.0
  0
LINE
  5
9B
330
1E
100
AcDbEntity
  8
0
100
AcDbLine
 10
162.5
 20
314.0
 30
0.0
 11
162.5
 21
310.9999999999998
 31
0.0
  0
ARC
  5
9C
330
1E
100
AcDbEntity
  8
0
100
AcDbCircle
 10
165.8764645796759
 20
308.8764645796759
 30
0.0
 40
2.127125685389916
100
AcDbArc
 50
3.329395706677719
 51
86.67060429332225
  0
LINE
  5
9D
330
1E
100
AcDbEntity
  8
0
100
AcDbLine
 10
149.5
 20
335.9999999999998
 30
0.0
 11
158.4999999999998
 21
335.9999999999998
 31
0.0
  0
LINE
  5
9E
330
1E
100
AcDbEntity
  8
0
100
AcDbLine
 10
148.5
 20
335.0
 30
0.0
 11
146.5
 21
318.9999999999999
 31
0.0
  0
LINE
  5
9F
330
1E
100
AcDbEntity
  8
0
100
AcDbLine
 10
161.5
 20
318.9999999999999
 30
0.0
 11
159.4999999999998
 21
335.0
 31
0.0
  0
LINE
  5
A0
330
1E
100
AcDbEntity
  8
0
100
AcDbLine
 10
161.5
 20
318.9999999999999
 30
0.0
 11
146.5
 21
318.9999999999999
 31
0.0
  0
LINE
  5
A1
330
1E
100
AcDbEntity
  8
0
100
AcDbLine
 10
146.5
 20
318.9999999999999
 30
0.0
 11
146.5
 21
314.9999999999999
 31
0.0
  0
LINE
  5
A2
330
1E
100
AcDbEntity
  8
0
100
AcDbLine
 10
161.5
 20
318.9999999999999
 30
0.0
 11
161.5
 21
314.9999999999999
 31
0.0
  0
LINE
  5
A3
330
1E
100
AcDbEntity
  8
0
100
AcDbLine
 10
159.4999999999998
 20
335.0
 30
0.0
 11
159.4165827873358
 21
335.5162951253577
 31
0.0
  0
LINE
  5
A4
330
1E
100
AcDbEntity
  8
0
100
AcDbLine
 10
148.5
 20
335.0
 30
0.0
 11
148.5789318872688
 21
335.5357032126232
 31
0.0
  0
ARC
  5
A5
330
1E
100
AcDbEntity
  8
0
100
AcDbCircle
 10
155.7561301586241
 20
331.456556977345
 30
0.0
 40
5.466295571726067
100
AcDbArc
 50
16.40088685245858
 51
47.96067934315828
  0
ARC
  5
A6
330
1E
100
AcDbEntity
  8
0
100
AcDbCircle
 10
152.6239423708935
 20
331.2900893154715
 30
0.0
 40
5.878139360392641
100
AcDbArc
 50
133.4834251359405
 51
163.0885626903598
  0
LINE
  5
A7
330
1E
100
AcDbEntity
  8
0
100
AcDbLine
 10
148.5783926925551
 20
335.5320463383473
 30
0.0
 11
148.5814433042571
 21
335.5625380597158
 31
0.0
  0
ARC
  5
A8
330
1E
100
AcDbEntity
  8
0
100
AcDbCircle
 10
149.4534671382133
 20
334.9155784229412
 30
0.0
 40
1.086265731805448
100
AcDbArc
 50
87.47742782266819
 51
143.6203072772545
  0
ARC
  5
A9
330
1E
100
AcDbEntity
  8
0
100
AcDbCircle
 10
158.4512891224022
 20
334.8022243659796
 30
0.0
 40
1.200058504851923
100
AcDbArc
 50
36.5351640189228
 51
87.85755676552797
  0
LINE
  5
AA
330
1E
100
AcDbEntity
  8
2
100
AcDbLine
 10
149.0
 20
341.0
 30
0.0
 11
159.0
 21
341.0
 31
0.0
  0
LINE
  5
AB
330
1E
100
AcDbEntity
  8
2
100
AcDbLine
 10
159.0
 20
341.0
 30
0.0
 11
161.5
 21
338.5
 31
0.0
  0
LINE
  5
AC
330
1E
100
AcDbEntity
  8
2
100
AcDbLine
 10
149.0
 20
341.0
 30
0.0
 11
146.5
 21
338.5
 31
0.0
  0
LINE
  5
AD
330
1E
100
AcDbEntity
  8
0
100
AcDbLine
 10
524.0
 20
266.0
 30
0.0
 11
524.0
 21
188.0
 31
0.0
  0
LINE
  5
AE
330
1E
100
AcDbEntity
  8
0
100
AcDbLine
 10
508.0
 20
188.0
 30
0.0
 11
508.0
 21
266.0
 31
0.0
  0
LINE
  5
AF
330
1E
100
AcDbEntity
  8
0
100
AcDbLine
 10
522.5
 20
186.0
 30
0.0
 11
522.5
 21
266.0
 31
0.0
  0
LINE
  5
B0
330
1E
100
AcDbEntity
  8
0
100
AcDbLine
 10
509.4999999999999
 20
186.0
 30
0.0
 11
509.4999999999999
 21
266.0
 31
0.0
  0
LINE
  5
B1
330
1E
100
AcDbEntity
  8
1
100
AcDbLine
 10
516.0
 20
345.9999999999998
 30
0.0
 11
516.0
 21
190.9999999999998
 31
0.0
  0
LINE
  5
B2
330
1E
100
AcDbEntity
  8
0
100
AcDbLine
 10
522.5
 20
186.0
 30
0.0
 11
509.4999999999999
 21
186.0
 31
0.0
  0
LINE
  5
B3
330
1E
100
AcDbEntity
  8
0
100
AcDbLine
 10
508.0
 20
187.5
 30
0.0
 11
524.0
 21
187.5
 31
0.0
  0
LINE
  5
B4
330
1E
100
AcDbEntity
  8
0
100
AcDbLine
 10
508.0
 20
187.5
 30
0.0
 11
508.0
 21
188.4999999999998
 31
0.0
  0
LINE
  5
B5
330
1E
100
AcDbEntity
  8
0
100
AcDbLine
 10
509.4999999999999
 20
186.0
 30
0.0
 11
508.0
 21
187.5
 31
0.0
  0
LINE
  5
B6
330
1E
100
AcDbEntity
  8
0
100
AcDbLine
 10
524.0
 20
188.0
 30
0.0
 11
524.0
 21
187.5
 31
0.0
  0
LINE
  5
B7
330
1E
100
AcDbEntity
  8
0
100
AcDbLine
 10
524.0
 20
187.5
 30
0.0
 11
522.5
 21
186.0
 31
0.0
  0
LINE
  5
B8
330
1E
100
AcDbEntity
  8
0
100
AcDbLine
 10
516.0
 20
278.0
 30
0.0
 11
501.25
 21
278.0
 31
0.0
  0
LINE
  5
B9
330
1E
100
AcDbEntity
  8
0
100
AcDbLine
 10
516.0
 20
287.9999999999999
 30
0.0
 11
500.75
 21
287.9999999999999
 31
0.0
  0
LINE
  5
BA
330
1E
100
AcDbEntity
  8
0
100
AcDbLine
 10
502.0
 20
308.9999999999998
 30
0.0
 11
500.75
 21
287.9999999999999
 31
0.0
  0
LINE
  5
BB
330
1E
100
AcDbEntity
  8
0
100
AcDbLine
 10
502.7499999999999
 20
287.9999999999999
 30
0.0
 11
503.75
 21
308.9999999999998
 31
0.0
  0
LINE
  5
BC
330
1E
100
AcDbEntity
  8
0
100
AcDbLine
 10
501.25
 20
278.0
 30
0.0
 11
501.25
 21
287.9999999999999
 31
0.0
  0
ARC
  5
BD
330
1E
100
AcDbEntity
  8
0
100
AcDbCircle
 10
504.0244411932785
 20
308.9755588067215
 30
0.0
 40
2.024588727858518
100
AcDbArc
 50
90.69170158790859
 51
179.3082984120914
  0
LINE
  5
BE
330
1E
100
AcDbEntity
  8
0
100
AcDbLine
 10
531.25
 20
287.9999999999999
 30
0.0
 11
529.9999999999998
 21
308.9999999999998
 31
0.0
  0
LINE
  5
BF
330
1E
100
AcDbEntity
  8
0
100
AcDbLine
 10
529.25
 20
287.9999999999999
 30
0.0
 11
528.2499999999998
 21
308.9999999999998
 31
0.0
  0
LINE
  5
C0
330
1E
100
AcDbEntity
  8
0
100
AcDbLine
 10
516.0
 20
287.9999999999999
 30
0.0
 11
531.25
 21
287.9999999999999
 31
0.0
  0
LINE
  5
C1
330
1E
100
AcDbEntity
  8
0
100
AcDbLine
 10
509.4999999999999
 20
264.5
 30
0.0
 11
522.5
 21
264.5
 31
0.0
  0
LINE
  5
C2
330
1E
100
AcDbEntity
  8
0
100
AcDbLine
 10
516.0
 20
278.0
 30
0.0
 11
530.75
 21
278.0
 31
0.0
  0
LINE
  5
C3
330
1E
100
AcDbEntity
  8
0
100
AcDbLine
 10
508.0
 20
266.0
 30
0.0
 11
509.4999999999999
 21
264.5
 31
0.0
  0
LINE
  5
C4
330
1E
100
AcDbEntity
  8
0
100
AcDbLine
 10
530.75
 20
278.0
 30
0.0
 11
530.75
 21
287.9999999999999
 31
0.0
  0
LINE
  5
C5
330
1E
100
AcDbEntity
  8
0
100
AcDbLine
 10
522.5
 20
264.5
 30
0.0
 11
524.0
 21
266.0
 31
0.0
  0
ARC
  5
C6
330
1E
100
AcDbEntity
  8
0
100
AcDbCircle
 10
527.8764645796759
 20
308.8764645796759
 30
0.0
 40
2.127125685389916
100
AcDbArc
 50
3.329395706677719
 51
86.67060429332225
  0
ARC
  5
C7
330
1E
100
AcDbEntity
  8
0
100
AcDbCircle
 10
514.6239423708935
 20
331.2900893154715
 30
0.0
 40
5.878139360392641
100
AcDbArc
 50
133.4834251359405
 51
163.0885626903598
  0
ARC
  5
C8
330
1E
100
AcDbEntity
  8
0
100
AcDbCircle
 10
517.7561301586242
 20
331.456556977345
 30
0.0
 40
5.466295571726067
100
AcDbArc
 50
16.40088685245858
 51
47.96067934315828
  0
LINE
  5
C9
330
1E
100
AcDbEntity
  8
2
100
AcDbLine
 10
520.9999999999999
 20
341.0
 30
0.0
 11
523.5
 21
338.5
 31
0.0
  0
LINE
  5
CA
330
1E
100
AcDbEntity
  8
2
100
AcDbLine
 10
511.0
 20
341.0
 30
0.0
 11
520.9999999999999
 21
341.0
 31
0.0
  0
LINE
  5
CB
330
1E
100
AcDbEntity
  8
0
100
AcDbLine
 10
511.5
 20
335.9999999999998
 30
0.0
 11
520.5
 21
335.9999999999998
 31
0.0
  0
LINE
  5
CC
330
1E
100
AcDbEntity
  8
2
100
AcDbLine
 10
511.0
 20
341.0
 30
0.0
 11
508.4999999999999
 21
338.5
 31
0.0
  0
ARC
  5
CD
330
1E
100
AcDbEntity
  8
0
100
AcDbCircle
 10
520.4512891224023
 20
334.8022243659796
 30
0.0
 40
1.200058504851923
100
AcDbArc
 50
36.5351640189228
 51
87.85755676552797
  0
LINE
  5
CE
330
1E
100
AcDbEntity
  8
0
100
AcDbLine
 10
523.0
 20
333.0
 30
0.0
 11
526.4999999999998
 21
308.9999999999998
 31
0.0
  0
LINE
  5
CF
330
1E
100
AcDbEntity
  8
0
100
AcDbLine
 10
526.4999999999998
 20
308.9999999999998
 30
0.0
 11
528.0
 21
287.9999999999999
 31
0.0
  0
LINE
  5
D0
330
1E
100
AcDbEntity
  8
0
100
AcDbLine
 10
508.9999999999999
 20
333.0
 30
0.0
 11
505.4999999999999
 21
308.9999999999998
 31
0.0
  0
LINE
  5
D1
330
1E
100
AcDbEntity
  8
0
100
AcDbLine
 10
505.4999999999999
 20
308.9999999999998
 30
0.0
 11
504.0
 21
287.9999999999999
 31
0.0
  0
LINE
  5
D2
330
1E
100
AcDbEntity
  8
0
100
AcDbLine
 10
161.0
 20
333.0
 30
0.0
 11
164.2039949001274
 21
311.0297492562684
 31
0.0
  0
LINE
  5
D3
330
1E
100
AcDbEntity
  8
0
100
AcDbLine
 10
143.7960050998725
 20
311.0297492562684
 30
0.0
 11
146.9999999999998
 21
333.0
 31
0.0
  0
LINE
  5
D4
330
1E
100
AcDbEntity
  8
0
100
AcDbLine
 10
510.5787536986841
 20
335.5550814478539
 30
0.0
 11
510.6054963089778
 21
335.5944498850306
 31
0.0
  0
ARC
  5
D5
330
1E
100
AcDbEntity
  8
0
100
AcDbCircle
 10
511.6176719937124
 20
334.554281654453
 30
0.0
 40
1.448225108623379
100
AcDbArc
 50
94.48999356090462
 51
134.6523447882105
  0
ARC
  5
D6
330
1E
100
AcDbEntity
  8
0
100
AcDbCircle
 10
516.0
 20
325.3
 30
0.0
 40
7.300000000000006
100
AcDbArc
 50
221.1120904391668
 51
318.887909560833
  0
LINE
  5
D7
330
1E
100
AcDbEntity
  8
0
100
AcDbLine
 10
521.4999999999998
 20
320.5
 30
0.0
 11
522.5
 21
330.0
 31
0.0
  0
LINE
  5
D8
330
1E
100
AcDbEntity
  8
0
100
AcDbLine
 10
510.5
 20
320.5
 30
0.0
 11
509.4999999999999
 21
330.0
 31
0.0
  0
ARC
  5
D9
330
1E
100
AcDbEntity
  8
0
100
AcDbCircle
 10
516.0
 20
322.5416666666665
 30
0.0
 40
16.54166666666667
100
AcDbArc
 50
234.9488632525543
 51
305.0511367474456
  0
LINE
  5
DA
330
1E
100
AcDbEntity
  8
0
100
AcDbLine
 10
505.7918590248987
 20
310.9999999999998
 30
0.0
 11
504.0
 21
310.9999999999998
 31
0.0
  0
LINE
  5
DB
330
1E
100
AcDbEntity
  8
0
100
AcDbLine
 10
526.208112218638
 20
310.9999999999998
 30
0.0
 11
528.0
 21
310.9999999999998
 31
0.0
  0
LINE
  5
DC
330
1E
100
AcDbEntity
  8
1
100
AcDbLine
 10
279.0
 20
393.9999999999999
 30
0.0
 11
279.0
 21
441.9999999999999
 31
0.0
  0
LINE
  5
DD
330
1E
100
AcDbEntity
  8
1
100
AcDbLine
 10
259.5
 20
418.5
 30
0.0
 11
398.0
 21
418.5
 31
0.0
  0
ARC
  5
DE
330
1E
100
AcDbEntity
  8
0
100
AcDbCircle
 10
289.3430757984555
 20
418.5
 30
0.0
 40
25.57452075668248
100
AcDbArc
 50
153.2777241866563
 51
206.7222758133434
  0
ARC
  5
DF
330
1E
100
AcDbEntity
  8
0
100
AcDbCircle
 10
279.0
 20
408.5771551068396
 30
0.0
 40
25.19988041842112
100
AcDbArc
 50
62.84808236671807
 51
117.1519176332819
  0
ARC
  5
E0
330
1E
100
AcDbEntity
  8
0
100
AcDbCircle
 10
268.9463593614264
 20
418.5
 30
0.0
 40
25.31633279236767
100
AcDbArc
 50
332.9831698828962
 51
334.4754265127324
  0
ARC
  5
E1
330
1E
100
AcDbEntity
  8
0
100
AcDbCircle
 10
279.0
 20
428.5460584563459
 30
0.0
 40
25.30957826430485
100
AcDbArc
 50
242.9753728568058
 51
297.0246271431942
  0
ARC
  5
E2
330
1E
100
AcDbEntity
  8
0
100
AcDbCircle
 10
288.3
 20
418.5
 30
0.0
 40
23.3
100
AcDbArc
 50
153.2150044924978
 51
206.784995507502
  0
ARC
  5
E3
330
1E
100
AcDbEntity
  8
0
100
AcDbCircle
 10
279.0
 20
409.1999999999999
 30
0.0
 40
23.3
100
AcDbArc
 50
63.21500449249779
 51
116.7849955075022
  0
ARC
  5
E4
330
1E
100
AcDbEntity
  8
0
100
AcDbCircle
 10
279.0
 20
427.8
 30
0.0
 40
23.3
100
AcDbArc
 50
243.2150044924978
 51
296.784995507502
  0
ARC
  5
E5
330
1E
100
AcDbEntity
  8
0
100
AcDbCircle
 10
288.2499999999998
 20
418.5
 30
0.0
 40
21.25
100
AcDbArc
 50
154.9423845817003
 51
205.0576154182996
  0
ARC
  5
E6
330
1E
100
AcDbEntity
  8
0
100
AcDbCircle
 10
279.0
 20
409.25
 30
0.0
 40
21.25
100
AcDbArc
 50
64.942384581697
 51
115.0576154183029
  0
ARC
  5
E7
330
1E
100
AcDbEntity
  8
0
100
AcDbCircle
 10
279.0
 20
427.7499999999999
 30
0.0
 40
21.25
100
AcDbArc
 50
244.9423845816968
 51
295.0576154183029
  0
ARC
  5
E8
330
1E
100
AcDbEntity
  8
0
100
AcDbCircle
 10
271.4356930687102
 20
426.0643069312897
 30
0.0
 40
2.827333604742329
100
AcDbArc
 50
120.516766019257
 51
149.4832339807428
  0
ARC
  5
E9
330
1E
100
AcDbEntity
  8
0
100
AcDbCircle
 10
269.4407166055741
 20
428.0592833944257
 30
0.0
 40
2.156693922454896
100
AcDbArc
 50
115.8606937196833
 51
154.1393062803233
  0
ARC
  5
EA
330
1E
100
AcDbEntity
  8
0
100
AcDbCircle
 10
268.417956522014
 20
429.0820434779858
 30
0.0
 40
2.126311688498403
100
AcDbArc
 50
115.5763243426713
 51
154.4236756573338
  0
ARC
  5
EB
330
1E
100
AcDbEntity
  8
0
100
AcDbCircle
 10
289.823092502329
 20
429.3230925023289
 30
0.0
 40
1.808375656811476
100
AcDbArc
 50
21.98216525062689
 51
68.01783474937289
  0
ARC
  5
EC
330
1E
100
AcDbEntity
  8
0
100
AcDbCircle
 10
289.0055920494264
 20
428.5055920494263
 30
0.0
 40
1.574069358169432
100
AcDbArc
 50
18.30621278758808
 51
71.69378721241192
  0
ARC
  5
ED
330
1E
100
AcDbEntity
  8
0
100
AcDbCircle
 10
290.0076461183426
 20
407.4923538816571
 30
0.0
 40
1.571474610956373
100
AcDbArc
 50
288.2586347572089
 51
341.7413652427907
  0
ARC
  5
EE
330
1E
100
AcDbEntity
  8
0
100
AcDbCircle
 10
288.7543117392502
 20
408.7456882607496
 30
0.0
 40
1.898283036309281
100
AcDbArc
 50
293.1302370930925
 51
336.869762906908
  0
ARC
  5
EF
330
1E
100
AcDbEntity
  8
0
100
AcDbCircle
 10
287.538137135858
 20
409.9618628641418
 30
0.0
 40
1.533088496738034
100
AcDbArc
 50
287.5334785805413
 51
318.5908522547903
  0
ARC
  5
F0
330
1E
100
AcDbEntity
  8
0
100
AcDbCircle
 10
268.4890374912814
 20
407.9890374912814
 30
0.0
 40
2.221365638719401
100
AcDbArc
 50
206.4385985416694
 51
243.5614014583197
  0
ARC
  5
F1
330
1E
100
AcDbEntity
  8
0
100
AcDbCircle
 10
269.5637862954356
 20
409.0637862954356
 30
0.0
 40
2.321821516737384
100
AcDbArc
 50
207.2690097550006
 51
242.7309902449993
  0
ARC
  5
F2
330
1E
100
AcDbEntity
  8
0
100
AcDbCircle
 10
270.6965262262738
 20
410.1965262262738
 30
0.0
 40
1.833943843284922
100
AcDbArc
 50
202.3211040911469
 51
247.6788959088526
  0
LINE
  5
F3
330
1E
100
AcDbEntity
  8
0
100
AcDbLine
 10
389.0
 20
412.5
 30
0.0
 11
389.0
 21
424.5
 31
0.0
  0
LINE
  5
F4
330
1E
100
AcDbEntity
  8
0
100
AcDbLine
 10
386.5
 20
413.9999999999999
 30
0.0
 11
386.5
 21
423.0
 31
0.0
  0
LINE
  5
F5
330
1E
100
AcDbEntity
  8
0
100
AcDbLine
 10
387.0
 20
425.4999999999999
 30
0.0
 11
297.0
 21
429.4999999999999
 31
0.0
  0
LINE
  5
F6
330
1E
100
AcDbEntity
  8
0
100
AcDbLine
 10
387.0
 20
411.5
 30
0.0
 11
297.0
 21
407.5
 31
0.0
  0
LINE
  5
F7
330
1E
100
AcDbEntity
  8
0
100
AcDbLine
 10
291.9999999999999
 20
418.5
 30
0.0
 11
291.9999999999999
 21
425.9999999999999
 31
0.0
  0
LINE
  5
F8
330
1E
100
AcDbEntity
  8
0
100
AcDbLine
 10
291.9999999999999
 20
418.5
 30
0.0
 11
291.9999999999999
 21
411.0
 31
0.0
  0
LINE
  5
F9
330
1E
100
AcDbEntity
  8
0
100
AcDbLine
 10
385.5
 20
412.9999999999999
 30
0.0
 11
291.9999999999999
 21
411.0
 31
0.0
  0
LINE
  5
FA
330
1E
100
AcDbEntity
  8
0
100
AcDbLine
 10
385.5
 20
424.0
 30
0.0
 11
291.9999999999999
 21
425.9999999999999
 31
0.0
  0
LINE
  5
FB
330
1E
100
AcDbEntity
  8
0
100
AcDbLine
 10
297.0
 20
429.4999999999999
 30
0.0
 11
291.9999999999999
 21
429.4999999999999
 31
0.0
  0
LINE
  5
FC
330
1E
100
AcDbEntity
  8
0
100
AcDbLine
 10
297.0
 20
407.5
 30
0.0
 11
291.9999999999999
 21
407.5
 31
0.0
  0
CIRCLE
  5
FD
330
1E
100
AcDbEntity
  8
0
100
AcDbCircle
 10
279.0
 20
418.5
 30
0.0
 40
8.5
  0
CIRCLE
  5
FE
330
1E
100
AcDbEntity
  8
0
100
AcDbCircle
 10
279.0
 20
418.5
 30
0.0
 40
8.75
  0
LINE
  5
FF
330
1E
100
AcDbEntity
  8
0
100
AcDbLine
 10
291.9999999999999
 20
425.9999999999999
 30
0.0
 11
283.9999999999998
 21
425.9999999999999
 31
0.0
  0
LINE
  5
100
330
1E
100
AcDbEntity
  8
0
100
AcDbLine
 10
291.9999999999999
 20
411.0
 30
0.0
 11
284.0031294599191
 21
411.0
 31
0.0
  0
LINE
  5
101
330
1E
100
AcDbEntity
  8
0
100
AcDbLine
 10
283.9999999999998
 20
425.9999999999999
 30
0.0
 11
291.9999999999999
 21
429.4999999999999
 31
0.0
  0
LINE
  5
102
330
1E
100
AcDbEntity
  8
0
100
AcDbLine
 10
283.9999999999998
 20
411.0
 30
0.0
 11
291.9999999999999
 21
407.5
 31
0.0
  0
LINE
  5
103
330
1E
100
AcDbEntity
  8
0
100
AcDbLine
 10
298.0
 20
421.4999999999999
 30
0.0
 11
298.0
 21
415.5
 31
0.0
  0
LINE
  5
104
330
1E
100
AcDbEntity
  8
0
100
AcDbLine
 10
298.4999999999999
 20
421.9999999999999
 30
0.0
 11
309.5
 21
421.9999999999999
 31
0.0
  0
LINE
  5
105
330
1E
100
AcDbEntity
  8
0
100
AcDbLine
 10
310.0
 20
421.4999999999999
 30
0.0
 11
310.0
 21
415.5
 31
0.0
  0
LINE
  5
106
330
1E
100
AcDbEntity
  8
0
100
AcDbLine
 10
309.5
 20
415.0
 30
0.0
 11
298.4999999999999
 21
415.0
 31
0.0
  0
ARC
  5
107
330
1E
100
AcDbEntity
  8
0
100
AcDbCircle
 10
385.5383504472441
 20
423.0383504472441
 30
0.0
 40
0.9624139541378287
100
AcDbArc
 50
357.7162626453708
 51
92.28373735462904
  0
ARC
  5
108
330
1E
100
AcDbEntity
  8
0
100
AcDbCircle
 10
387.0
 20
423.0
 30
0.0
 40
2.5
100
AcDbArc
 50
36.86989764584402
 51
90.0
  0
ARC
  5
109
330
1E
100
AcDbEntity
  8
0
100
AcDbCircle
 10
385.478357122096
 20
414.0216428779039
 30
0.0
 40
1.021872097738188
100
AcDbArc
 50
271.2135944323986
 51
358.7864055676012
  0
ARC
  5
10A
330
1E
100
AcDbEntity
  8
0
100
AcDbCircle
 10
387.0
 20
413.9999999999999
 30
0.0
 40
2.5
100
AcDbArc
 50
270.0
 51
323.130102354156
  0
ARC
  5
10B
330
1E
100
AcDbEntity
  8
0
100
AcDbCircle
 10
309.5175837996318
 20
421.5175837996319
 30
0.0
 40
0.4827365538127843
100
AcDbArc
 50
357.9125251267157
 51
92.08747487328414
  0
ARC
  5
10C
330
1E
100
AcDbEntity
  8
0
100
AcDbCircle
 10
309.4689409924948
 20
415.5310590075051
 30
0.0
 40
0.5319664758230458
100
AcDbArc
 50
273.3471331643244
 51
356.6528668356753
  0
ARC
  5
10D
330
1E
100
AcDbEntity
  8
0
100
AcDbCircle
 10
298.5822817872302
 20
421.4177182127696
 30
0.0
 40
0.5880666392935743
100
AcDbArc
 50
98.04316812198202
 51
171.9568318780179
  0
ARC
  5
10E
330
1E
100
AcDbEntity
  8
0
100
AcDbCircle
 10
298.635650053167
 20
415.635650053167
 30
0.0
 40
0.6499630197291526
100
AcDbArc
 50
192.0464295685478
 51
257.9535704314519
  0
LINE
  5
10F
330
1E
100
AcDbEntity
  8
0
100
AcDbLine
 10
279.4999999999999
 20
426.9700165723101
 30
0.0
 11
279.4999999999999
 21
410.0311147866445
 31
0.0
  0
LINE
  5
110
330
1E
100
AcDbEntity
  8
0
100
AcDbLine
 10
278.5
 20
410.0311147866445
 30
0.0
 11
278.5
 21
426.9700165723101
 31
0.0
  0
LINE
  5
111
330
1E
100
AcDbEntity
  8
0
100
AcDbLine
 10
387.0
 20
113.5
 30
0.0
 11
297.0
 21
109.4999999999999
 31
0.0
  0
LINE
  5
112
330
1E
100
AcDbEntity
  8
0
100
AcDbLine
 10
387.0
 20
127.5
 30
0.0
 11
297.0
 21
131.4999999999998
 31
0.0
  0
LINE
  5
113
330
1E
100
AcDbEntity
  8
1
100
AcDbLine
 10
259.5
 20
120.5
 30
0.0
 11
398.0
 21
120.5
 31
0.0
  0
LINE
  5
114
330
1E
100
AcDbEntity
  8
1
100
AcDbLine
 10
279.0
 20
96.0
 30
0.0
 11
279.0
 21
143.9999999999998
 31
0.0
  0
ARC
  5
115
330
1E
100
AcDbEntity
  8
0
100
AcDbCircle
 10
279.0
 20
130.546058456346
 30
0.0
 40
25.30957826430485
100
AcDbArc
 50
242.9753728568058
 51
297.0246271431942
  0
ARC
  5
116
330
1E
100
AcDbEntity
  8
0
100
AcDbCircle
 10
279.0
 20
110.5771551068396
 30
0.0
 40
25.19988041842112
100
AcDbArc
 50
62.84808236671807
 51
117.1519176332819
  0
ARC
  5
117
330
1E
100
AcDbEntity
  8
0
100
AcDbCircle
 10
289.3430757984555
 20
120.5
 30
0.0
 40
25.57452075668248
100
AcDbArc
 50
153.2777241866563
 51
206.7222758133434
  0
ARC
  5
118
330
1E
100
AcDbEntity
  8
0
100
AcDbCircle
 10
268.4890374912814
 20
109.9890374912814
 30
0.0
 40
2.221365638719401
100
AcDbArc
 50
206.4385985416694
 51
243.5614014583197
  0
ARC
  5
119
330
1E
100
AcDbEntity
  8
0
100
AcDbCircle
 10
268.417956522014
 20
131.0820434779857
 30
0.0
 40
2.126311688498403
100
AcDbArc
 50
115.5763243426713
 51
154.4236756573338
  0
ARC
  5
11A
330
1E
100
AcDbEntity
  8
0
100
AcDbCircle
 10
268.9463593614264
 20
120.5
 30
0.0
 40
25.31633279236767
100
AcDbArc
 50
332.9831698828962
 51
27.01683011710378
  0
LINE
  5
11B
330
1E
100
AcDbEntity
  8
0
100
AcDbLine
 10
297.0
 20
109.4999999999999
 30
0.0
 11
291.9999999999999
 21
109.4999999999999
 31
0.0
  0
ARC
  5
11C
330
1E
100
AcDbEntity
  8
0
100
AcDbCircle
 10
290.0076461183426
 20
109.4923538816571
 30
0.0
 40
1.571474610956373
100
AcDbArc
 50
288.2586347572089
 51
341.7413652427907
  0
LINE
  5
11D
330
1E
100
AcDbEntity
  8
0
100
AcDbLine
 10
297.0
 20
131.4999999999998
 30
0.0
 11
291.9999999999999
 21
131.4999999999998
 31
0.0
  0
ARC
  5
11E
330
1E
100
AcDbEntity
  8
0
100
AcDbCircle
 10
289.823092502329
 20
131.323092502329
 30
0.0
 40
1.808375656811476
100
AcDbArc
 50
21.98216525062689
 51
68.01783474937289
  0
LINE
  5
11F
330
1E
100
AcDbEntity
  8
0
100
AcDbLine
 10
389.0
 20
114.5
 30
0.0
 11
389.0
 21
126.5
 31
0.0
  0
ARC
  5
120
330
1E
100
AcDbEntity
  8
0
100
AcDbCircle
 10
387.0
 20
115.9999999999999
 30
0.0
 40
2.5
100
AcDbArc
 50
270.0
 51
323.130102354156
  0
ARC
  5
121
330
1E
100
AcDbEntity
  8
0
100
AcDbCircle
 10
387.0
 20
125.0
 30
0.0
 40
2.5
100
AcDbArc
 50
36.86989764584402
 51
90.0
  0
ARC
  5
122
330
1E
100
AcDbEntity
  8
0
100
AcDbCircle
 10
268.9463593614264
 20
418.5
 30
0.0
 40
25.31633279236767
100
AcDbArc
 50
25.52762087881138
 51
27.01683011710378
  0
LINE
  5
123
330
1E
100
AcDbEntity
  8
0
100
AcDbLine
 10
290.5005126094028
 20
428.9995945892281
 30
0.0
 11
290.571773161758
 21
428.8761116468383
 31
0.0
  0
ARC
  5
124
330
1E
100
AcDbEntity
  8
0
100
AcDbCircle
 10
287.6973011807063
 20
427.1973011807063
 30
0.0
 40
1.337404497147614
100
AcDbArc
 50
40.42605474338797
 51
76.91872218260143
  0
LINE
  5
125
330
1E
100
AcDbEntity
  8
0
100
AcDbLine
 10
290.4991664319968
 20
407.9984854653015
 30
0.0
 11
290.5936774946551
 21
408.1160768953735
 31
0.0
  0
ARC
  5
126
330
1E
100
AcDbEntity
  8
0
100
AcDbCircle
 10
279.2328942443237
 20
418.4891847588891
 30
0.0
 40
8.895190192016812
100
AcDbArc
 50
302.6559092118248
 51
57.56292668970608
  0
LINE
  5
127
330
1E
100
AcDbEntity
  8
11
100
AcDbLine
 10
299.5
 20
415.5
 30
0.0
 11
299.5
 21
421.4999999999999
 31
0.0
  0
LINE
  5
128
330
1E
100
AcDbEntity
  8
11
100
AcDbLine
 10
299.5
 20
418.5
 30
0.0
 11
302.4999999999999
 21
421.4999999999999
 31
0.0
  0
LINE
  5
129
330
1E
100
AcDbEntity
  8
11
100
AcDbLine
 10
302.4999999999999
 20
421.4999999999999
 30
0.0
 11
308.4999999999999
 21
421.4999999999999
 31
0.0
  0
ARC
  5
12A
330
1E
100
AcDbEntity
  8
11
100
AcDbCircle
 10
300.2717391304348
 20
415.8586956521737
 30
0.0
 40
2.75173943957074
100
AcDbArc
 50
352.510047315367
 51
106.2873633946241
  0
LINE
  5
12B
330
1E
100
AcDbEntity
  8
11
100
AcDbLine
 10
304.0
 20
415.5
 30
0.0
 11
304.0
 21
420.5
 31
0.0
  0
LINE
  5
12C
330
1E
100
AcDbEntity
  8
11
100
AcDbLine
 10
304.0
 20
420.5
 30
0.0
 11
306.4999999999999
 21
415.5
 31
0.0
  0
LINE
  5
12D
330
1E
100
AcDbEntity
  8
11
100
AcDbLine
 10
306.4999999999999
 20
415.5
 30
0.0
 11
306.4999999999999
 21
420.5
 31
0.0
  0
ARC
  5
12E
330
1E
100
AcDbEntity
  8
11
100
AcDbCircle
 10
308.0
 20
416.75
 30
0.0
 40
1.25
100
AcDbArc
 50
270.0
 51
36.869897645844
  0
ARC
  5
12F
330
1E
100
AcDbEntity
  8
11
100
AcDbCircle
 10
308.109020798735
 20
419.5352448003161
 30
0.0
 40
1.040969418925753
100
AcDbArc
 50
67.93912795396257
 51
263.9883851101842
  0
ARC
  5
130
330
1E
100
AcDbEntity
  8
11
100
AcDbCircle
 10
307.948461463961
 20
416.7076064112603
 30
0.0
 40
1.208705698346156
100
AcDbArc
 50
215.2767072300079
 51
272.4438009478012
  0
ARC
  5
131
330
1E
100
AcDbEntity
  8
11
100
AcDbCircle
 10
306.8761964161405
 20
416.4006519317676
 30
0.0
 40
2.405887471848276
100
AcDbArc
 50
27.0800376316121
 51
61.9274231665322
  0
POLYLINE
  5
132
330
1E
100
AcDbEntity
  8
11
100
AcDb2dPolyline
 66
     1
 10
0.0
 20
0.0
 30
0.0
 70
   129
  0
VERTEX
  5
133
330
132
100
AcDbEntity
  8
11
100
AcDbVertex
100
AcDb2dVertex
 10
387.4788361894804
 20
120.441926437673
 30
0.0
 42
0.0666170133484742
  0
VERTEX
  5
134
330
132
100
AcDbEntity
  8
11
100
AcDbVertex
100
AcDb2dVertex
 10
387.2354132820198
 20
122.5712992852237
 30
0.0
 42
0.0791339327101152
  0
VERTEX
  5
135
330
132
100
AcDbEntity
  8
11
100
AcDbVertex
100
AcDb2dVertex
 10
386.5235532735404
 20
124.2327326367415
 30
0.0
 42
0.1071539871491237
 70
     2
 50
122.2424857433057
  0
VERTEX
  5
136
330
132
100
AcDbEntity
  8
11
100
AcDbVertex
100
AcDb2dVertex
 10
385.3231837626746
 20
125.4553146338462
 30
0.0
 42
0.1413954551164324
 50
122.2424857433057
  0
VERTEX
  5
137
330
132
100
AcDbEntity
  8
11
100
AcDbVertex
100
AcDb2dVertex
 10
384.0723579063553
 20
125.8424370490432
 30
0.0
 42
0.1413954551164593
  0
VERTEX
  5
138
330
132
100
AcDbEntity
  8
11
100
AcDbVertex
100
AcDb2dVertex
 10
382.8075822338529
 20
125.50365749619
 30
0.0
 42
0.107153987149139
  0
VERTEX
  5
139
330
132
100
AcDbEntity
  8
11
100
AcDbVertex
100
AcDb2dVertex
 10
381.5611270899956
 20
124.3280966612636
 30
0.0
 42
0.0791339327101184
 70
     2
 50
235.5556543382661
  0
VERTEX
  5
13A
330
132
100
AcDbEntity
  8
11
100
AcDbVertex
100
AcDb2dVertex
 10
380.7859599898193
 20
122.6952398334882
 30
0.0
 42
0.0666170133484624
 50
235.5556543382661
  0
VERTEX
  5
13B
330
132
100
AcDbEntity
  8
11
100
AcDbVertex
100
AcDb2dVertex
 10
380.4609057784359
 20
120.5767915345149
 30
0.0
 42
0.066617013348464
  0
VERTEX
  5
13C
330
132
100
AcDbEntity
  8
11
100
AcDbVertex
100
AcDb2dVertex
 10
380.7043286858965
 20
118.4474186869644
 30
0.0
 42
0.0791339327101131
  0
VERTEX
  5
13D
330
132
100
AcDbEntity
  8
11
100
AcDbVertex
100
AcDb2dVertex
 10
381.4161886943758
 20
116.7859853354465
 30
0.0
 42
0.1071539871491594
 70
     2
 50
302.2424857433056
  0
VERTEX
  5
13E
330
132
100
AcDbEntity
  8
11
100
AcDbVertex
100
AcDb2dVertex
 10
382.6165582052419
 20
115.5634033383418
 30
0.0
 42
0.1413954551164667
 50
302.2424857433056
  0
VERTEX
  5
13F
330
132
100
AcDbEntity
  8
11
100
AcDbVertex
100
AcDb2dVertex
 10
383.8673840615611
 20
115.1762809231449
 30
0.0
 42
0.1413954551164536
  0
VERTEX
  5
140
330
132
100
AcDbEntity
  8
11
100
AcDbVertex
100
AcDb2dVertex
 10
385.1321597340633
 20
115.5150604759979
 30
0.0
 42
0.1071539871491277
  0
VERTEX
  5
141
330
132
100
AcDbEntity
  8
11
100
AcDbVertex
100
AcDb2dVertex
 10
386.3786148779207
 20
116.6906213109242
 30
0.0
 42
0.0791339327101121
 70
     2
 50
55.55565433826629
  0
VERTEX
  5
142
330
132
100
AcDbEntity
  8
11
100
AcDbVertex
100
AcDb2dVertex
 10
387.153781978097
 20
118.3234781386995
 30
0.0
 42
0.0666170133484695
 50
55.55565433826629
  0
SEQEND
  5
143
330
132
100
AcDbEntity
  8
11
  0
POLYLINE
  5
144
330
1E
100
AcDbEntity
  8
11
100
AcDb2dPolyline
 66
     1
 10
0.0
 20
0.0
 30
0.0
 70
   129
  0
VERTEX
  5
145
330
144
100
AcDbEntity
  8
11
100
AcDbVertex
100
AcDb2dVertex
 10
312.9999999999999
 20
120.5
 30
0.0
 42
0.1206048578442225
  0
VERTEX
  5
146
330
144
100
AcDbEntity
  8
11
100
AcDbVertex
100
AcDb2dVertex
 10
312.3508229778943
 20
123.1521916636014
 30
0.0
 42
0.1050703123706425
  0
VERTEX
  5
147
330
144
100
AcDbEntity
  8
11
100
AcDbVertex
100
AcDb2dVertex
 10
310.3639610306788
 20
125.5621141828291
 30
0.0
 42
0.0886492733473429
 70
     2
 50
141.5000495907521
  0
VERTEX
  5
148
330
144
100
AcDbEntity
  8
11
100
AcDbVertex
100
AcDb2dVertex
 10
307.5300696004532
 20
127.0923473052059
 30
0.0
 42
0.0797379375735829
 50
141.5000495907521
  0
VERTEX
  5
149
330
144
100
AcDbEntity
  8
11
100
AcDbVertex
100
AcDb2dVertex
 10
304.0
 20
127.658910531638
 30
0.0
 42
0.0797379375735788
  0
VERTEX
  5
14A
330
144
100
AcDbEntity
  8
11
100
AcDbVertex
100
AcDb2dVertex
 10
300.4699303995467
 20
127.0923473052059
 30
0.0
 42
0.0886492733473478
  0
VERTEX
  5
14B
330
144
100
AcDbEntity
  8
11
100
AcDbVertex
100
AcDb2dVertex
 10
297.636038969321
 20
125.5621141828291
 30
0.0
 42
0.1050703123706392
 70
     2
 50
218.4999504092477
  0
VERTEX
  5
14C
330
144
100
AcDbEntity
  8
11
100
AcDbVertex
100
AcDb2dVertex
 10
295.6491770221056
 20
123.1521916636016
 30
0.0
 42
0.1206048578442355
 50
218.4999504092477
  0
VERTEX
  5
14D
330
144
100
AcDbEntity
  8
11
100
AcDbVertex
100
AcDb2dVertex
 10
295.0
 20
120.5
 30
0.0
 42
0.1206048578442355
  0
VERTEX
  5
14E
330
144
100
AcDbEntity
  8
11
100
AcDbVertex
100
AcDb2dVertex
 10
295.6491770221056
 20
117.8478083363982
 30
0.0
 42
0.1050703123706392
  0
VERTEX
  5
14F
330
144
100
AcDbEntity
  8
11
100
AcDbVertex
100
AcDb2dVertex
 10
297.636038969321
 20
115.4378858171708
 30
0.0
 42
0.0886492733473465
 70
     2
 50
321.5000495907521
  0
VERTEX
  5
150
330
144
100
AcDbEntity
  8
11
100
AcDbVertex
100
AcDb2dVertex
 10
300.4699303995466
 20
113.907652694794
 30
0.0
 42
0.0797379375735895
 50
321.5000495907521
  0
VERTEX
  5
151
330
144
100
AcDbEntity
  8
11
100
AcDbVertex
100
AcDb2dVertex
 10
304.0
 20
113.3410894683618
 30
0.0
 42
0.0797379375735908
  0
VERTEX
  5
152
330
144
100
AcDbEntity
  8
11
100
AcDbVertex
100
AcDb2dVertex
 10
307.5300696004532
 20
113.907652694794
 30
0.0
 42
0.0886492733473508
  0
VERTEX
  5
153
330
144
100
AcDbEntity
  8
11
100
AcDbVertex
100
AcDb2dVertex
 10
310.3639610306788
 20
115.4378858171708
 30
0.0
 42
0.1050703123706438
 70
     2
 50
38.49995040924788
  0
VERTEX
  5
154
330
144
100
AcDbEntity
  8
11
100
AcDbVertex
100
AcDb2dVertex
 10
312.3508229778941
 20
117.8478083363982
 30
0.0
 42
0.1206048578442302
 50
38.49995040924788
  0
SEQEND
  5
155
330
144
100
AcDbEntity
  8
11
  0
CIRCLE
  5
156
330
1E
100
AcDbEntity
  8
0
100
AcDbCircle
 10
279.0
 20
120.5
 30
0.0
 40
15.0
  0
CIRCLE
  5
157
330
1E
100
AcDbEntity
  8
0
100
AcDbCircle
 10
279.0
 20
120.5
 30
0.0
 40
11.5
  0
CIRCLE
  5
158
330
1E
100
AcDbEntity
  8
0
100
AcDbCircle
 10
279.0
 20
120.5
 30
0.0
 40
8.0
  0
CIRCLE
  5
159
330
1E
100
AcDbEntity
  8
0
100
AcDbCircle
 10
279.0
 20
120.5
 30
0.0
 40
6.5
  0
LINE
  5
15A
330
1E
100
AcDbEntity
  8
0
100
AcDbLine
 10
165.5
 20
278.0
 30
0.0
 11
165.5
 21
266.0
 31
0.0
  0
LINE
  5
15B
330
1E
100
AcDbEntity
  8
0
100
AcDbLine
 10
165.5
 20
266.0
 30
0.0
 11
142.5
 21
266.0
 31
0.0
  0
LINE
  5
15C
330
1E
100
AcDbEntity
  8
0
100
AcDbLine
 10
142.5
 20
266.0
 30
0.0
 11
142.5
 21
278.0
 31
0.0
  0
LINE
  5
15D
330
1E
100
AcDbEntity
  8
1
100
AcDbLine
 10
154.0
 20
190.9999999999998
 30
0.0
 11
154.0
 21
179.0
 31
0.0
  0
LINE
  5
15E
330
1E
100
AcDbEntity
  8
1
100
AcDbLine
 10
279.0
 20
190.9999999999998
 30
0.0
 11
279.0
 21
179.0
 31
0.0
  0
LINE
  5
15F
330
1E
100
AcDbEntity
  8
0
100
AcDbLine
 10
290.5
 20
278.0
 30
0.0
 11
290.5
 21
266.0
 31
0.0
  0
LINE
  5
160
330
1E
100
AcDbEntity
  8
0
100
AcDbLine
 10
290.5
 20
266.0
 30
0.0
 11
267.5
 21
266.0
 31
0.0
  0
LINE
  5
161
330
1E
100
AcDbEntity
  8
0
100
AcDbLine
 10
267.5
 20
266.0
 30
0.0
 11
267.5
 21
278.0
 31
0.0
  0
LINE
  5
162
330
1E
100
AcDbEntity
  8
0
100
AcDbLine
 10
527.5
 20
278.0
 30
0.0
 11
527.5
 21
266.0
 31
0.0
  0
LINE
  5
163
330
1E
100
AcDbEntity
  8
0
100
AcDbLine
 10
527.5
 20
266.0
 30
0.0
 11
504.4999999999999
 21
266.0
 31
0.0
  0
LINE
  5
164
330
1E
100
AcDbEntity
  8
0
100
AcDbLine
 10
504.4999999999999
 20
266.0
 30
0.0
 11
504.4999999999999
 21
278.0
 31
0.0
  0
LINE
  5
165
330
1E
100
AcDbEntity
  8
1
100
AcDbLine
 10
516.0
 20
190.9999999999998
 30
0.0
 11
516.0
 21
179.0
 31
0.0
  0
TEXT
  5
275
330
1E
100
AcDbEntity
  8
0
100
AcDbText
 10
428.7046806687312
 20
139.5311017462317
 30
0.0
 40
10.0
  1
KR16-80
 41
0.8
  7
BIGFONT
100
AcDbText
  0
ENDSEC
  0
SECTION
  2
OBJECTS
  0
DICTIONARY
  5
C
330
0
100
AcDbDictionary
281
     1
  3
ACAD_GROUP
350
D
  3
ACAD_LAYOUT
350
19
  3
ACAD_MLINESTYLE
350
16
  3
ACAD_PLOTSETTINGS
350
18
  3
ACAD_PLOTSTYLENAME
350
E
  3
AcDbVariableDictionary
350
270
  3
AcmDictionary
350
223
  3
AMG
350
168
  3
AMGSNAPSETTINGS
350
261
  3
DWGPROPS
350
226
  3
MAPISURF_MODULE
350
1F5
  0
DICTIONARY
  5
268
330
1E
100
AcDbDictionary
280
     1
281
     1
  3
ACAD_INDEX
360
269
  0
DICTIONARY
  5
D
102
{ACAD_REACTORS
330
C
102
}
330
C
100
AcDbDictionary
281
     1
  0
DICTIONARY
  5
19
102
{ACAD_REACTORS
330
C
102
}
330
C
100
AcDbDictionary
281
     1
  3
Model
350
21
  3
ﾚｲｱｳﾄ1
350
1D
  0
DICTIONARY
  5
16
102
{ACAD_REACTORS
330
C
102
}
330
C
100
AcDbDictionary
281
     1
  3
Standard
350
17
  0
DICTIONARY
  5
18
102
{ACAD_REACTORS
330
C
102
}
330
C
100
AcDbDictionary
281
     1
  0
ACDBDICTIONARYWDFLT
  5
E
102
{ACAD_REACTORS
330
C
102
}
330
C
100
AcDbDictionary
281
     1
  3
Normal
350
F
100
AcDbDictionaryWithDefault
340
F
  0
DICTIONARY
  5
270
102
{ACAD_REACTORS
330
C
102
}
330
C
100
AcDbDictionary
281
     1
  3
DIMASSOC
350
272
  3
INDEXCTL
350
271
  0
DICTIONARY
  5
223
102
{ACAD_REACTORS
330
C
102
}
330
C
100
AcDbDictionary
281
     1
  3
AcmBOMDATA
350
224
  3
AcmStdDictionary
350
232
  0
DICTIONARY
  5
168
102
{ACAD_REACTORS
330
C
102
}
330
C
100
AcDbDictionary
281
     1
  3
AcMgSettings
350
169
  3
AMGLAYCFG
350
234
  0
DICTIONARY
  5
261
102
{ACAD_REACTORS
330
C
102
}
330
C
100
AcDbDictionary
281
     1
  3
DIMENSION
350
266
  3
FEA
350
265
  3
HATCH (1)
350
262
  3
HATCH (2)
350
263
  3
SIMPLE WELD
350
267
  3
SYMBOLS
350
264
  0
XRECORD
  5
226
102
{ACAD_REACTORS
330
C
102
}
330
C
100
AcDbXrecord
280
     1
  1
DWGPROPS COOKIE
  2

  3

  4

  6

  7

  8

  9

300
AmdtFileType=84
301
=
302
=
303
=
304
=
305
=
306
=
307
=
308
=
309
=
 40
0.0000012615740741
 41
2450683.503159722
 42
2450683.503159722
  1

 90
        1
  0
DICTIONARY
  5
269
102
{ACAD_REACTORS
330
268
102
}
330
268
100
AcDbDictionary
281
     1
  3
*A1
350
26A
  0
LAYOUT
  5
21
102
{ACAD_REACTORS
330
19
102
}
330
19
100
AcDbPlotSettings
  1

  2
EPSON PM-3700C
  4

  6

 40
0.0
 41
0.0
 42
0.0
 43
0.0
 44
0.0
 45
0.0
 46
0.0
 47
0.0
 48
0.0
 49
0.0
140
0.0
141
0.0
142
1.0
143
1.0
 70
  1712
 72
     0
 73
     0
 74
     0
  7

 75
     0
147
1.0
148
0.0
149
0.0
100
AcDbLayout
  1
Model
 70
     1
 71
     0
 10
0.0
 20
0.0
 11
12.0
 21
9.0
 12
0.0
 22
0.0
 32
0.0
 14
0.0
 24
0.0
 34
0.0
 15
0.0
 25
0.0
 35
0.0
146
0.0
 13
0.0
 23
0.0
 33
0.0
 16
1.0
 26
0.0
 36
0.0
 17
0.0
 27
1.0
 37
0.0
 76
     0
330
1E
  0
LAYOUT
  5
1D
102
{ACAD_REACTORS
330
19
102
}
330
19
100
AcDbPlotSettings
  1

  2
EPSON PM-3700C
  4

  6

 40
0.0
 41
0.0
 42
0.0
 43
0.0
 44
0.0
 45
0.0
 46
0.0
 47
0.0
 48
0.0
 49
0.0
140
0.0
141
0.0
142
1.0
143
1.0
 70
   688
 72
     0
 73
     0
 74
     5
  7

 75
    16
147
1.0
148
0.0
149
0.0
100
AcDbLayout
  1
ﾚｲｱｳﾄ1
 70
     0
 71
     1
 10
0.0
 20
0.0
 11
12.0
 21
9.0
 12
0.0
 22
0.0
 32
0.0
 14
1.000000000000000E+20
 24
1.000000000000000E+20
 34
1.000000000000000E+20
 15
-1.000000000000000E+20
 25
-1.000000000000000E+20
 35
-1.000000000000000E+20
146
0.0
 13
0.0
 23
0.0
 33
0.0
 16
1.0
 26
0.0
 36
0.0
 17
0.0
 27
1.0
 37
0.0
 76
     0
330
1A
  0
MLINESTYLE
  5
17
102
{ACAD_REACTORS
330
16
102
}
330
16
100
AcDbMlineStyle
  2
STANDARD
 70
     0
  3

 62
   256
 51
90.0
 52
90.0
 71
     2
 49
0.5
 62
   256
  6
BYLAYER
 49
-0.5
 62
   256
  6
BYLAYER
  0
ACDBPLACEHOLDER
  5
F
102
{ACAD_REACTORS
330
E
102
}
330
E
  0
DICTIONARYVAR
  5
272
102
{ACAD_REACTORS
330
270
102
}
330
270
100
DictionaryVariables
280
     0
  1
0
  0
DICTIONARYVAR
  5
271
102
{ACAD_REACTORS
330
270
102
}
330
270
100
DictionaryVariables
280
     0
  1
1
  0
ACMDATADICTIONARY
  5
224
102
{ACAD_REACTORS
330
223
102
}
330
223
100
AcDbDictionary
281
     1
  3
*A1
350
225
100
AcmDataDictionary
  0
DICTIONARY
  5
232
102
{ACAD_REACTORS
330
223
102
}
330
223
100
AcDbDictionary
281
     1
  3
ANSI
350
233
  0
DICTIONARY
  5
169
102
{ACAD_REACTORS
330
168
102
}
330
168
100
AcDbDictionary
281
     1
  3
DWGSETTINGS
350
16A
  3
TRANSSETTINGS
350
16E
  0
ACAMGFILTERDAT
  5
266
102
{ACAD_REACTORS
330
261
102
}
330
261
100
AcAmgFilterDat
 70
    15
  1
DIMENSION,AMDT_*_DIM
  2
*
  3
*
  4
*
  5
*
290
     1
  0
ACAMGFILTERDAT
  5
265
102
{ACAD_REACTORS
330
261
102
}
330
261
100
AcAmgFilterDat
 70
    15
  1
*
  2
AM_FEA-AM_*
  3
*
  4
*
  5
*
290
     1
  0
ACAMGFILTERDAT
  5
262
102
{ACAD_REACTORS
330
261
102
}
330
261
100
AcAmgFilterDat
 70
    15
  1
HATCH
  2
*
  3
*
  4
*
  5
*
290
     1
  0
ACAMGFILTERDAT
  5
263
102
{ACAD_REACTORS
330
261
102
}
330
261
100
AcAmgFilterDat
 70
    15
  1
LINE
  2
8,8N,*-8,*-8N,AM_8,AM_8N,*-AM_8,*-AM_8N
  3
*
  4
*
  5
INSERT,STDPART2D
290
     1
  0
ACAMGFILTERDAT
  5
267
102
{ACAD_REACTORS
330
261
102
}
330
261
100
AcAmgFilterDat
 70
    15
  1
ARC
  2
AM_5
  3
*
  4
2
  5
INSERT
290
     0
  0
ACAMGFILTERDAT
  5
264
102
{ACAD_REACTORS
330
261
102
}
330
261
100
AcAmgFilterDat
 70
    15
  1
ACMFCFRAME,ACMDATUMTARGET,ACMDATUMID,ACMWELDSYM,ACMSURFSYM,ACMFEATID,ACMPARTREF,ACMBALLOON,AMDTEDGESYM,AMGSCREWCALCTABLE
  2
*
  3
*
  4
*
  5
*
290
     1
  0
LAYER_INDEX
  5
26A
102
{ACAD_REACTORS
330
269
102
}
330
269
100
AcDbIndex
 40
2454383.77684949
100
AcDbLayerIndex
  8
0
360
26B
 90
      227
  8
1
360
26C
 90
       10
  8
10
360
26D
 90
        0
  8
11
360
26E
 90
       13
  8
2
360
26F
 90
        8
  0
ACMDATAENTRYBLOCK
  5
225
102
{ACAD_REACTORS
330
224
102
}
330
224
100
AcmDataEntry
100
AcmDataEntryBlock
  0
IDBUFFER
  5
26B
330
0
100
AcDbIdBuffer
330
BB
330
BC
330
BD
330
BE
330
BF
330
C0
330
C1
330
C2
330
C3
330
C4
330
C5
330
C6
330
C7
330
C8
330
CB
330
CD
330
CE
330
CF
330
D0
330
D1
330
D2
330
D3
330
D4
330
D5
330
D6
330
D7
330
D8
330
D9
330
DA
330
DB
330
DE
330
DF
330
E0
330
E1
330
E2
330
E3
330
E4
330
E5
330
E6
330
E7
330
E8
330
E9
330
EA
330
EB
330
EC
330
ED
330
EE
330
EF
330
F0
330
F1
330
F2
330
F3
330
F4
330
F5
330
F6
330
F7
330
F8
330
F9
330
FA
330
FB
330
FC
330
FD
330
FE
330
FF
330
100
330
101
330
102
330
103
330
104
330
105
330
106
330
107
330
108
330
109
330
10A
330
10B
330
10C
330
10D
330
10E
330
10F
330
110
330
111
330
112
330
115
330
116
330
117
330
118
330
119
330
11A
330
11B
330
11C
330
11D
330
11E
330
11F
330
120
330
121
330
122
330
123
330
124
330
125
330
126
330
156
330
157
330
158
330
159
330
15A
330
15B
330
15C
330
15F
330
160
330
161
330
162
330
163
330
164
330
275
330
43
330
44
330
45
330
46
330
47
330
48
330
49
330
4A
330
4B
330
4C
330
4D
330
4E
330
4F
330
50
330
51
330
52
330
53
330
54
330
55
330
56
330
57
330
58
330
59
330
5A
330
5B
330
5C
330
5D
330
5E
330
5F
330
60
330
61
330
62
330
63
330
64
330
65
330
66
330
67
330
68
330
69
330
6A
330
6B
330
6C
330
6D
330
6E
330
6F
330
70
330
71
330
72
330
73
330
74
330
79
330
7A
330
7B
330
7C
330
7D
330
7E
330
7F
330
80
330
81
330
82
330
83
330
84
330
85
330
86
330
87
330
88
330
89
330
8A
330
8B
330
8C
330
8D
330
8E
330
8F
330
90
330
91
330
92
330
93
330
94
330
95
330
96
330
97
330
98
330
99
330
9A
330
9B
330
9C
330
9D
330
9E
330
9F
330
A0
330
A1
330
A2
330
A3
330
A4
330
A5
330
A6
330
A7
330
A8
330
A9
330
AD
330
AE
330
AF
330
B0
330
B2
330
B3
330
B4
330
B5
330
B6
330
B7
330
B8
330
B9
330
BA
  0
IDBUFFER
  5
26C
330
0
100
AcDbIdBuffer
330
75
330
78
330
B1
330
DC
330
DD
330
113
330
114
330
15D
330
15E
330
165
  0
IDBUFFER
  5
26D
330
0
100
AcDbIdBuffer
  0
IDBUFFER
  5
26E
330
0
100
AcDbIdBuffer
330
144
330
127
330
128
330
129
330
12A
330
12B
330
12C
330
12D
330
12E
330
12F
330
130
330
131
330
132
  0
IDBUFFER
  5
26F
330
0
100
AcDbIdBuffer
330
76
330
77
330
AA
330
AB
330
AC
330
C9
330
CA
330
CC
  0
ENDSEC
  0
EOF
