  0
SECTION
  2
HEADER
  9
$ACADVER
  1
AC1014
  9
$ACADMAINTVER
 70
     0
  9
$DWGCODEPAGE
  3
ANSI_932
  9
$INSBASE
 10
0.0
 20
0.0
 30
0.0
  9
$EXTMIN
 10
53.0
 20
60.625
 30
0.0
  9
$EXTMAX
 10
159.257081
 20
99.375
 30
0.0
  9
$LIMMIN
 10
0.0
 20
0.0
  9
$LIMMAX
 10
200.0
 20
140.0
  9
$ORTHOMODE
 70
     1
  9
$REGENMODE
 70
     1
  9
$FILLMODE
 70
     1
  9
$QTEXTMODE
 70
     0
  9
$MIRRTEXT
 70
     1
  9
$DRAGMODE
 70
     1
  9
$LTSCALE
 40
20.0
  9
$OSMODE
 70
     0
  9
$ATTMODE
 70
     1
  9
$TEXTSIZE
 40
10.0
  9
$TRACEWID
 40
0.05
  9
$TEXTSTYLE
  7
BIGFONT
  9
$CLAYER
  8
0
  9
$CELTYPE
  6
BYLAYER
  9
$CECOLOR
 62
   256
  9
$CELTSCALE
 40
1.0
  9
$DELOBJ
 70
     1
  9
$DISPSILH
 70
     0
  9
$DIMSCALE
 40
2.0
  9
$DIMASZ
 40
3.0
  9
$DIMEXO
 40
2.0
  9
$DIMDLI
 40
0.38
  9
$DIMRND
 40
0.0
  9
$DIMDLE
 40
0.0
  9
$DIMEXE
 40
2.0
  9
$DIMTP
 40
0.0
  9
$DIMTM
 40
0.0
  9
$DIMTXT
 40
3.2
  9
$DIMCEN
 40
0.09
  9
$DIMTSZ
 40
0.0
  9
$DIMTOL
 70
     0
  9
$DIMLIM
 70
     0
  9
$DIMTIH
 70
     0
  9
$DIMTOH
 70
     0
  9
$DIMSE1
 70
     0
  9
$DIMSE2
 70
     0
  9
$DIMTAD
 70
     1
  9
$DIMZIN
 70
     0
  9
$DIMBLK
  1

  9
$DIMASO
 70
     0
  9
$DIMSHO
 70
     0
  9
$DIMPOST
  1

  9
$DIMAPOST
  1

  9
$DIMALT
 70
     0
  9
$DIMALTD
 70
     2
  9
$DIMALTF
 40
25.4
  9
$DIMLFAC
 40
1.0
  9
$DIMTOFL
 70
     0
  9
$DIMTVP
 40
1.6
  9
$DIMTIX
 70
     1
  9
$DIMSOXD
 70
     0
  9
$DIMSAH
 70
     0
  9
$DIMBLK1
  1

  9
$DIMBLK2
  1

  9
$DIMSTYLE
  2
STANDARD
  9
$DIMCLRD
 70
     0
  9
$DIMCLRE
 70
     0
  9
$DIMCLRT
 70
     0
  9
$DIMTFAC
 40
1.0
  9
$DIMGAP
 40
0.09
  9
$DIMJUST
 70
     0
  9
$DIMSD1
 70
     0
  9
$DIMSD2
 70
     0
  9
$DIMTOLJ
 70
     1
  9
$DIMTZIN
 70
     0
  9
$DIMALTZ
 70
     0
  9
$DIMALTTZ
 70
     0
  9
$DIMFIT
 70
     5
  9
$DIMUPT
 70
     0
  9
$DIMUNIT
 70
     2
  9
$DIMDEC
 70
     4
  9
$DIMTDEC
 70
     4
  9
$DIMALTU
 70
     2
  9
$DIMALTTD
 70
     2
  9
$DIMTXSTY
  7
BIGFONT
  9
$DIMAUNIT
 70
     0
  9
$LUNITS
 70
     2
  9
$LUPREC
 70
     4
  9
$SKETCHINC
 40
0.1
  9
$FILLETRAD
 40
0.0
  9
$AUNITS
 70
     0
  9
$AUPREC
 70
     0
  9
$MENU
  1
ACAD
  9
$ELEVATION
 40
0.0
  9
$PELEVATION
 40
0.0
  9
$THICKNESS
 40
0.0
  9
$LIMCHECK
 70
     0
  9
$BLIPMODE
 70
     0
  9
$CHAMFERA
 40
0.0
  9
$CHAMFERB
 40
0.0
  9
$CHAMFERC
 40
0.0
  9
$CHAMFERD
 40
0.0
  9
$SKPOLY
 70
     0
  9
$TDCREATE
 40
2450866.965362384
  9
$TDUPDATE
 40
2453593.645109410
  9
$TDINDWG
 40
0.0008514236
  9
$TDUSRTIMER
 40
0.0008514236
  9
$USRTIMER
 70
     1
  9
$ANGBASE
 50
0.0
  9
$ANGDIR
 70
     0
  9
$PDMODE
 70
     0
  9
$PDSIZE
 40
0.0
  9
$PLINEWID
 40
0.0
  9
$COORDS
 70
     2
  9
$SPLFRAME
 70
     0
  9
$SPLINETYPE
 70
     6
  9
$SPLINESEGS
 70
     8
  9
$ATTDIA
 70
     0
  9
$ATTREQ
 70
     1
  9
$HANDLING
 70
     1
  9
$HANDSEED
  5
1D4
  9
$SURFTAB1
 70
     6
  9
$SURFTAB2
 70
     6
  9
$SURFTYPE
 70
     6
  9
$SURFU
 70
     6
  9
$SURFV
 70
     6
  9
$UCSNAME
  2

  9
$UCSORG
 10
0.0
 20
0.0
 30
0.0
  9
$UCSXDIR
 10
1.0
 20
0.0
 30
0.0
  9
$UCSYDIR
 10
0.0
 20
1.0
 30
0.0
  9
$PUCSNAME
  2

  9
$PUCSORG
 10
0.0
 20
0.0
 30
0.0
  9
$PUCSXDIR
 10
1.0
 20
0.0
 30
0.0
  9
$PUCSYDIR
 10
0.0
 20
1.0
 30
0.0
  9
$USERI1
 70
     0
  9
$USERI2
 70
     0
  9
$USERI3
 70
     0
  9
$USERI4
 70
     0
  9
$USERI5
 70
     0
  9
$USERR1
 40
0.0
  9
$USERR2
 40
0.0
  9
$USERR3
 40
0.0
  9
$USERR4
 40
0.0
  9
$USERR5
 40
0.0
  9
$WORLDVIEW
 70
     1
  9
$SHADEDGE
 70
     3
  9
$SHADEDIF
 70
    70
  9
$TILEMODE
 70
     1
  9
$MAXACTVP
 70
    16
  9
$PINSBASE
 10
0.0
 20
0.0
 30
0.0
  9
$PLIMCHECK
 70
     0
  9
$PEXTMIN
 10
1.000000E+20
 20
1.000000E+20
 30
1.000000E+20
  9
$PEXTMAX
 10
-1.000000E+20
 20
-1.000000E+20
 30
-1.000000E+20
  9
$PLIMMIN
 10
0.0
 20
0.0
  9
$PLIMMAX
 10
12.0
 20
9.0
  9
$UNITMODE
 70
     0
  9
$VISRETAIN
 70
     0
  9
$PLINEGEN
 70
   332
  9
$PSLTSCALE
 70
     0
  9
$TREEDEPTH
 70
  3020
  9
$PICKSTYLE
 70
     1
  9
$CMLSTYLE
  2
STANDARD
  9
$CMLJUST
 70
     0
  9
$CMLSCALE
 40
1.0
  9
$PROXYGRAPHICS
 70
     1
  9
$MEASUREMENT
 70
     0
  0
ENDSEC
  0
SECTION
  2
CLASSES
  0
CLASS
  1
DICTIONARYVAR
  2
AcDbDictionaryVar
  3
"AutoCAD"
 90
        0
280
     0
281
     0
  0
ENDSEC
  0
SECTION
  2
TABLES
  0
TABLE
  2
VPORT
  5
194
100
AcDbSymbolTable
 70
     5
  0
VPORT
  5
1D3
100
AcDbSymbolTableRecord
100
AcDbViewportTableRecord
  2
*ACTIVE
 70
     0
 10
0.0
 20
0.0
 11
1.0
 21
1.0
 12
124.153543
 22
86.521511
 13
0.0
 23
0.0
 14
5.0
 24
5.0
 15
10.0
 25
10.0
 16
0.0
 26
0.0
 36
1.0
 17
0.0
 27
0.0
 37
0.0
 40
173.043022
 41
1.434944
 42
50.0
 43
0.0
 44
0.0
 50
0.0
 51
0.0
 71
     0
 72
   500
 73
     1
 74
     1
 75
     0
 76
     0
 77
     0
 78
     0
  0
ENDTAB
  0
TABLE
  2
LTYPE
  5
191
100
AcDbSymbolTable
 70
     4
  0
LTYPE
  5
19D
100
AcDbSymbolTableRecord
100
AcDbLinetypeTableRecord
  2
BYBLOCK
 70
     0
  3

 72
    65
 73
     0
 40
0.0
  0
LTYPE
  5
19E
100
AcDbSymbolTableRecord
100
AcDbLinetypeTableRecord
  2
BYLAYER
 70
     0
  3

 72
    65
 73
     0
 40
0.0
  0
LTYPE
  5
19F
100
AcDbSymbolTableRecord
100
AcDbLinetypeTableRecord
  2
CONTINUOUS
 70
     0
  3
実線
 72
    65
 73
     0
 40
0.0
  0
LTYPE
  5
1AD
100
AcDbSymbolTableRecord
100
AcDbLinetypeTableRecord
  2
CENTER
 70
     0
  3
____ _ ____ _ ____ _ ____ _ ____ _ ____ _ ____
 72
    65
 73
     4
 40
2.0
 49
1.25
 74
     0
 49
-0.25
 74
     0
 49
0.25
 74
     0
 49
-0.25
 74
     0
  0
LTYPE
  5
1AE
100
AcDbSymbolTableRecord
100
AcDbLinetypeTableRecord
  2
HIDDEN
 70
     0
  3
_ _ _ _ _ _ _ _ _ _ _ _ _ _ _ _ _ _ _ _ _ _ _
 72
    65
 73
     2
 40
0.375
 49
0.25
 74
     0
 49
-0.125
 74
     0
  0
LTYPE
  5
1AF
100
AcDbSymbolTableRecord
100
AcDbLinetypeTableRecord
  2
TENSEN1
 70
     0
  3

 72
    65
 73
     2
 40
0.4
 49
0.3
 74
     0
 49
-0.1
 74
     0
  0
ENDTAB
  0
TABLE
  2
LAYER
  5
18E
100
AcDbSymbolTable
 70
     7
  0
LAYER
  5
19A
100
AcDbSymbolTableRecord
100
AcDbLayerTableRecord
  2
0
 70
     0
 62
     7
  6
CONTINUOUS
  0
LAYER
  5
1B4
100
AcDbSymbolTableRecord
100
AcDbLayerTableRecord
  2
1
 70
     0
 62
     1
  6
CENTER
  0
LAYER
  5
1B5
100
AcDbSymbolTableRecord
100
AcDbLayerTableRecord
  2
3
 70
     0
 62
     3
  6
CONTINUOUS
  0
LAYER
  5
1B6
100
AcDbSymbolTableRecord
100
AcDbLayerTableRecord
  2
4
 70
     0
 62
     4
  6
CONTINUOUS
  0
LAYER
  5
1B7
100
AcDbSymbolTableRecord
100
AcDbLayerTableRecord
  2
10
 70
     0
 62
     7
  6
CONTINUOUS
  0
LAYER
  5
1B8
100
AcDbSymbolTableRecord
100
AcDbLayerTableRecord
  2
11
 70
     0
 62
     3
  6
CONTINUOUS
  0
LAYER
  5
1B9
100
AcDbSymbolTableRecord
100
AcDbLayerTableRecord
  2
2
 70
     0
 62
     2
  6
TENSEN1
  0
ENDTAB
  0
TABLE
  2
STYLE
  5
18F
100
AcDbSymbolTable
 70
     4
  0
STYLE
  5
19B
100
AcDbSymbolTableRecord
100
AcDbTextStyleTableRecord
  2
STANDARD
 70
     0
 40
0.0
 41
1.0
 50
0.0
 71
     0
 42
0.2
  3
TXT
  4
BIGFONT
  0
STYLE
  5
1AA
100
AcDbSymbolTableRecord
100
AcDbTextStyleTableRecord
  2
K80
 70
     0
 40
0.0
 41
0.8
 50
0.0
 71
     0
 42
0.2
  3
TXT
  4
BIGFONT
  0
STYLE
  5
1AB
100
AcDbSymbolTableRecord
100
AcDbTextStyleTableRecord
  2
07500
 70
     0
 40
0.0
 41
0.75
 50
0.0
 71
     0
 42
6.0
  3
TXT
  4
BIGFONT
  0
STYLE
  5
1AC
100
AcDbSymbolTableRecord
100
AcDbTextStyleTableRecord
  2
BIGFONT
 70
     0
 40
10.0
 41
0.8
 50
0.0
 71
     0
 42
10.0
  3

  4
bigfont
  0
ENDTAB
  0
TABLE
  2
VIEW
  5
192
100
AcDbSymbolTable
 70
     1
  0
VIEW
  5
1B0
100
AcDbSymbolTableRecord
100
AcDbViewTableRecord
  2
ALL
 70
     0
 40
540.0
 10
441.983193
 20
270.0
 41
0.0
 11
0.0
 21
0.0
 31
1.0
 12
0.0
 22
0.0
 32
0.0
 42
0.0
 43
0.0
 44
0.0
 50
0.0
 71
     0
  0
ENDTAB
  0
TABLE
  2
UCS
  5
193
100
AcDbSymbolTable
 70
     0
  0
ENDTAB
  0
TABLE
  2
APPID
  5
195
100
AcDbSymbolTable
 70
     1
  0
APPID
  5
19C
100
AcDbSymbolTableRecord
100
AcDbRegAppTableRecord
  2
ACAD
 70
     0
  0
ENDTAB
  0
TABLE
  2
DIMSTYLE
  5
196
100
AcDbSymbolTable
 70
     1
  0
DIMSTYLE
105
1B3
100
AcDbSymbolTableRecord
100
AcDbDimStyleTableRecord
  2
STANDARD
 70
     0
  3

  4

  5

  6

  7

 40
1.0
 41
0.18
 42
0.0625
 43
0.38
 44
0.18
 45
0.0
 46
0.0
 47
0.0
 48
0.0
140
0.18
141
0.09
142
0.0
143
25.4
144
1.0
145
0.0
146
1.0
147
0.09
 71
     0
 72
     0
 73
     1
 74
     1
 75
     0
 76
     0
 77
     0
 78
     0
170
     0
171
     2
172
     0
173
     0
174
     0
175
     0
176
     0
177
     0
178
     0
270
     2
271
     4
272
     4
273
     2
274
     2
340
1AC
275
     0
280
     0
281
     0
282
     0
283
     1
284
     0
285
     0
286
     0
287
     5
288
     0
  0
ENDTAB
  0
TABLE
  2
BLOCK_RECORD
  5
18D
100
AcDbSymbolTable
 70
     2
  0
BLOCK_RECORD
  5
1A3
100
AcDbSymbolTableRecord
100
AcDbBlockTableRecord
  2
*MODEL_SPACE
  0
BLOCK_RECORD
  5
1A0
100
AcDbSymbolTableRecord
100
AcDbBlockTableRecord
  2
*PAPER_SPACE
  0
BLOCK_RECORD
  5
1A8
100
AcDbSymbolTableRecord
100
AcDbBlockTableRecord
  2
WAKU
  0
BLOCK_RECORD
  5
1A9
100
AcDbSymbolTableRecord
100
AcDbBlockTableRecord
  2
QQ
  0
ENDTAB
  0
ENDSEC
  0
SECTION
  2
BLOCKS
  0
BLOCK
  5
1BC
100
AcDbEntity
  8
0
100
AcDbBlockBegin
  2
*MODEL_SPACE
 70
     0
 10
0.0
 20
0.0
 30
0.0
  3
*MODEL_SPACE
  1

  0
ENDBLK
  5
1BD
100
AcDbEntity
  8
0
100
AcDbBlockEnd
  0
BLOCK
  5
1BA
100
AcDbEntity
 67
     1
  8
0
100
AcDbBlockBegin
  2
*PAPER_SPACE
 70
     0
 10
0.0
 20
0.0
 30
0.0
  3
*PAPER_SPACE
  1

  0
ENDBLK
  5
1BB
100
AcDbEntity
 67
     1
  8
0
100
AcDbBlockEnd
  0
BLOCK
  5
31
100
AcDbEntity
  8
0
100
AcDbBlockBegin
  2
WAKU
 70
     0
 10
549.0
 20
0.0
 30
0.0
  3
WAKU
  1

  0
LINE
  5
32
100
AcDbEntity
  8
11
100
AcDbLine
 10
452.0
 20
12.0
 30
0.0
 11
549.0
 21
12.0
 31
0.0
  0
LINE
  5
33
100
AcDbEntity
  8
11
100
AcDbLine
 10
477.0
 20
0.0
 30
0.0
 11
477.0
 21
12.0
 31
0.0
  0
LINE
  5
34
100
AcDbEntity
  8
11
100
AcDbLine
 10
452.0
 20
12.0
 30
0.0
 11
452.0
 21
0.0
 31
0.0
  0
TEXT
  5
35
100
AcDbEntity
  8
11
100
AcDbText
 10
454.0
 20
8.5
 30
0.0
 40
2.5
  1
尺度
100
AcDbText
  0
TEXT
  5
36
100
AcDbEntity
  8
11
100
AcDbText
 10
479.0
 20
8.5
 30
0.0
 40
2.5
  1
図番
100
AcDbText
  0
ENDBLK
  5
37
100
AcDbEntity
  8
0
100
AcDbBlockEnd
  0
BLOCK
  5
38
100
AcDbEntity
  8
0
100
AcDbBlockBegin
  2
QQ
 70
     0
 10
270.0
 20
0.0
 30
0.0
  3
QQ
  1

  0
LINE
  5
39
100
AcDbEntity
  8
11
100
AcDbLine
 10
173.0
 20
36.0
 30
0.0
 11
270.0
 21
36.0
 31
0.0
  0
TEXT
  5
3A
100
AcDbEntity
  8
11
100
AcDbText
 10
175.0
 20
32.5
 30
0.0
 40
2.5
  1
部品名称
100
AcDbText
  0
LINE
  5
3B
100
AcDbEntity
  8
11
100
AcDbLine
 10
173.0
 20
36.0
 30
0.0
 11
173.0
 21
0.0
 31
0.0
  0
LINE
  5
3C
100
AcDbEntity
  8
11
100
AcDbLine
 10
173.0
 20
24.0
 30
0.0
 11
270.0
 21
24.0
 31
0.0
  0
TEXT
  5
3D
100
AcDbEntity
  8
11
100
AcDbText
 10
175.0
 20
20.5
 30
0.0
 40
2.5
  1
品番
100
AcDbText
  0
LINE
  5
3E
100
AcDbEntity
  8
11
100
AcDbLine
 10
173.0
 20
12.0
 30
0.0
 11
270.0
 21
12.0
 31
0.0
  0
TEXT
  5
3F
100
AcDbEntity
  8
11
100
AcDbText
 10
175.0
 20
8.5
 30
0.0
 40
2.5
  1
尺度
100
AcDbText
  0
TEXT
  5
40
100
AcDbEntity
  8
11
100
AcDbText
 10
200.0
 20
8.5
 30
0.0
 40
2.5
  1
図番
100
AcDbText
  0
LINE
  5
41
100
AcDbEntity
  8
11
100
AcDbLine
 10
198.0
 20
0.0
 30
0.0
 11
198.0
 21
12.0
 31
0.0
  0
ENDBLK
  5
42
100
AcDbEntity
  8
0
100
AcDbBlockEnd
  0
ENDSEC
  0
SECTION
  2
ENTITIES
  0
LINE
  5
4A
100
AcDbEntity
  8
0
100
AcDbLine
 10
126.007081
 20
68.875
 30
0.0
 11
126.007081
 21
74.375
 31
0.0
  0
LINE
  5
4B
100
AcDbEntity
  8
0
100
AcDbLine
 10
112.507081
 20
68.875
 30
0.0
 11
112.507081
 21
74.375
 31
0.0
  0
LINE
  5
4C
100
AcDbEntity
  8
0
100
AcDbLine
 10
119.257081
 20
74.375
 30
0.0
 11
126.257081
 21
74.375
 31
0.0
  0
LINE
  5
4D
100
AcDbEntity
  8
0
100
AcDbLine
 10
119.257081
 20
74.375
 30
0.0
 11
112.257081
 21
74.375
 31
0.0
  0
LINE
  5
4E
100
AcDbEntity
  8
0
100
AcDbLine
 10
119.257081
 20
87.125
 30
0.0
 11
113.757081
 21
87.125
 31
0.0
  0
LINE
  5
4F
100
AcDbEntity
  8
0
100
AcDbLine
 10
113.257081
 20
86.625
 30
0.0
 11
112.257081
 21
74.375
 31
0.0
  0
ARC
  5
50
100
AcDbEntity
  8
0
100
AcDbCircle
 10
113.823206
 20
86.558875
 30
0.0
 40
0.569973
100
AcDbArc
 50
96.662089
 51
173.337911
  0
LINE
  5
51
100
AcDbEntity
  8
0
100
AcDbLine
 10
119.257081
 20
87.125
 30
0.0
 11
124.257081
 21
87.125
 31
0.0
  0
LINE
  5
52
100
AcDbEntity
  8
0
100
AcDbLine
 10
124.757081
 20
74.375
 30
0.0
 11
124.507081
 21
86.625
 31
0.0
  0
LINE
  5
53
100
AcDbEntity
  8
0
100
AcDbLine
 10
124.507081
 20
86.625
 30
0.0
 11
124.507081
 21
86.875
 31
0.0
  0
ARC
  5
54
100
AcDbEntity
  8
0
100
AcDbCircle
 10
124.257307
 20
86.875225
 30
0.0
 40
0.249775
100
AcDbArc
 50
359.948299
 51
90.051701
  0
LINE
  5
55
100
AcDbEntity
  8
0
100
AcDbLine
 10
126.257081
 20
89.375
 30
0.0
 11
157.471271
 21
96.690826
 31
0.0
  0
LINE
  5
56
100
AcDbEntity
  8
0
100
AcDbLine
 10
159.257081
 20
93.875
 30
0.0
 11
127.257081
 21
82.875
 31
0.0
  0
LINE
  5
57
100
AcDbEntity
  8
0
100
AcDbLine
 10
122.257081
 20
87.125
 30
0.0
 11
126.257081
 21
89.375
 31
0.0
  0
LINE
  5
58
100
AcDbEntity
  8
0
100
AcDbLine
 10
158.257081
 20
86.875
 30
0.0
 11
159.257081
 21
93.875
 31
0.0
  0
LINE
  5
59
100
AcDbEntity
  8
0
100
AcDbLine
 10
127.257081
 20
82.875
 30
0.0
 11
125.257081
 21
74.375
 31
0.0
  0
LINE
  5
5A
100
AcDbEntity
  8
0
100
AcDbLine
 10
137.007081
 20
81.875
 30
0.0
 11
153.257081
 21
88.625
 31
0.0
  0
ARC
  5
5B
100
AcDbEntity
  8
0
100
AcDbCircle
 10
133.632752
 20
75.257373
 30
0.0
 40
7.428263
100
AcDbArc
 50
62.982955
 51
186.822037
  0
ARC
  5
5C
100
AcDbEntity
  8
0
100
AcDbCircle
 10
154.007081
 20
87.0
 30
0.0
 40
1.789728
100
AcDbArc
 50
12.094757
 51
114.775141
  0
LINE
  5
5D
100
AcDbEntity
  8
0
100
AcDbLine
 10
155.757081
 20
87.375
 30
0.0
 11
155.757081
 21
86.875
 31
0.0
  0
ARC
  5
5E
100
AcDbEntity
  8
0
100
AcDbCircle
 10
157.007081
 20
87.541667
 30
0.0
 40
1.416667
100
AcDbArc
 50
208.072487
 51
331.927513
  0
ARC
  5
5F
100
AcDbEntity
  8
0
100
AcDbCircle
 10
157.67915
 20
95.841356
 30
0.0
 40
0.875171
100
AcDbArc
 50
18.911146
 51
102.206864
  0
LINE
  5
60
100
AcDbEntity
  8
0
100
AcDbLine
 10
158.52153
 20
96.081655
 30
0.0
 11
159.257081
 21
93.875
 31
0.0
  0
LINE
  5
61
100
AcDbEntity
  8
0
100
AcDbLine
 10
157.470811
 20
96.690805
 30
0.0
 11
157.494173
 21
96.696719
 31
0.0
  0
LINE
  5
62
100
AcDbEntity
  8
0
100
AcDbLine
 10
158.521386
 20
96.08203
 30
0.0
 11
158.507045
 21
96.125023
 31
0.0
  0
LINE
  5
63
100
AcDbEntity
  8
0
100
AcDbLine
 10
119.007081
 20
88.875
 30
0.0
 11
119.007081
 21
87.625
 31
0.0
  0
LINE
  5
64
100
AcDbEntity
  8
0
100
AcDbLine
 10
119.007081
 20
87.625
 30
0.0
 11
119.507081
 21
87.625
 31
0.0
  0
LINE
  5
65
100
AcDbEntity
  8
0
100
AcDbLine
 10
119.507081
 20
87.625
 30
0.0
 11
119.507081
 21
88.875
 31
0.0
  0
LINE
  5
66
100
AcDbEntity
  8
0
100
AcDbLine
 10
119.507081
 20
88.875
 30
0.0
 11
122.257081
 21
88.875
 31
0.0
  0
LINE
  5
67
100
AcDbEntity
  8
0
100
AcDbLine
 10
122.257081
 20
88.875
 30
0.0
 11
122.757081
 21
88.375
 31
0.0
  0
LINE
  5
68
100
AcDbEntity
  8
0
100
AcDbLine
 10
122.757081
 20
88.375
 30
0.0
 11
122.757081
 21
87.406672
 31
0.0
  0
LINE
  5
69
100
AcDbEntity
  8
0
100
AcDbLine
 10
119.007081
 20
88.875
 30
0.0
 11
116.257081
 21
88.875
 31
0.0
  0
LINE
  5
6A
100
AcDbEntity
  8
0
100
AcDbLine
 10
116.257081
 20
88.875
 30
0.0
 11
115.757081
 21
88.375
 31
0.0
  0
LINE
  5
6B
100
AcDbEntity
  8
0
100
AcDbLine
 10
115.757081
 20
88.375
 30
0.0
 11
115.757081
 21
87.125
 31
0.0
  0
LINE
  5
6C
100
AcDbEntity
  8
0
100
AcDbLine
 10
112.507081
 20
68.875
 30
0.0
 11
126.007081
 21
68.875
 31
0.0
  0
LINE
  5
6D
100
AcDbEntity
  8
0
100
AcDbLine
 10
114.257081
 20
68.875
 30
0.0
 11
114.257081
 21
64.875
 31
0.0
  0
LINE
  5
6E
100
AcDbEntity
  8
0
100
AcDbLine
 10
114.257081
 20
64.875
 30
0.0
 11
124.257081
 21
64.875
 31
0.0
  0
LINE
  5
6F
100
AcDbEntity
  8
0
100
AcDbLine
 10
124.257081
 20
64.875
 30
0.0
 11
124.257081
 21
68.875
 31
0.0
  0
LINE
  5
70
100
AcDbEntity
  8
1
100
AcDbLine
 10
119.257081
 20
97.625
 30
0.0
 11
119.257081
 21
60.625
 31
0.0
  0
LINE
  5
71
100
AcDbEntity
  8
2
100
AcDbLine
 10
124.257081
 20
68.875
 30
0.0
 11
124.257081
 21
77.375
 31
0.0
  0
LINE
  5
72
100
AcDbEntity
  8
2
100
AcDbLine
 10
114.257081
 20
68.875
 30
0.0
 11
114.257081
 21
77.375
 31
0.0
  0
LINE
  5
73
100
AcDbEntity
  8
2
100
AcDbLine
 10
114.257081
 20
77.375
 30
0.0
 11
124.257081
 21
77.375
 31
0.0
  0
LINE
  5
74
100
AcDbEntity
  8
2
100
AcDbLine
 10
65.0
 20
68.875
 30
0.0
 11
65.0
 21
77.375
 31
0.0
  0
LINE
  5
75
100
AcDbEntity
  8
2
100
AcDbLine
 10
55.0
 20
68.875
 30
0.0
 11
55.0
 21
77.375
 31
0.0
  0
LINE
  5
76
100
AcDbEntity
  8
0
100
AcDbLine
 10
53.25
 20
68.875
 30
0.0
 11
53.25
 21
74.375
 31
0.0
  0
LINE
  5
77
100
AcDbEntity
  8
0
100
AcDbLine
 10
66.75
 20
68.875
 30
0.0
 11
66.75
 21
74.375
 31
0.0
  0
LINE
  5
78
100
AcDbEntity
  8
0
100
AcDbLine
 10
55.0
 20
64.875
 30
0.0
 11
65.0
 21
64.875
 31
0.0
  0
LINE
  5
79
100
AcDbEntity
  8
0
100
AcDbLine
 10
53.25
 20
68.875
 30
0.0
 11
66.75
 21
68.875
 31
0.0
  0
LINE
  5
7A
100
AcDbEntity
  8
0
100
AcDbLine
 10
55.0
 20
68.875
 30
0.0
 11
55.0
 21
64.875
 31
0.0
  0
LINE
  5
7B
100
AcDbEntity
  8
0
100
AcDbLine
 10
65.0
 20
64.875
 30
0.0
 11
65.0
 21
68.875
 31
0.0
  0
LINE
  5
7C
100
AcDbEntity
  8
0
100
AcDbLine
 10
54.0
 20
86.625
 30
0.0
 11
53.0
 21
74.375
 31
0.0
  0
LINE
  5
7D
100
AcDbEntity
  8
2
100
AcDbLine
 10
55.0
 20
77.375
 30
0.0
 11
65.0
 21
77.375
 31
0.0
  0
LINE
  5
7E
100
AcDbEntity
  8
0
100
AcDbLine
 10
60.0
 20
74.375
 30
0.0
 11
67.0
 21
74.375
 31
0.0
  0
LINE
  5
7F
100
AcDbEntity
  8
0
100
AcDbLine
 10
60.0
 20
74.375
 30
0.0
 11
53.0
 21
74.375
 31
0.0
  0
LINE
  5
80
100
AcDbEntity
  8
0
100
AcDbLine
 10
60.0
 20
87.125
 30
0.0
 11
65.0
 21
87.125
 31
0.0
  0
LINE
  5
81
100
AcDbEntity
  8
0
100
AcDbLine
 10
56.5
 20
88.375
 30
0.0
 11
56.5
 21
87.125
 31
0.0
  0
LINE
  5
82
100
AcDbEntity
  8
0
100
AcDbLine
 10
57.0
 20
88.875
 30
0.0
 11
56.5
 21
88.375
 31
0.0
  0
LINE
  5
83
100
AcDbEntity
  8
0
100
AcDbLine
 10
59.75
 20
88.875
 30
0.0
 11
57.0
 21
88.875
 31
0.0
  0
ARC
  5
84
100
AcDbEntity
  8
0
100
AcDbCircle
 10
54.566125
 20
86.558875
 30
0.0
 40
0.569973
100
AcDbArc
 50
96.662089
 51
173.337911
  0
LINE
  5
85
100
AcDbEntity
  8
0
100
AcDbLine
 10
60.0
 20
87.125
 30
0.0
 11
54.5
 21
87.125
 31
0.0
  0
LINE
  5
86
100
AcDbEntity
  8
0
100
AcDbLine
 10
63.5
 20
88.375
 30
0.0
 11
63.5
 21
87.406672
 31
0.0
  0
LINE
  5
87
100
AcDbEntity
  8
0
100
AcDbLine
 10
63.0
 20
88.875
 30
0.0
 11
63.5
 21
88.375
 31
0.0
  0
LINE
  5
88
100
AcDbEntity
  8
0
100
AcDbLine
 10
60.25
 20
88.875
 30
0.0
 11
63.0
 21
88.875
 31
0.0
  0
LINE
  5
89
100
AcDbEntity
  8
0
100
AcDbLine
 10
63.5
 20
87.625
 30
0.0
 11
63.5
 21
87.125
 31
0.0
  0
LINE
  5
8A
100
AcDbEntity
  8
0
100
AcDbLine
 10
65.0
 20
87.125
 30
0.0
 11
65.5
 21
87.125
 31
0.0
  0
LINE
  5
8B
100
AcDbEntity
  8
0
100
AcDbLine
 10
67.0
 20
74.375
 30
0.0
 11
66.0
 21
86.625
 31
0.0
  0
ARC
  5
8C
100
AcDbEntity
  8
0
100
AcDbCircle
 10
65.465069
 20
86.590069
 30
0.0
 40
0.53607
100
AcDbArc
 50
3.736082
 51
86.263918
  0
LINE
  5
8D
100
AcDbEntity
  8
0
100
AcDbLine
 10
59.75
 20
88.875
 30
0.0
 11
60.25
 21
88.875
 31
0.0
  0
LINE
  5
8E
100
AcDbEntity
  8
1
100
AcDbLine
 10
60.0
 20
60.625
 30
0.0
 11
60.0
 21
99.375
 31
0.0
  0
LINE
  5
8F
100
AcDbEntity
  8
0
100
AcDbLine
 10
60.0
 20
89.375
 30
0.0
 11
62.75
 21
89.375
 31
0.0
  0
LINE
  5
90
100
AcDbEntity
  8
0
100
AcDbLine
 10
60.0
 20
89.375
 30
0.0
 11
57.25
 21
89.375
 31
0.0
  0
LINE
  5
91
100
AcDbEntity
  8
0
100
AcDbLine
 10
60.0
 20
96.625
 30
0.0
 11
57.0
 21
96.625
 31
0.0
  0
LINE
  5
92
100
AcDbEntity
  8
0
100
AcDbLine
 10
60.0
 20
96.625
 30
0.0
 11
63.0
 21
96.625
 31
0.0
  0
LINE
  5
93
100
AcDbEntity
  8
0
100
AcDbLine
 10
56.5
 20
95.875
 30
0.0
 11
55.75
 21
87.125
 31
0.0
  0
LINE
  5
94
100
AcDbEntity
  8
0
100
AcDbLine
 10
63.5
 20
95.875
 30
0.0
 11
64.25
 21
87.125
 31
0.0
  0
LINE
  5
95
100
AcDbEntity
  8
0
100
AcDbLine
 10
62.75
 20
89.375
 30
0.0
 11
63.5
 21
89.375
 31
0.0
  0
LINE
  5
96
100
AcDbEntity
  8
0
100
AcDbLine
 10
63.5
 20
89.375
 30
0.0
 11
63.0
 21
96.625
 31
0.0
  0
LINE
  5
97
100
AcDbEntity
  8
0
100
AcDbLine
 10
57.25
 20
89.375
 30
0.0
 11
56.5
 21
89.375
 31
0.0
  0
LINE
  5
98
100
AcDbEntity
  8
0
100
AcDbLine
 10
56.5
 20
89.375
 30
0.0
 11
57.0
 21
96.625
 31
0.0
  0
LINE
  5
99
100
AcDbEntity
  8
0
100
AcDbLine
 10
56.5
 20
89.375
 30
0.0
 11
56.25
 21
87.125
 31
0.0
  0
LINE
  5
9A
100
AcDbEntity
  8
0
100
AcDbLine
 10
63.5
 20
89.375
 30
0.0
 11
63.75
 21
87.125
 31
0.0
  0
ARC
  5
9B
100
AcDbEntity
  8
0
100
AcDbCircle
 10
62.607586
 20
95.821724
 30
0.0
 40
0.894003
100
AcDbArc
 50
3.416431
 51
63.963704
  0
ARC
  5
9C
100
AcDbEntity
  8
0
100
AcDbCircle
 10
57.754746
 20
95.580169
 30
0.0
 40
1.288919
100
AcDbArc
 50
125.842913
 51
166.776952
  0
LINE
  5
128
100
AcDbEntity
  8
2
100
AcDbLine
 10
121.507081
 20
64.875
 30
0.0
 11
120.757081
 21
65.125
 31
0.0
  0
LINE
  5
129
100
AcDbEntity
  8
2
100
AcDbLine
 10
120.757081
 20
65.125
 30
0.0
 11
120.757081
 21
75.375
 31
0.0
  0
LINE
  5
12A
100
AcDbEntity
  8
2
100
AcDbLine
 10
120.757081
 20
75.375
 30
0.0
 11
119.257081
 21
76.625
 31
0.0
  0
LINE
  5
12B
100
AcDbEntity
  8
2
100
AcDbLine
 10
119.257081
 20
76.625
 30
0.0
 11
117.757081
 21
75.375
 31
0.0
  0
LINE
  5
12C
100
AcDbEntity
  8
2
100
AcDbLine
 10
117.757081
 20
75.375
 30
0.0
 11
120.757081
 21
75.375
 31
0.0
  0
LINE
  5
12D
100
AcDbEntity
  8
2
100
AcDbLine
 10
117.757081
 20
75.375
 30
0.0
 11
117.757081
 21
65.125
 31
0.0
  0
LINE
  5
12E
100
AcDbEntity
  8
2
100
AcDbLine
 10
117.757081
 20
65.125
 30
0.0
 11
117.007081
 21
64.875
 31
0.0
  0
LINE
  5
12F
100
AcDbEntity
  8
2
100
AcDbLine
 10
117.757081
 20
65.125
 30
0.0
 11
120.757081
 21
65.125
 31
0.0
  0
LINE
  5
130
100
AcDbEntity
  8
2
100
AcDbLine
 10
121.257081
 20
65.125
 30
0.0
 11
121.257081
 21
73.875
 31
0.0
  0
LINE
  5
131
100
AcDbEntity
  8
2
100
AcDbLine
 10
121.257081
 20
73.875
 30
0.0
 11
117.257081
 21
73.875
 31
0.0
  0
LINE
  5
132
100
AcDbEntity
  8
2
100
AcDbLine
 10
117.257081
 20
73.875
 30
0.0
 11
117.257081
 21
65.125
 31
0.0
  0
LINE
  5
133
100
AcDbEntity
  8
2
100
AcDbLine
 10
121.257081
 20
73.875
 30
0.0
 11
120.757081
 21
74.375
 31
0.0
  0
LINE
  5
134
100
AcDbEntity
  8
2
100
AcDbLine
 10
117.257081
 20
73.875
 30
0.0
 11
117.757081
 21
74.375
 31
0.0
  0
LINE
  5
135
100
AcDbEntity
  8
2
100
AcDbLine
 10
121.257081
 20
74.375
 30
0.0
 11
117.257081
 21
74.375
 31
0.0
  0
LINE
  5
1C4
100
AcDbEntity
  8
2
100
AcDbLine
 10
58.5
 20
75.375
 30
0.0
 11
58.5
 21
65.125
 31
0.0
  0
LINE
  5
1C5
100
AcDbEntity
  8
2
100
AcDbLine
 10
58.0
 20
73.875
 30
0.0
 11
58.0
 21
65.125
 31
0.0
  0
LINE
  5
1C6
100
AcDbEntity
  8
2
100
AcDbLine
 10
61.5
 20
65.125
 30
0.0
 11
61.5
 21
75.375
 31
0.0
  0
LINE
  5
1C7
100
AcDbEntity
  8
2
100
AcDbLine
 10
62.0
 20
65.125
 30
0.0
 11
62.0
 21
73.875
 31
0.0
  0
LINE
  5
1C8
100
AcDbEntity
  8
2
100
AcDbLine
 10
58.5
 20
65.125
 30
0.0
 11
61.5
 21
65.125
 31
0.0
  0
LINE
  5
1C9
100
AcDbEntity
  8
2
100
AcDbLine
 10
58.5
 20
65.125
 30
0.0
 11
57.75
 21
64.875
 31
0.0
  0
LINE
  5
1CA
100
AcDbEntity
  8
2
100
AcDbLine
 10
62.25
 20
64.875
 30
0.0
 11
61.5
 21
65.125
 31
0.0
  0
LINE
  5
1CB
100
AcDbEntity
  8
2
100
AcDbLine
 10
60.0
 20
76.625
 30
0.0
 11
58.5
 21
75.375
 31
0.0
  0
LINE
  5
1CC
100
AcDbEntity
  8
2
100
AcDbLine
 10
61.5
 20
75.375
 30
0.0
 11
60.0
 21
76.625
 31
0.0
  0
LINE
  5
1CD
100
AcDbEntity
  8
2
100
AcDbLine
 10
58.5
 20
75.375
 30
0.0
 11
61.5
 21
75.375
 31
0.0
  0
LINE
  5
1CE
100
AcDbEntity
  8
2
100
AcDbLine
 10
62.0
 20
73.875
 30
0.0
 11
58.0
 21
73.875
 31
0.0
  0
LINE
  5
1CF
100
AcDbEntity
  8
2
100
AcDbLine
 10
62.0
 20
74.375
 30
0.0
 11
58.0
 21
74.375
 31
0.0
  0
LINE
  5
1D0
100
AcDbEntity
  8
2
100
AcDbLine
 10
58.0
 20
73.875
 30
0.0
 11
58.5
 21
74.375
 31
0.0
  0
LINE
  5
1D1
100
AcDbEntity
  8
2
100
AcDbLine
 10
62.0
 20
73.875
 30
0.0
 11
61.5
 21
74.375
 31
0.0
  0
ENDSEC
  0
SECTION
  2
OBJECTS
  0
DICTIONARY
  5
198
100
AcDbDictionary
  3
ACAD_GROUP
350
199
  3
ACAD_MLINESTYLE
350
1A6
  3
ACDBVARIABLEDICTIONARY
350
1BE
  0
DICTIONARY
  5
199
102
{ACAD_REACTORS
330
198
102
}
100
AcDbDictionary
  0
DICTIONARY
  5
1A6
102
{ACAD_REACTORS
330
198
102
}
100
AcDbDictionary
  3
STANDARD
350
1A7
  0
DICTIONARY
  5
1BE
102
{ACAD_REACTORS
330
198
102
}
100
AcDbDictionary
  3
DIMADEC
350
1BF
  0
MLINESTYLE
  5
1A7
102
{ACAD_REACTORS
330
1A6
102
}
100
AcDbMlineStyle
  2
STANDARD
 70
     0
  3

 62
   256
 51
90.0
 52
90.0
 71
     2
 49
0.5
 62
   256
  6
BYLAYER
 49
-0.5
 62
   256
  6
BYLAYER
  0
DICTIONARYVAR
  5
1BF
102
{ACAD_REACTORS
330
1BE
102
}
100
DictionaryVariables
280
     0
  1
0
  0
ENDSEC
  0
EOF
