  0
SECTION
  2
HEADER
  9
$ACADVER
  1
AC1009
  9
$INSBASE
 10
0.0
 20
0.0
 30
0.0
  9
$EXTMIN
 10
32.5
 20
16.0
 30
0.0
  9
$EXTMAX
 10
166.0
 20
111.0
 30
0.0
  9
$LIMMIN
 10
0.0
 20
0.0
  9
$LIMMAX
 10
200.0
 20
150.0
  9
$ORTHOMODE
 70
     1
  9
$REGENMODE
 70
     1
  9
$FILLMODE
 70
     1
  9
$QTEXTMODE
 70
     0
  9
$MIRRTEXT
 70
     1
  9
$DRAGMODE
 70
     2
  9
$LTSCALE
 40
1.0
  9
$OSMODE
 70
     0
  9
$ATTMODE
 70
     1
  9
$TEXTSIZE
 40
2.5
  9
$TRACEWID
 40
1.0
  9
$TEXTSTYLE
  7
STANDARD
  9
$CLAYER
  8
0
  9
$CELTYPE
  6
BYLAYER
  9
$CECOLOR
 62
   256
  9
$DIMSCALE
 40
1.0
  9
$DIMASZ
 40
2.5
  9
$DIMEXO
 40
0.625
  9
$DIMDLI
 40
3.75
  9
$DIMRND
 40
0.0
  9
$DIMDLE
 40
0.0
  9
$DIMEXE
 40
1.25
  9
$DIMTP
 40
0.0
  9
$DIMTM
 40
0.0
  9
$DIMTXT
 40
2.5
  9
$DIMCEN
 40
2.5
  9
$DIMTSZ
 40
0.0
  9
$DIMTOL
 70
     0
  9
$DIMLIM
 70
     0
  9
$DIMTIH
 70
     0
  9
$DIMTOH
 70
     0
  9
$DIMSE1
 70
     0
  9
$DIMSE2
 70
     0
  9
$DIMTAD
 70
     1
  9
$DIMZIN
 70
     8
  9
$DIMBLK
  1

  9
$DIMASO
 70
     1
  9
$DIMSHO
 70
     1
  9
$DIMPOST
  1

  9
$DIMAPOST
  1

  9
$DIMALT
 70
     0
  9
$DIMALTD
 70
     4
  9
$DIMALTF
 40
0.0394
  9
$DIMLFAC
 40
1.0
  9
$DIMTOFL
 70
     1
  9
$DIMTVP
 40
0.0
  9
$DIMTIX
 70
     0
  9
$DIMSOXD
 70
     0
  9
$DIMSAH
 70
     0
  9
$DIMBLK1
  1

  9
$DIMBLK2
  1

  9
$DIMSTYLE
  2
STANDARD
  9
$DIMCLRD
 70
     0
  9
$DIMCLRE
 70
     0
  9
$DIMCLRT
 70
     0
  9
$DIMTFAC
 40
1.0
  9
$DIMGAP
 40
0.625
  9
$LUNITS
 70
     2
  9
$LUPREC
 70
     4
  9
$SKETCHINC
 40
1.0
  9
$FILLETRAD
 40
1.0
  9
$AUNITS
 70
     0
  9
$AUPREC
 70
     0
  9
$MENU
  1
.
  9
$ELEVATION
 40
0.0
  9
$PELEVATION
 40
0.0
  9
$THICKNESS
 40
0.0
  9
$LIMCHECK
 70
     0
  9
$BLIPMODE
 70
     0
  9
$CHAMFERA
 40
10.0
  9
$CHAMFERB
 40
10.0
  9
$SKPOLY
 70
     0
  9
$TDCREATE
 40
2452126.530473
  9
$TDUPDATE
 40
2452126.568254
  9
$TDINDWG
 40
0.033483
  9
$TDUSRTIMER
 40
0.033483
  9
$USRTIMER
 70
     1
  9
$ANGBASE
 50
0.0
  9
$ANGDIR
 70
     0
  9
$PDMODE
 70
     0
  9
$PDSIZE
 40
0.0
  9
$PLINEWID
 40
0.0
  9
$COORDS
 70
     2
  9
$SPLFRAME
 70
     0
  9
$SPLINETYPE
 70
     6
  9
$SPLINESEGS
 70
     8
  9
$ATTDIA
 70
     0
  9
$ATTREQ
 70
     1
  9
$HANDLING
 70
     1
  9
$HANDSEED
  5
453
  9
$SURFTAB1
 70
     6
  9
$SURFTAB2
 70
     6
  9
$SURFTYPE
 70
     6
  9
$SURFU
 70
     6
  9
$SURFV
 70
     6
  9
$UCSNAME
  2

  9
$UCSORG
 10
0.0
 20
0.0
 30
0.0
  9
$UCSXDIR
 10
1.0
 20
0.0
 30
0.0
  9
$UCSYDIR
 10
0.0
 20
1.0
 30
0.0
  9
$PUCSNAME
  2

  9
$PUCSORG
 10
0.0
 20
0.0
 30
0.0
  9
$PUCSXDIR
 10
1.0
 20
0.0
 30
0.0
  9
$PUCSYDIR
 10
0.0
 20
1.0
 30
0.0
  9
$USERI1
 70
     0
  9
$USERI2
 70
     0
  9
$USERI3
 70
     0
  9
$USERI4
 70
     0
  9
$USERI5
 70
     0
  9
$USERR1
 40
0.0
  9
$USERR2
 40
0.0
  9
$USERR3
 40
0.0
  9
$USERR4
 40
0.0
  9
$USERR5
 40
0.0
  9
$WORLDVIEW
 70
     1
  9
$SHADEDGE
 70
     3
  9
$SHADEDIF
 70
    70
  9
$TILEMODE
 70
     1
  9
$MAXACTVP
 70
    48
  9
$PLIMCHECK
 70
     0
  9
$PEXTMIN
 10
1.000000E+020
 20
1.000000E+020
 30
1.000000E+020
  9
$PEXTMAX
 10
-1.000000E+020
 20
-1.000000E+020
 30
-1.000000E+020
  9
$PLIMMIN
 10
0.0
 20
0.0
  9
$PLIMMAX
 10
420.0
 20
297.0
  9
$UNITMODE
 70
     0
  9
$VISRETAIN
 70
     1
  9
$PLINEGEN
 70
     0
  9
$PSLTSCALE
 70
     1
  0
ENDSEC
  0
SECTION
  2
TABLES
  0
TABLE
  2
VPORT
 70
     2
  0
VPORT
  2
*ACTIVE
 70
     0
 10
0.0
 20
0.0
 11
1.0
 21
1.0
 12
97.374571
 22
74.937083
 13
0.0
 23
0.0
 14
0.5
 24
0.5
 15
1.0
 25
1.0
 16
0.0
 26
0.0
 36
1.0
 17
0.0
 27
0.0
 37
0.0
 40
156.66443
 41
1.353571
 42
50.0
 43
0.0
 44
0.0
 50
0.0
 51
0.0
 71
     0
 72
   100
 73
     1
 74
     1
 75
     1
 76
     1
 77
     0
 78
     0
  0
ENDTAB
  0
TABLE
  2
LTYPE
 70
     3
  0
LTYPE
  2
CONTINUOUS
 70
     0
  3
Solid line
 72
    65
 73
     0
 40
0.0
  0
LTYPE
  2
CENTER
 70
     0
  3
____ _ ____ _ ____ _ ____ _ ____ _ ____ _ ____
 72
    65
 73
     4
 40
2.0
 49
1.25
 49
-0.25
 49
0.25
 49
-0.25
  0
LTYPE
  2
HIDDEN2
 70
     0
  3
Hidden (.5x) _ _ _ _ _ _ _ _ _ _ _ _ _ _ _ _ _
 72
    65
 73
     2
 40
4.7625
 49
3.175
 49
-1.5875
  0
ENDTAB
  0
TABLE
  2
LAYER
 70
     3
  0
LAYER
  2
0
 70
     0
 62
     7
  6
CONTINUOUS
  0
LAYER
  2
1
 70
     0
 62
     1
  6
CENTER
  0
LAYER
  2
2
 70
     0
 62
     2
  6
HIDDEN2
  0
ENDTAB
  0
TABLE
  2
STYLE
 70
     3
  0
STYLE
  2
STANDARD
 70
     0
 40
0.0
 41
1.0
 50
0.0
 71
     0
 42
2.5
  3
txt
  4

  0
STYLE
  2
BIGFONT
 70
     0
 40
10.0
 41
0.8
 50
0.0
 71
     0
 42
10.0
  3
txt.shx
  4
bigfont
  0
STYLE
  2

 70
     1
 40
0.0
 41
1.0
 50
0.0
 71
     0
 42
2.5
  3
ltypeshp.shx
  4

  0
ENDTAB
  0
TABLE
  2
VIEW
 70
     0
  0
ENDTAB
  0
TABLE
  2
UCS
 70
     0
  0
ENDTAB
  0
TABLE
  2
APPID
 70
     1
  0
APPID
  2
ACAD
 70
     0
  0
ENDTAB
  0
TABLE
  2
DIMSTYLE
 70
     1
  0
DIMSTYLE
  2
STANDARD
 70
     0
  3

  4

  5

  6

  7

 40
1.0
 41
0.18
 42
0.0625
 43
0.38
 44
0.18
 45
0.0
 46
0.0
 47
0.0
 48
0.0
140
0.18
141
0.09
142
0.0
143
25.4
144
1.0
145
0.0
146
1.0
147
0.09
 71
     0
 72
     0
 73
     1
 74
     1
 75
     0
 76
     0
 77
     0
 78
     0
170
     0
171
     2
172
     0
173
     0
174
     0
175
     0
176
     0
177
     0
178
     0
  0
ENDTAB
  0
ENDSEC
  0
SECTION
  2
BLOCKS
  0
BLOCK
  8
0
  2
$MODEL_SPACE
 70
     0
 10
0.0
 20
0.0
 30
0.0
  3
$MODEL_SPACE
  1

  0
ENDBLK
  5
1A
  8
0
  0
BLOCK
 67
     1
  8
0
  2
$PAPER_SPACE
 70
     0
 10
0.0
 20
0.0
 30
0.0
  3
$PAPER_SPACE
  1

  0
ENDBLK
  5
17
 67
     1
  8
0
  0
BLOCK
  8
0
  2
A$C00836C8E
 70
     0
 10
0.0
 20
0.0
 30
0.0
  3
A$C00836C8E
  1

  0
ARC
  5
24
  8
0
 10
81.5
 20
18.004234
 30
0.0
 40
1.0
 50
180.0
 51
285.042801
  0
LINE
  5
25
  8
0
 10
81.239334
 20
35.69962
 30
0.0
 11
129.239334
 21
48.65962
 31
0.0
  0
LINE
  5
26
  8
1
 10
8.0
 20
50.5
 30
0.0
 11
8.0
 21
0.0
 31
0.0
  0
LINE
  5
27
  8
0
 10
2.0
 20
13.5
 30
0.0
 11
2.0
 21
17.267081
 31
0.0
  0
LINE
  5
28
  8
0
 10
14.0
 20
13.5
 30
0.0
 11
14.0
 21
17.267081
 31
0.0
  0
LINE
  5
29
  8
0
 10
8.0
 20
13.5
 30
0.0
 11
2.0
 21
13.5
 31
0.0
  0
LINE
  5
2A
  8
0
 10
9.5
 20
3.5
 30
0.0
 11
9.5
 21
12.5
 31
0.0
  0
LINE
  5
2B
  8
0
 10
10.0
 20
13.5
 30
0.0
 11
10.0
 21
4.0
 31
0.0
  0
LINE
  5
2C
  8
0
 10
6.0
 20
13.5
 30
0.0
 11
6.0
 21
4.0
 31
0.0
  0
LINE
  5
2D
  8
0
 10
6.5
 20
3.5
 30
0.0
 11
6.5
 21
12.5
 31
0.0
  0
LINE
  5
2E
  8
0
 10
6.5
 20
3.5
 30
0.0
 11
8.0
 21
3.5
 31
0.0
  0
LINE
  5
2F
  8
0
 10
6.0
 20
4.0
 30
0.0
 11
8.0
 21
4.0
 31
0.0
  0
LINE
  5
30
  8
0
 10
6.0
 20
4.0
 30
0.0
 11
6.5
 21
3.5
 31
0.0
  0
LINE
  5
31
  8
0
 10
10.0
 20
4.0
 30
0.0
 11
8.0
 21
4.0
 31
0.0
  0
LINE
  5
32
  8
0
 10
9.5
 20
3.5
 30
0.0
 11
8.0
 21
3.5
 31
0.0
  0
LINE
  5
33
  8
0
 10
10.0
 20
4.0
 30
0.0
 11
9.5
 21
3.5
 31
0.0
  0
LINE
  5
34
  8
0
 10
8.0
 20
13.5
 30
0.0
 11
14.0
 21
13.5
 31
0.0
  0
LINE
  5
35
  8
0
 10
6.0
 20
12.5
 30
0.0
 11
8.0
 21
12.5
 31
0.0
  0
LINE
  5
36
  8
0
 10
10.0
 20
12.5
 30
0.0
 11
8.0
 21
12.5
 31
0.0
  0
LINE
  5
37
  8
0
 10
16.0
 20
18.5
 30
0.0
 11
16.0
 21
37.5
 31
0.0
  0
LINE
  5
38
  8
0
 10
0.0
 20
18.5
 30
0.0
 11
0.0
 21
37.5
 31
0.0
  0
POLYLINE
  5
39
  8
0
 10
0.267585
 20
38.012942
 30
0.0
 66
     1
 70
     8
  0
VERTEX
  8
0
  5
1C9
 10
0.267585
 20
38.0129
 30
0.000000
  70
    32
  0
VERTEX
  8
0
  5
1CA
 10
0.212081
 20
37.9575
 30
0.000000
  70
    32
  0
VERTEX
  8
0
  5
1CB
 10
0.162945
 20
37.9016
 30
0.000000
  70
    32
  0
VERTEX
  8
0
  5
1CC
 10
0.120218
 20
37.8454
 30
0.000000
  70
    32
  0
VERTEX
  8
0
  5
1CD
 10
0.0839342
 20
37.7890
 30
0.000000
  70
    32
  0
VERTEX
  8
0
  5
1CE
 10
0.0541232
 20
37.7323
 30
0.000000
  70
    32
  0
VERTEX
  8
0
  5
1CF
 10
0.0308095
 20
37.6754
 30
0.000000
  70
    32
  0
VERTEX
  8
0
  5
1D0
 10
0.0140121
 20
37.6183
 30
0.000000
  70
    32
  0
VERTEX
  8
0
  5
1D1
 10
0.00374481
 20
37.5612
 30
0.000000
  70
    32
  0
VERTEX
  8
0
  5
1D2
 10
1.60367e-005
 20
37.5040
 30
0.000000
  70
    32
  0
VERTEX
  8
0
  5
1D3
 10
0.00282881
 20
37.4468
 30
0.000000
  70
    32
  0
VERTEX
  8
0
  5
1D4
 10
0.0121808
 20
37.3897
 30
0.000000
  70
    32
  0
VERTEX
  8
0
  5
1D5
 10
0.0280644
 20
37.3326
 30
0.000000
  70
    32
  0
VERTEX
  8
0
  5
1D6
 10
0.0504667
 20
37.2757
 30
0.000000
  70
    32
  0
VERTEX
  8
0
  5
1D7
 10
0.0793692
 20
37.2190
 30
0.000000
  70
    32
  0
VERTEX
  8
0
  5
1D8
 10
0.114748
 20
37.1625
 30
0.000000
  70
    32
  0
VERTEX
  8
0
  5
1D9
 10
0.156575
 20
37.1062
 30
0.000000
  70
    32
  0
VERTEX
  8
0
  5
1DA
 10
0.204816
 20
37.0503
 30
0.000000
  70
    32
  0
VERTEX
  8
0
  5
1DB
 10
0.259430
 20
36.9948
 30
0.000000
  70
    32
  0
VERTEX
  8
0
  5
1DC
 10
0.320374
 20
36.9397
 30
0.000000
  70
    32
  0
VERTEX
  8
0
  5
1DD
 10
0.387598
 20
36.8850
 30
0.000000
  70
    32
  0
VERTEX
  8
0
  5
1DE
 10
0.461046
 20
36.8309
 30
0.000000
  70
    32
  0
VERTEX
  8
0
  5
1DF
 10
0.540659
 20
36.7772
 30
0.000000
  70
    32
  0
VERTEX
  8
0
  5
1E0
 10
0.626371
 20
36.7242
 30
0.000000
  70
    32
  0
VERTEX
  8
0
  5
1E1
 10
0.718112
 20
36.6718
 30
0.000000
  70
    32
  0
VERTEX
  8
0
  5
1E2
 10
0.815808
 20
36.6201
 30
0.000000
  70
    32
  0
VERTEX
  8
0
  5
1E3
 10
0.919379
 20
36.5691
 30
0.000000
  70
    32
  0
VERTEX
  8
0
  5
1E4
 10
1.02874
 20
36.5189
 30
0.000000
  70
    32
  0
VERTEX
  8
0
  5
1E5
 10
1.14380
 20
36.4695
 30
0.000000
  70
    32
  0
VERTEX
  8
0
  5
1E6
 10
1.26447
 20
36.4209
 30
0.000000
  70
    32
  0
VERTEX
  8
0
  5
1E7
 10
1.39064
 20
36.3732
 30
0.000000
  70
    32
  0
VERTEX
  8
0
  5
1E8
 10
1.52222
 20
36.3264
 30
0.000000
  70
    32
  0
VERTEX
  8
0
  5
1E9
 10
1.65910
 20
36.2806
 30
0.000000
  70
    32
  0
VERTEX
  8
0
  5
1EA
 10
1.80116
 20
36.2357
 30
0.000000
  70
    32
  0
VERTEX
  8
0
  5
1EB
 10
1.94829
 20
36.1919
 30
0.000000
  70
    32
  0
VERTEX
  8
0
  5
1EC
 10
2.10036
 20
36.1492
 30
0.000000
  70
    32
  0
VERTEX
  8
0
  5
1ED
 10
2.25727
 20
36.1076
 30
0.000000
  70
    32
  0
VERTEX
  8
0
  5
1EE
 10
2.41886
 20
36.0671
 30
0.000000
  70
    32
  0
VERTEX
  8
0
  5
1EF
 10
2.58502
 20
36.0278
 30
0.000000
  70
    32
  0
VERTEX
  8
0
  5
1F0
 10
2.75561
 20
35.9897
 30
0.000000
  70
    32
  0
VERTEX
  8
0
  5
1F1
 10
2.93049
 20
35.9528
 30
0.000000
  70
    32
  0
VERTEX
  8
0
  5
1F2
 10
3.10951
 20
35.9172
 30
0.000000
  70
    32
  0
VERTEX
  8
0
  5
1F3
 10
3.29254
 20
35.8829
 30
0.000000
  70
    32
  0
VERTEX
  8
0
  5
1F4
 10
3.47941
 20
35.8499
 30
0.000000
  70
    32
  0
VERTEX
  8
0
  5
1F5
 10
3.66997
 20
35.8183
 30
0.000000
  70
    32
  0
VERTEX
  8
0
  5
1F6
 10
3.86408
 20
35.7880
 30
0.000000
  70
    32
  0
VERTEX
  8
0
  5
1F7
 10
4.06157
 20
35.7592
 30
0.000000
  70
    32
  0
VERTEX
  8
0
  5
1F8
 10
4.26228
 20
35.7317
 30
0.000000
  70
    32
  0
VERTEX
  8
0
  5
1F9
 10
4.46605
 20
35.7057
 30
0.000000
  70
    32
  0
VERTEX
  8
0
  5
1FA
 10
4.67271
 20
35.6812
 30
0.000000
  70
    32
  0
VERTEX
  8
0
  5
1FB
 10
4.88208
 20
35.6581
 30
0.000000
  70
    32
  0
VERTEX
  8
0
  5
1FC
 10
5.09401
 20
35.6366
 30
0.000000
  70
    32
  0
VERTEX
  8
0
  5
1FD
 10
5.30831
 20
35.6166
 30
0.000000
  70
    32
  0
VERTEX
  8
0
  5
1FE
 10
5.52482
 20
35.5981
 30
0.000000
  70
    32
  0
VERTEX
  8
0
  5
1FF
 10
5.74335
 20
35.5812
 30
0.000000
  70
    32
  0
VERTEX
  8
0
  5
200
 10
5.96372
 20
35.5659
 30
0.000000
  70
    32
  0
VERTEX
  8
0
  5
201
 10
6.18576
 20
35.5521
 30
0.000000
  70
    32
  0
VERTEX
  8
0
  5
202
 10
6.40928
 20
35.5399
 30
0.000000
  70
    32
  0
VERTEX
  8
0
  5
203
 10
6.63410
 20
35.5294
 30
0.000000
  70
    32
  0
VERTEX
  8
0
  5
204
 10
6.86004
 20
35.5204
 30
0.000000
  70
    32
  0
VERTEX
  8
0
  5
205
 10
7.08691
 20
35.5131
 30
0.000000
  70
    32
  0
VERTEX
  8
0
  5
206
 10
7.31453
 20
35.5074
 30
0.000000
  70
    32
  0
VERTEX
  8
0
  5
207
 10
7.54271
 20
35.5033
 30
0.000000
  70
    32
  0
VERTEX
  8
0
  5
208
 10
7.77126
 20
35.5008
 30
0.000000
  70
    32
  0
VERTEX
  8
0
  5
209
 10
8.00000
 20
35.5000
 30
0.000000
  70
    32
  0
VERTEX
  8
0
  5
20A
 10
8.22874
 20
35.5008
 30
0.000000
  70
    32
  0
VERTEX
  8
0
  5
20B
 10
8.45729
 20
35.5033
 30
0.000000
  70
    32
  0
VERTEX
  8
0
  5
20C
 10
8.68547
 20
35.5074
 30
0.000000
  70
    32
  0
VERTEX
  8
0
  5
20D
 10
8.91309
 20
35.5131
 30
0.000000
  70
    32
  0
VERTEX
  8
0
  5
20E
 10
9.13996
 20
35.5204
 30
0.000000
  70
    32
  0
VERTEX
  8
0
  5
20F
 10
9.36590
 20
35.5294
 30
0.000000
  70
    32
  0
VERTEX
  8
0
  5
210
 10
9.59072
 20
35.5399
 30
0.000000
  70
    32
  0
VERTEX
  8
0
  5
211
 10
9.81424
 20
35.5521
 30
0.000000
  70
    32
  0
VERTEX
  8
0
  5
212
 10
10.0363
 20
35.5659
 30
0.000000
  70
    32
  0
VERTEX
  8
0
  5
213
 10
10.2567
 20
35.5812
 30
0.000000
  70
    32
  0
VERTEX
  8
0
  5
214
 10
10.4752
 20
35.5981
 30
0.000000
  70
    32
  0
VERTEX
  8
0
  5
215
 10
10.6917
 20
35.6166
 30
0.000000
  70
    32
  0
VERTEX
  8
0
  5
216
 10
10.9060
 20
35.6366
 30
0.000000
  70
    32
  0
VERTEX
  8
0
  5
217
 10
11.1179
 20
35.6581
 30
0.000000
  70
    32
  0
VERTEX
  8
0
  5
218
 10
11.3273
 20
35.6812
 30
0.000000
  70
    32
  0
VERTEX
  8
0
  5
219
 10
11.5339
 20
35.7057
 30
0.000000
  70
    32
  0
VERTEX
  8
0
  5
21A
 10
11.7377
 20
35.7317
 30
0.000000
  70
    32
  0
VERTEX
  8
0
  5
21B
 10
11.9384
 20
35.7592
 30
0.000000
  70
    32
  0
VERTEX
  8
0
  5
21C
 10
12.1359
 20
35.7880
 30
0.000000
  70
    32
  0
VERTEX
  8
0
  5
21D
 10
12.3300
 20
35.8183
 30
0.000000
  70
    32
  0
VERTEX
  8
0
  5
21E
 10
12.5206
 20
35.8499
 30
0.000000
  70
    32
  0
VERTEX
  8
0
  5
21F
 10
12.7075
 20
35.8829
 30
0.000000
  70
    32
  0
VERTEX
  8
0
  5
220
 10
12.8905
 20
35.9172
 30
0.000000
  70
    32
  0
VERTEX
  8
0
  5
221
 10
13.0695
 20
35.9528
 30
0.000000
  70
    32
  0
VERTEX
  8
0
  5
222
 10
13.2444
 20
35.9897
 30
0.000000
  70
    32
  0
VERTEX
  8
0
  5
223
 10
13.4150
 20
36.0278
 30
0.000000
  70
    32
  0
VERTEX
  8
0
  5
224
 10
13.5811
 20
36.0671
 30
0.000000
  70
    32
  0
VERTEX
  8
0
  5
225
 10
13.7427
 20
36.1076
 30
0.000000
  70
    32
  0
VERTEX
  8
0
  5
226
 10
13.8996
 20
36.1492
 30
0.000000
  70
    32
  0
VERTEX
  8
0
  5
227
 10
14.0517
 20
36.1919
 30
0.000000
  70
    32
  0
VERTEX
  8
0
  5
228
 10
14.1988
 20
36.2357
 30
0.000000
  70
    32
  0
VERTEX
  8
0
  5
229
 10
14.3409
 20
36.2806
 30
0.000000
  70
    32
  0
VERTEX
  8
0
  5
22A
 10
14.4778
 20
36.3264
 30
0.000000
  70
    32
  0
VERTEX
  8
0
  5
22B
 10
14.6094
 20
36.3732
 30
0.000000
  70
    32
  0
VERTEX
  8
0
  5
22C
 10
14.7355
 20
36.4209
 30
0.000000
  70
    32
  0
VERTEX
  8
0
  5
22D
 10
14.8562
 20
36.4695
 30
0.000000
  70
    32
  0
VERTEX
  8
0
  5
22E
 10
14.9713
 20
36.5189
 30
0.000000
  70
    32
  0
VERTEX
  8
0
  5
22F
 10
15.0806
 20
36.5691
 30
0.000000
  70
    32
  0
VERTEX
  8
0
  5
230
 10
15.1842
 20
36.6201
 30
0.000000
  70
    32
  0
VERTEX
  8
0
  5
231
 10
15.2819
 20
36.6718
 30
0.000000
  70
    32
  0
VERTEX
  8
0
  5
232
 10
15.3736
 20
36.7242
 30
0.000000
  70
    32
  0
VERTEX
  8
0
  5
233
 10
15.4593
 20
36.7772
 30
0.000000
  70
    32
  0
VERTEX
  8
0
  5
234
 10
15.5390
 20
36.8309
 30
0.000000
  70
    32
  0
VERTEX
  8
0
  5
235
 10
15.6124
 20
36.8850
 30
0.000000
  70
    32
  0
VERTEX
  8
0
  5
236
 10
15.6796
 20
36.9397
 30
0.000000
  70
    32
  0
VERTEX
  8
0
  5
237
 10
15.7406
 20
36.9948
 30
0.000000
  70
    32
  0
VERTEX
  8
0
  5
238
 10
15.7952
 20
37.0503
 30
0.000000
  70
    32
  0
VERTEX
  8
0
  5
239
 10
15.8434
 20
37.1062
 30
0.000000
  70
    32
  0
VERTEX
  8
0
  5
23A
 10
15.8853
 20
37.1625
 30
0.000000
  70
    32
  0
VERTEX
  8
0
  5
23B
 10
15.9206
 20
37.2190
 30
0.000000
  70
    32
  0
VERTEX
  8
0
  5
23C
 10
15.9495
 20
37.2757
 30
0.000000
  70
    32
  0
VERTEX
  8
0
  5
23D
 10
15.9719
 20
37.3326
 30
0.000000
  70
    32
  0
VERTEX
  8
0
  5
23E
 10
15.9878
 20
37.3897
 30
0.000000
  70
    32
  0
VERTEX
  8
0
  5
23F
 10
15.9972
 20
37.4468
 30
0.000000
  70
    32
  0
VERTEX
  8
0
  5
240
 10
16.0000
 20
37.5040
 30
0.000000
  70
    32
  0
VERTEX
  8
0
  5
241
 10
15.9963
 20
37.5612
 30
0.000000
  70
    32
  0
VERTEX
  8
0
  5
242
 10
15.9860
 20
37.6183
 30
0.000000
  70
    32
  0
VERTEX
  8
0
  5
243
 10
15.9692
 20
37.6754
 30
0.000000
  70
    32
  0
VERTEX
  8
0
  5
244
 10
15.9459
 20
37.7323
 30
0.000000
  70
    32
  0
VERTEX
  8
0
  5
245
 10
15.9161
 20
37.7890
 30
0.000000
  70
    32
  0
VERTEX
  8
0
  5
246
 10
15.8798
 20
37.8454
 30
0.000000
  70
    32
  0
VERTEX
  8
0
  5
247
 10
15.8371
 20
37.9016
 30
0.000000
  70
    32
  0
VERTEX
  8
0
  5
248
 10
15.7879
 20
37.9575
 30
0.000000
  70
    32
  0
VERTEX
  8
0
  5
249
 10
15.7324
 20
38.0129
 30
0.000000
  70
    32
  0
SEQEND
  8
0
  5
24A
  0
ARC
  5
3A
  8
0
 10
8.0
 20
45.0
 30
0.0
 40
8.5
 50
241.927513
 51
298.072487
  0
POLYLINE
  5
3B
  8
0
 10
0.0
 20
18.5
 30
0.0
 66
     1
 70
     8
  0
VERTEX
  8
0
  5
24B
 10
0.000000
 20
18.5000
 30
0.000000
  70
    32
  0
VERTEX
  8
0
  5
24C
 10
0.00240945
 20
18.4543
 30
0.000000
  70
    32
  0
VERTEX
  8
0
  5
24D
 10
0.00963635
 20
18.4085
 30
0.000000
  70
    32
  0
VERTEX
  8
0
  5
24E
 10
0.0216763
 20
18.3629
 30
0.000000
  70
    32
  0
VERTEX
  8
0
  5
24F
 10
0.0385222
 20
18.3173
 30
0.000000
  70
    32
  0
VERTEX
  8
0
  5
250
 10
0.0601637
 20
18.2718
 30
0.000000
  70
    32
  0
VERTEX
  8
0
  5
251
 10
0.0865879
 20
18.2265
 30
0.000000
  70
    32
  0
VERTEX
  8
0
  5
252
 10
0.117779
 20
18.1813
 30
0.000000
  70
    32
  0
VERTEX
  8
0
  5
253
 10
0.153718
 20
18.1364
 30
0.000000
  70
    32
  0
VERTEX
  8
0
  5
254
 10
0.194383
 20
18.0916
 30
0.000000
  70
    32
  0
VERTEX
  8
0
  5
255
 10
0.239750
 20
18.0471
 30
0.000000
  70
    32
  0
VERTEX
  8
0
  5
256
 10
0.289791
 20
18.0028
 30
0.000000
  70
    32
  0
VERTEX
  8
0
  5
257
 10
0.344477
 20
17.9589
 30
0.000000
  70
    32
  0
VERTEX
  8
0
  5
258
 10
0.403775
 20
17.9153
 30
0.000000
  70
    32
  0
VERTEX
  8
0
  5
259
 10
0.467647
 20
17.8720
 30
0.000000
  70
    32
  0
VERTEX
  8
0
  5
25A
 10
0.536058
 20
17.8292
 30
0.000000
  70
    32
  0
VERTEX
  8
0
  5
25B
 10
0.608964
 20
17.7867
 30
0.000000
  70
    32
  0
VERTEX
  8
0
  5
25C
 10
0.686322
 20
17.7446
 30
0.000000
  70
    32
  0
VERTEX
  8
0
  5
25D
 10
0.768086
 20
17.7030
 30
0.000000
  70
    32
  0
VERTEX
  8
0
  5
25E
 10
0.854206
 20
17.6619
 30
0.000000
  70
    32
  0
VERTEX
  8
0
  5
25F
 10
0.944630
 20
17.6213
 30
0.000000
  70
    32
  0
VERTEX
  8
0
  5
260
 10
1.03930
 20
17.5812
 30
0.000000
  70
    32
  0
VERTEX
  8
0
  5
261
 10
1.13817
 20
17.5417
 30
0.000000
  70
    32
  0
VERTEX
  8
0
  5
262
 10
1.24117
 20
17.5028
 30
0.000000
  70
    32
  0
VERTEX
  8
0
  5
263
 10
1.34824
 20
17.4644
 30
0.000000
  70
    32
  0
VERTEX
  8
0
  5
264
 10
1.45932
 20
17.4267
 30
0.000000
  70
    32
  0
VERTEX
  8
0
  5
265
 10
1.57434
 20
17.3896
 30
0.000000
  70
    32
  0
VERTEX
  8
0
  5
266
 10
1.69323
 20
17.3532
 30
0.000000
  70
    32
  0
VERTEX
  8
0
  5
267
 10
1.81592
 20
17.3175
 30
0.000000
  70
    32
  0
VERTEX
  8
0
  5
268
 10
1.94233
 20
17.2825
 30
0.000000
  70
    32
  0
VERTEX
  8
0
  5
269
 10
2.07239
 20
17.2482
 30
0.000000
  70
    32
  0
VERTEX
  8
0
  5
26A
 10
2.20602
 20
17.2147
 30
0.000000
  70
    32
  0
VERTEX
  8
0
  5
26B
 10
2.34315
 20
17.1820
 30
0.000000
  70
    32
  0
VERTEX
  8
0
  5
26C
 10
2.48368
 20
17.1500
 30
0.000000
  70
    32
  0
VERTEX
  8
0
  5
26D
 10
2.62753
 20
17.1189
 30
0.000000
  70
    32
  0
VERTEX
  8
0
  5
26E
 10
2.77462
 20
17.0886
 30
0.000000
  70
    32
  0
VERTEX
  8
0
  5
26F
 10
2.92485
 20
17.0591
 30
0.000000
  70
    32
  0
VERTEX
  8
0
  5
270
 10
3.07815
 20
17.0305
 30
0.000000
  70
    32
  0
VERTEX
  8
0
  5
271
 10
3.23441
 20
17.0028
 30
0.000000
  70
    32
  0
VERTEX
  8
0
  5
272
 10
3.39353
 20
16.9760
 30
0.000000
  70
    32
  0
VERTEX
  8
0
  5
273
 10
3.55544
 20
16.9501
 30
0.000000
  70
    32
  0
VERTEX
  8
0
  5
274
 10
3.72002
 20
16.9252
 30
0.000000
  70
    32
  0
VERTEX
  8
0
  5
275
 10
3.88718
 20
16.9012
 30
0.000000
  70
    32
  0
VERTEX
  8
0
  5
276
 10
4.05681
 20
16.8782
 30
0.000000
  70
    32
  0
VERTEX
  8
0
  5
277
 10
4.22883
 20
16.8561
 30
0.000000
  70
    32
  0
VERTEX
  8
0
  5
278
 10
4.40311
 20
16.8350
 30
0.000000
  70
    32
  0
VERTEX
  8
0
  5
279
 10
4.57956
 20
16.8150
 30
0.000000
  70
    32
  0
VERTEX
  8
0
  5
27A
 10
4.75807
 20
16.7959
 30
0.000000
  70
    32
  0
VERTEX
  8
0
  5
27B
 10
4.93853
 20
16.7779
 30
0.000000
  70
    32
  0
VERTEX
  8
0
  5
27C
 10
5.12084
 20
16.7609
 30
0.000000
  70
    32
  0
VERTEX
  8
0
  5
27D
 10
5.30488
 20
16.7450
 30
0.000000
  70
    32
  0
VERTEX
  8
0
  5
27E
 10
5.49055
 20
16.7301
 30
0.000000
  70
    32
  0
VERTEX
  8
0
  5
27F
 10
5.67772
 20
16.7163
 30
0.000000
  70
    32
  0
VERTEX
  8
0
  5
280
 10
5.86630
 20
16.7035
 30
0.000000
  70
    32
  0
VERTEX
  8
0
  5
281
 10
6.05616
 20
16.6919
 30
0.000000
  70
    32
  0
VERTEX
  8
0
  5
282
 10
6.24719
 20
16.6813
 30
0.000000
  70
    32
  0
VERTEX
  8
0
  5
283
 10
6.43928
 20
16.6718
 30
0.000000
  70
    32
  0
VERTEX
  8
0
  5
284
 10
6.63230
 20
16.6634
 30
0.000000
  70
    32
  0
VERTEX
  8
0
  5
285
 10
6.82616
 20
16.6562
 30
0.000000
  70
    32
  0
VERTEX
  8
0
  5
286
 10
7.02071
 20
16.6500
 30
0.000000
  70
    32
  0
VERTEX
  8
0
  5
287
 10
7.21586
 20
16.6450
 30
0.000000
  70
    32
  0
VERTEX
  8
0
  5
288
 10
7.41148
 20
16.6411
 30
0.000000
  70
    32
  0
VERTEX
  8
0
  5
289
 10
7.60746
 20
16.6382
 30
0.000000
  70
    32
  0
VERTEX
  8
0
  5
28A
 10
7.80367
 20
16.6366
 30
0.000000
  70
    32
  0
VERTEX
  8
0
  5
28B
 10
8.00000
 20
16.6360
 30
0.000000
  70
    32
  0
VERTEX
  8
0
  5
28C
 10
8.19633
 20
16.6366
 30
0.000000
  70
    32
  0
VERTEX
  8
0
  5
28D
 10
8.39254
 20
16.6382
 30
0.000000
  70
    32
  0
VERTEX
  8
0
  5
28E
 10
8.58852
 20
16.6411
 30
0.000000
  70
    32
  0
VERTEX
  8
0
  5
28F
 10
8.78414
 20
16.6450
 30
0.000000
  70
    32
  0
VERTEX
  8
0
  5
290
 10
8.97929
 20
16.6500
 30
0.000000
  70
    32
  0
VERTEX
  8
0
  5
291
 10
9.17384
 20
16.6562
 30
0.000000
  70
    32
  0
VERTEX
  8
0
  5
292
 10
9.36770
 20
16.6634
 30
0.000000
  70
    32
  0
VERTEX
  8
0
  5
293
 10
9.56072
 20
16.6718
 30
0.000000
  70
    32
  0
VERTEX
  8
0
  5
294
 10
9.75281
 20
16.6813
 30
0.000000
  70
    32
  0
VERTEX
  8
0
  5
295
 10
9.94384
 20
16.6919
 30
0.000000
  70
    32
  0
VERTEX
  8
0
  5
296
 10
10.1337
 20
16.7035
 30
0.000000
  70
    32
  0
VERTEX
  8
0
  5
297
 10
10.3223
 20
16.7163
 30
0.000000
  70
    32
  0
VERTEX
  8
0
  5
298
 10
10.5095
 20
16.7301
 30
0.000000
  70
    32
  0
VERTEX
  8
0
  5
299
 10
10.6951
 20
16.7450
 30
0.000000
  70
    32
  0
VERTEX
  8
0
  5
29A
 10
10.8792
 20
16.7609
 30
0.000000
  70
    32
  0
VERTEX
  8
0
  5
29B
 10
11.0615
 20
16.7779
 30
0.000000
  70
    32
  0
VERTEX
  8
0
  5
29C
 10
11.2419
 20
16.7959
 30
0.000000
  70
    32
  0
VERTEX
  8
0
  5
29D
 10
11.4204
 20
16.8150
 30
0.000000
  70
    32
  0
VERTEX
  8
0
  5
29E
 10
11.5969
 20
16.8350
 30
0.000000
  70
    32
  0
VERTEX
  8
0
  5
29F
 10
11.7712
 20
16.8561
 30
0.000000
  70
    32
  0
VERTEX
  8
0
  5
2A0
 10
11.9432
 20
16.8782
 30
0.000000
  70
    32
  0
VERTEX
  8
0
  5
2A1
 10
12.1128
 20
16.9012
 30
0.000000
  70
    32
  0
VERTEX
  8
0
  5
2A2
 10
12.2800
 20
16.9252
 30
0.000000
  70
    32
  0
VERTEX
  8
0
  5
2A3
 10
12.4446
 20
16.9501
 30
0.000000
  70
    32
  0
VERTEX
  8
0
  5
2A4
 10
12.6065
 20
16.9760
 30
0.000000
  70
    32
  0
VERTEX
  8
0
  5
2A5
 10
12.7656
 20
17.0028
 30
0.000000
  70
    32
  0
VERTEX
  8
0
  5
2A6
 10
12.9219
 20
17.0305
 30
0.000000
  70
    32
  0
VERTEX
  8
0
  5
2A7
 10
13.0751
 20
17.0591
 30
0.000000
  70
    32
  0
VERTEX
  8
0
  5
2A8
 10
13.2254
 20
17.0886
 30
0.000000
  70
    32
  0
VERTEX
  8
0
  5
2A9
 10
13.3725
 20
17.1189
 30
0.000000
  70
    32
  0
VERTEX
  8
0
  5
2AA
 10
13.5163
 20
17.1500
 30
0.000000
  70
    32
  0
VERTEX
  8
0
  5
2AB
 10
13.6569
 20
17.1820
 30
0.000000
  70
    32
  0
VERTEX
  8
0
  5
2AC
 10
13.7940
 20
17.2147
 30
0.000000
  70
    32
  0
VERTEX
  8
0
  5
2AD
 10
13.9276
 20
17.2482
 30
0.000000
  70
    32
  0
VERTEX
  8
0
  5
2AE
 10
14.0577
 20
17.2825
 30
0.000000
  70
    32
  0
VERTEX
  8
0
  5
2AF
 10
14.1841
 20
17.3175
 30
0.000000
  70
    32
  0
VERTEX
  8
0
  5
2B0
 10
14.3068
 20
17.3532
 30
0.000000
  70
    32
  0
VERTEX
  8
0
  5
2B1
 10
14.4257
 20
17.3896
 30
0.000000
  70
    32
  0
VERTEX
  8
0
  5
2B2
 10
14.5407
 20
17.4267
 30
0.000000
  70
    32
  0
VERTEX
  8
0
  5
2B3
 10
14.6518
 20
17.4644
 30
0.000000
  70
    32
  0
VERTEX
  8
0
  5
2B4
 10
14.7588
 20
17.5028
 30
0.000000
  70
    32
  0
VERTEX
  8
0
  5
2B5
 10
14.8618
 20
17.5417
 30
0.000000
  70
    32
  0
VERTEX
  8
0
  5
2B6
 10
14.9607
 20
17.5812
 30
0.000000
  70
    32
  0
VERTEX
  8
0
  5
2B7
 10
15.0554
 20
17.6213
 30
0.000000
  70
    32
  0
VERTEX
  8
0
  5
2B8
 10
15.1458
 20
17.6619
 30
0.000000
  70
    32
  0
VERTEX
  8
0
  5
2B9
 10
15.2319
 20
17.7030
 30
0.000000
  70
    32
  0
VERTEX
  8
0
  5
2BA
 10
15.3137
 20
17.7446
 30
0.000000
  70
    32
  0
VERTEX
  8
0
  5
2BB
 10
15.3910
 20
17.7867
 30
0.000000
  70
    32
  0
VERTEX
  8
0
  5
2BC
 10
15.4639
 20
17.8292
 30
0.000000
  70
    32
  0
VERTEX
  8
0
  5
2BD
 10
15.5324
 20
17.8720
 30
0.000000
  70
    32
  0
VERTEX
  8
0
  5
2BE
 10
15.5962
 20
17.9153
 30
0.000000
  70
    32
  0
VERTEX
  8
0
  5
2BF
 10
15.6555
 20
17.9589
 30
0.000000
  70
    32
  0
VERTEX
  8
0
  5
2C0
 10
15.7102
 20
18.0028
 30
0.000000
  70
    32
  0
VERTEX
  8
0
  5
2C1
 10
15.7603
 20
18.0471
 30
0.000000
  70
    32
  0
VERTEX
  8
0
  5
2C2
 10
15.8056
 20
18.0916
 30
0.000000
  70
    32
  0
VERTEX
  8
0
  5
2C3
 10
15.8463
 20
18.1364
 30
0.000000
  70
    32
  0
VERTEX
  8
0
  5
2C4
 10
15.8822
 20
18.1813
 30
0.000000
  70
    32
  0
VERTEX
  8
0
  5
2C5
 10
15.9134
 20
18.2265
 30
0.000000
  70
    32
  0
VERTEX
  8
0
  5
2C6
 10
15.9398
 20
18.2718
 30
0.000000
  70
    32
  0
VERTEX
  8
0
  5
2C7
 10
15.9615
 20
18.3173
 30
0.000000
  70
    32
  0
VERTEX
  8
0
  5
2C8
 10
15.9783
 20
18.3629
 30
0.000000
  70
    32
  0
VERTEX
  8
0
  5
2C9
 10
15.9904
 20
18.4085
 30
0.000000
  70
    32
  0
VERTEX
  8
0
  5
2CA
 10
15.9976
 20
18.4543
 30
0.000000
  70
    32
  0
VERTEX
  8
0
  5
2CB
 10
16.0000
 20
18.5000
 30
0.000000
  70
    32
  0
SEQEND
  8
0
  5
2CC
  0
LINE
  5
3C
  8
0
 10
2.029365
 20
36.168846
 30
0.0
 11
2.0
 21
36.0
 31
0.0
  0
LINE
  5
3D
  8
0
 10
13.970635
 20
36.168846
 30
0.0
 11
14.0
 21
36.0
 31
0.0
  0
LINE
  5
3E
  8
0
 10
4.0
 20
47.5
 30
0.0
 11
2.514032
 21
38.955682
 31
0.0
  0
ARC
  5
3F
  8
0
 10
8.0
 20
42.916667
 30
0.0
 40
6.083333
 50
48.88791
 51
131.11209
  0
LINE
  5
40
  8
0
 10
8.0
 20
40.0
 30
0.0
 11
11.5
 21
40.0
 31
0.0
  0
LINE
  5
41
  8
0
 10
8.0
 20
40.0
 30
0.0
 11
4.5
 21
40.0
 31
0.0
  0
LINE
  5
42
  8
0
 10
4.0
 20
39.5
 30
0.0
 11
4.0
 21
37.5
 31
0.0
  0
ARC
  5
43
  8
0
 10
4.5
 20
39.5
 30
0.0
 40
0.5
 50
90.0
 51
180.0
  0
LINE
  5
44
  8
0
 10
12.0
 20
47.5
 30
0.0
 11
13.485968
 21
38.955682
 31
0.0
  0
LINE
  5
45
  8
0
 10
12.0
 20
39.5
 30
0.0
 11
12.0
 21
37.5
 31
0.0
  0
ARC
  5
46
  8
0
 10
11.5
 20
39.5
 30
0.0
 40
0.5
 50
0.0
 51
90.0
  0
LINE
  5
47
  8
0
 10
80.5
 20
34.734191
 30
0.0
 11
80.5
 21
18.004234
 31
0.0
  0
ARC
  5
48
  8
0
 10
81.5
 20
34.734191
 30
0.0
 40
1.0
 50
105.109575
 51
180.0
  0
LINE
  5
49
  8
0
 10
94.5
 20
13.5
 30
0.0
 11
94.5
 21
20.4625
 31
0.0
  0
LINE
  5
4A
  8
0
 10
82.5
 20
13.5
 30
0.0
 11
82.5
 21
17.2375
 31
0.0
  0
LINE
  5
4B
  8
1
 10
88.5
 20
43.0
 30
0.0
 11
88.5
 21
0.0
 31
0.0
  0
LINE
  5
4C
  8
0
 10
90.5
 20
13.5
 30
0.0
 11
90.5
 21
4.0
 31
0.0
  0
LINE
  5
4D
  8
0
 10
90.0
 20
3.5
 30
0.0
 11
90.0
 21
12.5
 31
0.0
  0
LINE
  5
4E
  8
0
 10
87.0
 20
3.5
 30
0.0
 11
87.0
 21
12.5
 31
0.0
  0
LINE
  5
4F
  8
0
 10
86.5
 20
13.5
 30
0.0
 11
86.5
 21
4.0
 31
0.0
  0
LINE
  5
50
  8
0
 10
90.5
 20
4.0
 30
0.0
 11
88.5
 21
4.0
 31
0.0
  0
LINE
  5
51
  8
0
 10
90.0
 20
3.5
 30
0.0
 11
88.5
 21
3.5
 31
0.0
  0
LINE
  5
52
  8
0
 10
87.0
 20
3.5
 30
0.0
 11
88.5
 21
3.5
 31
0.0
  0
LINE
  5
53
  8
0
 10
86.5
 20
4.0
 30
0.0
 11
88.5
 21
4.0
 31
0.0
  0
LINE
  5
54
  8
0
 10
86.5
 20
4.0
 30
0.0
 11
87.0
 21
3.5
 31
0.0
  0
LINE
  5
55
  8
0
 10
90.5
 20
4.0
 30
0.0
 11
90.0
 21
3.5
 31
0.0
  0
LINE
  5
56
  8
0
 10
88.5
 20
13.5
 30
0.0
 11
94.5
 21
13.5
 31
0.0
  0
LINE
  5
57
  8
0
 10
90.5
 20
12.5
 30
0.0
 11
88.5
 21
12.5
 31
0.0
  0
LINE
  5
58
  8
0
 10
88.5
 20
13.5
 30
0.0
 11
82.5
 21
13.5
 31
0.0
  0
LINE
  5
59
  8
0
 10
86.5
 20
12.5
 30
0.0
 11
88.5
 21
12.5
 31
0.0
  0
LINE
  5
5A
  8
0
 10
118.0
 20
37.0
 30
0.0
 11
94.5
 21
30.0
 31
0.0
  0
LINE
  5
5B
  8
0
 10
94.5
 20
30.0
 30
0.0
 11
94.5
 21
39.28
 31
0.0
  0
LINE
  5
5C
  8
0
 10
84.5
 20
36.58
 30
0.0
 11
84.5
 21
39.5
 31
0.0
  0
LINE
  5
5D
  8
0
 10
96.5
 20
21.766734
 30
0.0
 11
96.5
 21
30.595745
 31
0.0
  0
LINE
  5
5E
  8
0
 10
95.759541
 20
20.801001
 30
0.0
 11
81.759541
 21
17.038501
 31
0.0
  0
ARC
  5
5F
  8
0
 10
95.5
 20
21.766734
 30
0.0
 40
1.0
 50
285.042801
 51
0.0
  0
LINE
  5
60
  8
0
 10
85.0
 20
40.0
 30
0.0
 11
92.0
 21
40.0
 31
0.0
  0
ARC
  5
61
  8
0
 10
85.0
 20
39.5
 30
0.0
 40
0.5
 50
90.0
 51
180.0
  0
ARC
  5
62
  8
0
 10
92.0
 20
39.5
 30
0.0
 40
0.5
 50
0.0
 51
90.0
  0
LINE
  5
63
  8
0
 10
92.5
 20
39.5
 30
0.0
 11
92.5
 21
38.74
 31
0.0
  0
LINE
  5
64
  8
0
 10
129.752422
 20
38.80498
 30
0.0
 11
119.554394
 21
36.144624
 31
0.0
  0
ARC
  5
65
  8
0
 10
119.301972
 20
37.112242
 30
0.0
 40
1.0
 50
225.0
 51
284.620874
  0
LINE
  5
66
  8
0
 10
118.594865
 20
36.405135
 30
0.0
 11
118.0
 21
37.0
 31
0.0
  0
ARC
  5
67
  8
0
 10
129.5
 20
47.694191
 30
0.0
 40
1.0
 50
0.0
 51
105.109575
  0
LINE
  5
68
  8
0
 10
130.5
 20
47.694191
 30
0.0
 11
130.5
 21
39.772597
 31
0.0
  0
ARC
  5
69
  8
0
 10
129.5
 20
39.772597
 30
0.0
 40
1.0
 50
284.620874
 51
0.0
  0
ENDBLK
  5
6B
  8
0
  0
ENDSEC
  0
SECTION
  2
ENTITIES
  0
LINE
  5
142
  8
1
 10
41.5
 20
111.0
 30
0.0
 11
41.5
 21
16.0
 31
0.0
  0
LINE
  5
143
  8
0
 10
41.5
 20
61.0
 30
0.0
 11
34.75
 21
61.0
 31
0.0
  0
LINE
  5
144
  8
0
 10
34.75
 20
61.0
 30
0.0
 11
34.75
 21
67.507843
 31
0.0
  0
LINE
  5
145
  8
0
 10
41.5
 20
61.0
 30
0.0
 11
48.25
 21
61.0
 31
0.0
  0
LINE
  5
146
  8
0
 10
48.25
 20
61.0
 30
0.0
 11
48.25
 21
67.507843
 31
0.0
  0
LINE
  5
147
  8
0
 10
37.5
 20
61.0
 30
0.0
 11
37.5
 21
22.0
 31
0.0
  0
LINE
  5
148
  8
0
 10
37.5
 20
22.0
 30
0.0
 11
41.5
 21
22.0
 31
0.0
  0
LINE
  5
149
  8
0
 10
41.5
 20
21.0
 30
0.0
 11
38.5
 21
21.0
 31
0.0
  0
LINE
  5
14A
  8
0
 10
38.5
 20
21.0
 30
0.0
 11
37.5
 21
22.0
 31
0.0
  0
LINE
  5
14B
  8
0
 10
37.5
 20
59.5
 30
0.0
 11
41.5
 21
59.5
 31
0.0
  0
LINE
  5
14C
  8
0
 10
38.5
 20
21.0
 30
0.0
 11
38.5
 21
59.5
 31
0.0
  0
LINE
  5
14D
  8
0
 10
45.5
 20
59.5
 30
0.0
 11
41.5
 21
59.5
 31
0.0
  0
LINE
  5
14E
  8
0
 10
41.5
 20
21.0
 30
0.0
 11
44.5
 21
21.0
 31
0.0
  0
LINE
  5
14F
  8
0
 10
45.5
 20
22.0
 30
0.0
 11
41.5
 21
22.0
 31
0.0
  0
LINE
  5
150
  8
0
 10
44.5
 20
21.0
 30
0.0
 11
44.5
 21
59.5
 31
0.0
  0
LINE
  5
151
  8
0
 10
45.5
 20
61.0
 30
0.0
 11
45.5
 21
22.0
 31
0.0
  0
LINE
  5
152
  8
0
 10
44.5
 20
21.0
 30
0.0
 11
45.5
 21
22.0
 31
0.0
  0
POLYLINE
  5
154
  8
0
 10
32.5
 20
68.5
 30
0.0
 66
     1
 70
     8
  0
VERTEX
  8
0
  5
2CD
 10
32.5000
 20
68.5000
 30
0.000000
  70
    32
  0
VERTEX
  8
0
  5
2CE
 10
32.5027
 20
68.4632
 30
0.000000
  70
    32
  0
VERTEX
  8
0
  5
2CF
 10
32.5108
 20
68.4264
 30
0.000000
  70
    32
  0
VERTEX
  8
0
  5
2D0
 10
32.5244
 20
68.3897
 30
0.000000
  70
    32
  0
VERTEX
  8
0
  5
2D1
 10
32.5433
 20
68.3530
 30
0.000000
  70
    32
  0
VERTEX
  8
0
  5
2D2
 10
32.5677
 20
68.3164
 30
0.000000
  70
    32
  0
VERTEX
  8
0
  5
2D3
 10
32.5974
 20
68.2799
 30
0.000000
  70
    32
  0
VERTEX
  8
0
  5
2D4
 10
32.6325
 20
68.2436
 30
0.000000
  70
    32
  0
VERTEX
  8
0
  5
2D5
 10
32.6729
 20
68.2074
 30
0.000000
  70
    32
  0
VERTEX
  8
0
  5
2D6
 10
32.7187
 20
68.1713
 30
0.000000
  70
    32
  0
VERTEX
  8
0
  5
2D7
 10
32.7697
 20
68.1355
 30
0.000000
  70
    32
  0
VERTEX
  8
0
  5
2D8
 10
32.8260
 20
68.0999
 30
0.000000
  70
    32
  0
VERTEX
  8
0
  5
2D9
 10
32.8875
 20
68.0646
 30
0.000000
  70
    32
  0
VERTEX
  8
0
  5
2DA
 10
32.9542
 20
68.0295
 30
0.000000
  70
    32
  0
VERTEX
  8
0
  5
2DB
 10
33.0261
 20
67.9947
 30
0.000000
  70
    32
  0
VERTEX
  8
0
  5
2DC
 10
33.1031
 20
67.9602
 30
0.000000
  70
    32
  0
VERTEX
  8
0
  5
2DD
 10
33.1851
 20
67.9260
 30
0.000000
  70
    32
  0
VERTEX
  8
0
  5
2DE
 10
33.2721
 20
67.8921
 30
0.000000
  70
    32
  0
VERTEX
  8
0
  5
2DF
 10
33.3641
 20
67.8587
 30
0.000000
  70
    32
  0
VERTEX
  8
0
  5
2E0
 10
33.4610
 20
67.8256
 30
0.000000
  70
    32
  0
VERTEX
  8
0
  5
2E1
 10
33.5627
 20
67.7929
 30
0.000000
  70
    32
  0
VERTEX
  8
0
  5
2E2
 10
33.6692
 20
67.7607
 30
0.000000
  70
    32
  0
VERTEX
  8
0
  5
2E3
 10
33.7804
 20
67.7288
 30
0.000000
  70
    32
  0
VERTEX
  8
0
  5
2E4
 10
33.8963
 20
67.6975
 30
0.000000
  70
    32
  0
VERTEX
  8
0
  5
2E5
 10
34.0168
 20
67.6666
 30
0.000000
  70
    32
  0
VERTEX
  8
0
  5
2E6
 10
34.1417
 20
67.6363
 30
0.000000
  70
    32
  0
VERTEX
  8
0
  5
2E7
 10
34.2711
 20
67.6064
 30
0.000000
  70
    32
  0
VERTEX
  8
0
  5
2E8
 10
34.4049
 20
67.5772
 30
0.000000
  70
    32
  0
VERTEX
  8
0
  5
2E9
 10
34.5429
 20
67.5484
 30
0.000000
  70
    32
  0
VERTEX
  8
0
  5
2EA
 10
34.6851
 20
67.5202
 30
0.000000
  70
    32
  0
VERTEX
  8
0
  5
2EB
 10
34.8314
 20
67.4927
 30
0.000000
  70
    32
  0
VERTEX
  8
0
  5
2EC
 10
34.9818
 20
67.4657
 30
0.000000
  70
    32
  0
VERTEX
  8
0
  5
2ED
 10
35.1360
 20
67.4393
 30
0.000000
  70
    32
  0
VERTEX
  8
0
  5
2EE
 10
35.2941
 20
67.4136
 30
0.000000
  70
    32
  0
VERTEX
  8
0
  5
2EF
 10
35.4560
 20
67.3886
 30
0.000000
  70
    32
  0
VERTEX
  8
0
  5
2F0
 10
35.6214
 20
67.3642
 30
0.000000
  70
    32
  0
VERTEX
  8
0
  5
2F1
 10
35.7905
 20
67.3405
 30
0.000000
  70
    32
  0
VERTEX
  8
0
  5
2F2
 10
35.9629
 20
67.3175
 30
0.000000
  70
    32
  0
VERTEX
  8
0
  5
2F3
 10
36.1387
 20
67.2952
 30
0.000000
  70
    32
  0
VERTEX
  8
0
  5
2F4
 10
36.3177
 20
67.2736
 30
0.000000
  70
    32
  0
VERTEX
  8
0
  5
2F5
 10
36.4999
 20
67.2528
 30
0.000000
  70
    32
  0
VERTEX
  8
0
  5
2F6
 10
36.6850
 20
67.2327
 30
0.000000
  70
    32
  0
VERTEX
  8
0
  5
2F7
 10
36.8731
 20
67.2134
 30
0.000000
  70
    32
  0
VERTEX
  8
0
  5
2F8
 10
37.0639
 20
67.1949
 30
0.000000
  70
    32
  0
VERTEX
  8
0
  5
2F9
 10
37.2574
 20
67.1771
 30
0.000000
  70
    32
  0
VERTEX
  8
0
  5
2FA
 10
37.4535
 20
67.1602
 30
0.000000
  70
    32
  0
VERTEX
  8
0
  5
2FB
 10
37.6520
 20
67.1440
 30
0.000000
  70
    32
  0
VERTEX
  8
0
  5
2FC
 10
37.8528
 20
67.1287
 30
0.000000
  70
    32
  0
VERTEX
  8
0
  5
2FD
 10
38.0558
 20
67.1142
 30
0.000000
  70
    32
  0
VERTEX
  8
0
  5
2FE
 10
38.2609
 20
67.1005
 30
0.000000
  70
    32
  0
VERTEX
  8
0
  5
2FF
 10
38.4680
 20
67.0877
 30
0.000000
  70
    32
  0
VERTEX
  8
0
  5
300
 10
38.6769
 20
67.0757
 30
0.000000
  70
    32
  0
VERTEX
  8
0
  5
301
 10
38.8874
 20
67.0646
 30
0.000000
  70
    32
  0
VERTEX
  8
0
  5
302
 10
39.0996
 20
67.0543
 30
0.000000
  70
    32
  0
VERTEX
  8
0
  5
303
 10
39.3132
 20
67.0450
 30
0.000000
  70
    32
  0
VERTEX
  8
0
  5
304
 10
39.5281
 20
67.0364
 30
0.000000
  70
    32
  0
VERTEX
  8
0
  5
305
 10
39.7442
 20
67.0288
 30
0.000000
  70
    32
  0
VERTEX
  8
0
  5
306
 10
39.9613
 20
67.0221
 30
0.000000
  70
    32
  0
VERTEX
  8
0
  5
307
 10
40.1794
 20
67.0162
 30
0.000000
  70
    32
  0
VERTEX
  8
0
  5
308
 10
40.3983
 20
67.0113
 30
0.000000
  70
    32
  0
VERTEX
  8
0
  5
309
 10
40.6178
 20
67.0072
 30
0.000000
  70
    32
  0
VERTEX
  8
0
  5
30A
 10
40.8379
 20
67.0041
 30
0.000000
  70
    32
  0
VERTEX
  8
0
  5
30B
 10
41.0584
 20
67.0018
 30
0.000000
  70
    32
  0
VERTEX
  8
0
  5
30C
 10
41.2791
 20
67.0004
 30
0.000000
  70
    32
  0
VERTEX
  8
0
  5
30D
 10
41.5000
 20
67.0000
 30
0.000000
  70
    32
  0
VERTEX
  8
0
  5
30E
 10
41.7209
 20
67.0004
 30
0.000000
  70
    32
  0
VERTEX
  8
0
  5
30F
 10
41.9416
 20
67.0018
 30
0.000000
  70
    32
  0
VERTEX
  8
0
  5
310
 10
42.1621
 20
67.0041
 30
0.000000
  70
    32
  0
VERTEX
  8
0
  5
311
 10
42.3822
 20
67.0072
 30
0.000000
  70
    32
  0
VERTEX
  8
0
  5
312
 10
42.6017
 20
67.0113
 30
0.000000
  70
    32
  0
VERTEX
  8
0
  5
313
 10
42.8206
 20
67.0162
 30
0.000000
  70
    32
  0
VERTEX
  8
0
  5
314
 10
43.0387
 20
67.0221
 30
0.000000
  70
    32
  0
VERTEX
  8
0
  5
315
 10
43.2558
 20
67.0288
 30
0.000000
  70
    32
  0
VERTEX
  8
0
  5
316
 10
43.4719
 20
67.0364
 30
0.000000
  70
    32
  0
VERTEX
  8
0
  5
317
 10
43.6868
 20
67.0450
 30
0.000000
  70
    32
  0
VERTEX
  8
0
  5
318
 10
43.9004
 20
67.0543
 30
0.000000
  70
    32
  0
VERTEX
  8
0
  5
319
 10
44.1126
 20
67.0646
 30
0.000000
  70
    32
  0
VERTEX
  8
0
  5
31A
 10
44.3231
 20
67.0757
 30
0.000000
  70
    32
  0
VERTEX
  8
0
  5
31B
 10
44.5320
 20
67.0877
 30
0.000000
  70
    32
  0
VERTEX
  8
0
  5
31C
 10
44.7391
 20
67.1005
 30
0.000000
  70
    32
  0
VERTEX
  8
0
  5
31D
 10
44.9442
 20
67.1142
 30
0.000000
  70
    32
  0
VERTEX
  8
0
  5
31E
 10
45.1472
 20
67.1287
 30
0.000000
  70
    32
  0
VERTEX
  8
0
  5
31F
 10
45.3480
 20
67.1440
 30
0.000000
  70
    32
  0
VERTEX
  8
0
  5
320
 10
45.5465
 20
67.1602
 30
0.000000
  70
    32
  0
VERTEX
  8
0
  5
321
 10
45.7426
 20
67.1771
 30
0.000000
  70
    32
  0
VERTEX
  8
0
  5
322
 10
45.9361
 20
67.1949
 30
0.000000
  70
    32
  0
VERTEX
  8
0
  5
323
 10
46.1269
 20
67.2134
 30
0.000000
  70
    32
  0
VERTEX
  8
0
  5
324
 10
46.3150
 20
67.2327
 30
0.000000
  70
    32
  0
VERTEX
  8
0
  5
325
 10
46.5001
 20
67.2528
 30
0.000000
  70
    32
  0
VERTEX
  8
0
  5
326
 10
46.6823
 20
67.2736
 30
0.000000
  70
    32
  0
VERTEX
  8
0
  5
327
 10
46.8613
 20
67.2952
 30
0.000000
  70
    32
  0
VERTEX
  8
0
  5
328
 10
47.0371
 20
67.3175
 30
0.000000
  70
    32
  0
VERTEX
  8
0
  5
329
 10
47.2095
 20
67.3405
 30
0.000000
  70
    32
  0
VERTEX
  8
0
  5
32A
 10
47.3786
 20
67.3642
 30
0.000000
  70
    32
  0
VERTEX
  8
0
  5
32B
 10
47.5440
 20
67.3886
 30
0.000000
  70
    32
  0
VERTEX
  8
0
  5
32C
 10
47.7059
 20
67.4136
 30
0.000000
  70
    32
  0
VERTEX
  8
0
  5
32D
 10
47.8640
 20
67.4393
 30
0.000000
  70
    32
  0
VERTEX
  8
0
  5
32E
 10
48.0182
 20
67.4657
 30
0.000000
  70
    32
  0
VERTEX
  8
0
  5
32F
 10
48.1686
 20
67.4927
 30
0.000000
  70
    32
  0
VERTEX
  8
0
  5
330
 10
48.3149
 20
67.5202
 30
0.000000
  70
    32
  0
VERTEX
  8
0
  5
331
 10
48.4571
 20
67.5484
 30
0.000000
  70
    32
  0
VERTEX
  8
0
  5
332
 10
48.5951
 20
67.5772
 30
0.000000
  70
    32
  0
VERTEX
  8
0
  5
333
 10
48.7289
 20
67.6064
 30
0.000000
  70
    32
  0
VERTEX
  8
0
  5
334
 10
48.8583
 20
67.6363
 30
0.000000
  70
    32
  0
VERTEX
  8
0
  5
335
 10
48.9832
 20
67.6666
 30
0.000000
  70
    32
  0
VERTEX
  8
0
  5
336
 10
49.1037
 20
67.6975
 30
0.000000
  70
    32
  0
VERTEX
  8
0
  5
337
 10
49.2196
 20
67.7288
 30
0.000000
  70
    32
  0
VERTEX
  8
0
  5
338
 10
49.3308
 20
67.7607
 30
0.000000
  70
    32
  0
VERTEX
  8
0
  5
339
 10
49.4373
 20
67.7929
 30
0.000000
  70
    32
  0
VERTEX
  8
0
  5
33A
 10
49.5390
 20
67.8256
 30
0.000000
  70
    32
  0
VERTEX
  8
0
  5
33B
 10
49.6359
 20
67.8587
 30
0.000000
  70
    32
  0
VERTEX
  8
0
  5
33C
 10
49.7279
 20
67.8921
 30
0.000000
  70
    32
  0
VERTEX
  8
0
  5
33D
 10
49.8149
 20
67.9260
 30
0.000000
  70
    32
  0
VERTEX
  8
0
  5
33E
 10
49.8969
 20
67.9602
 30
0.000000
  70
    32
  0
VERTEX
  8
0
  5
33F
 10
49.9739
 20
67.9947
 30
0.000000
  70
    32
  0
VERTEX
  8
0
  5
340
 10
50.0458
 20
68.0295
 30
0.000000
  70
    32
  0
VERTEX
  8
0
  5
341
 10
50.1125
 20
68.0646
 30
0.000000
  70
    32
  0
VERTEX
  8
0
  5
342
 10
50.1740
 20
68.0999
 30
0.000000
  70
    32
  0
VERTEX
  8
0
  5
343
 10
50.2303
 20
68.1355
 30
0.000000
  70
    32
  0
VERTEX
  8
0
  5
344
 10
50.2813
 20
68.1713
 30
0.000000
  70
    32
  0
VERTEX
  8
0
  5
345
 10
50.3271
 20
68.2074
 30
0.000000
  70
    32
  0
VERTEX
  8
0
  5
346
 10
50.3675
 20
68.2436
 30
0.000000
  70
    32
  0
VERTEX
  8
0
  5
347
 10
50.4026
 20
68.2799
 30
0.000000
  70
    32
  0
VERTEX
  8
0
  5
348
 10
50.4323
 20
68.3164
 30
0.000000
  70
    32
  0
VERTEX
  8
0
  5
349
 10
50.4567
 20
68.3530
 30
0.000000
  70
    32
  0
VERTEX
  8
0
  5
34A
 10
50.4756
 20
68.3897
 30
0.000000
  70
    32
  0
VERTEX
  8
0
  5
34B
 10
50.4892
 20
68.4264
 30
0.000000
  70
    32
  0
VERTEX
  8
0
  5
34C
 10
50.4973
 20
68.4632
 30
0.000000
  70
    32
  0
VERTEX
  8
0
  5
34D
 10
50.5000
 20
68.5000
 30
0.000000
  70
    32
  0
SEQEND
  8
0
  5
34E
  0
LINE
  5
159
  8
0
 10
32.5
 20
68.5
 30
0.0
 11
32.5
 21
89.0
 31
0.0
  0
LINE
  5
15A
  8
0
 10
50.5
 20
68.5
 30
0.0
 11
50.5
 21
89.0
 31
0.0
  0
POLYLINE
  5
15B
  8
0
 10
32.802495
 20
89.642707
 30
0.0
 66
     1
 70
     8
  0
VERTEX
  8
0
  5
34F
 10
32.8025
 20
89.6427
 30
0.000000
  70
    32
  0
VERTEX
  8
0
  5
350
 10
32.7399
 20
89.5733
 30
0.000000
  70
    32
  0
VERTEX
  8
0
  5
351
 10
32.6844
 20
89.5035
 30
0.000000
  70
    32
  0
VERTEX
  8
0
  5
352
 10
32.6362
 20
89.4333
 30
0.000000
  70
    32
  0
VERTEX
  8
0
  5
353
 10
32.5952
 20
89.3627
 30
0.000000
  70
    32
  0
VERTEX
  8
0
  5
354
 10
32.5615
 20
89.2918
 30
0.000000
  70
    32
  0
VERTEX
  8
0
  5
355
 10
32.5351
 20
89.2206
 30
0.000000
  70
    32
  0
VERTEX
  8
0
  5
356
 10
32.5161
 20
89.1493
 30
0.000000
  70
    32
  0
VERTEX
  8
0
  5
357
 10
32.5044
 20
89.0779
 30
0.000000
  70
    32
  0
VERTEX
  8
0
  5
358
 10
32.5000
 20
89.0064
 30
0.000000
  70
    32
  0
VERTEX
  8
0
  5
359
 10
32.5031
 20
88.9349
 30
0.000000
  70
    32
  0
VERTEX
  8
0
  5
35A
 10
32.5134
 20
88.8634
 30
0.000000
  70
    32
  0
VERTEX
  8
0
  5
35B
 10
32.5312
 20
88.7921
 30
0.000000
  70
    32
  0
VERTEX
  8
0
  5
35C
 10
32.5563
 20
88.7209
 30
0.000000
  70
    32
  0
VERTEX
  8
0
  5
35D
 10
32.5887
 20
88.6499
 30
0.000000
  70
    32
  0
VERTEX
  8
0
  5
35E
 10
32.6284
 20
88.5793
 30
0.000000
  70
    32
  0
VERTEX
  8
0
  5
35F
 10
32.6753
 20
88.5090
 30
0.000000
  70
    32
  0
VERTEX
  8
0
  5
360
 10
32.7295
 20
88.4391
 30
0.000000
  70
    32
  0
VERTEX
  8
0
  5
361
 10
32.7908
 20
88.3696
 30
0.000000
  70
    32
  0
VERTEX
  8
0
  5
362
 10
32.8593
 20
88.3007
 30
0.000000
  70
    32
  0
VERTEX
  8
0
  5
363
 10
32.9348
 20
88.2323
 30
0.000000
  70
    32
  0
VERTEX
  8
0
  5
364
 10
33.0174
 20
88.1646
 30
0.000000
  70
    32
  0
VERTEX
  8
0
  5
365
 10
33.1069
 20
88.0975
 30
0.000000
  70
    32
  0
VERTEX
  8
0
  5
366
 10
33.2033
 20
88.0312
 30
0.000000
  70
    32
  0
VERTEX
  8
0
  5
367
 10
33.3064
 20
87.9657
 30
0.000000
  70
    32
  0
VERTEX
  8
0
  5
368
 10
33.4163
 20
87.9010
 30
0.000000
  70
    32
  0
VERTEX
  8
0
  5
369
 10
33.5327
 20
87.8372
 30
0.000000
  70
    32
  0
VERTEX
  8
0
  5
36A
 10
33.6557
 20
87.7744
 30
0.000000
  70
    32
  0
VERTEX
  8
0
  5
36B
 10
33.7851
 20
87.7126
 30
0.000000
  70
    32
  0
VERTEX
  8
0
  5
36C
 10
33.9208
 20
87.6518
 30
0.000000
  70
    32
  0
VERTEX
  8
0
  5
36D
 10
34.0628
 20
87.5921
 30
0.000000
  70
    32
  0
VERTEX
  8
0
  5
36E
 10
34.2108
 20
87.5336
 30
0.000000
  70
    32
  0
VERTEX
  8
0
  5
36F
 10
34.3647
 20
87.4763
 30
0.000000
  70
    32
  0
VERTEX
  8
0
  5
370
 10
34.5246
 20
87.4202
 30
0.000000
  70
    32
  0
VERTEX
  8
0
  5
371
 10
34.6901
 20
87.3655
 30
0.000000
  70
    32
  0
VERTEX
  8
0
  5
372
 10
34.8612
 20
87.3120
 30
0.000000
  70
    32
  0
VERTEX
  8
0
  5
373
 10
35.0377
 20
87.2600
 30
0.000000
  70
    32
  0
VERTEX
  8
0
  5
374
 10
35.2195
 20
87.2093
 30
0.000000
  70
    32
  0
VERTEX
  8
0
  5
375
 10
35.4064
 20
87.1602
 30
0.000000
  70
    32
  0
VERTEX
  8
0
  5
376
 10
35.5984
 20
87.1125
 30
0.000000
  70
    32
  0
VERTEX
  8
0
  5
377
 10
35.7952
 20
87.0664
 30
0.000000
  70
    32
  0
VERTEX
  8
0
  5
378
 10
35.9966
 20
87.0219
 30
0.000000
  70
    32
  0
VERTEX
  8
0
  5
379
 10
36.2025
 20
86.9790
 30
0.000000
  70
    32
  0
VERTEX
  8
0
  5
37A
 10
36.4128
 20
86.9377
 30
0.000000
  70
    32
  0
VERTEX
  8
0
  5
37B
 10
36.6272
 20
86.8981
 30
0.000000
  70
    32
  0
VERTEX
  8
0
  5
37C
 10
36.8456
 20
86.8603
 30
0.000000
  70
    32
  0
VERTEX
  8
0
  5
37D
 10
37.0679
 20
86.8242
 30
0.000000
  70
    32
  0
VERTEX
  8
0
  5
37E
 10
37.2937
 20
86.7898
 30
0.000000
  70
    32
  0
VERTEX
  8
0
  5
37F
 10
37.5230
 20
86.7573
 30
0.000000
  70
    32
  0
VERTEX
  8
0
  5
380
 10
37.7556
 20
86.7266
 30
0.000000
  70
    32
  0
VERTEX
  8
0
  5
381
 10
37.9912
 20
86.6978
 30
0.000000
  70
    32
  0
VERTEX
  8
0
  5
382
 10
38.2297
 20
86.6709
 30
0.000000
  70
    32
  0
VERTEX
  8
0
  5
383
 10
38.4708
 20
86.6459
 30
0.000000
  70
    32
  0
VERTEX
  8
0
  5
384
 10
38.7145
 20
86.6228
 30
0.000000
  70
    32
  0
VERTEX
  8
0
  5
385
 10
38.9604
 20
86.6016
 30
0.000000
  70
    32
  0
VERTEX
  8
0
  5
386
 10
39.2084
 20
86.5824
 30
0.000000
  70
    32
  0
VERTEX
  8
0
  5
387
 10
39.4583
 20
86.5652
 30
0.000000
  70
    32
  0
VERTEX
  8
0
  5
388
 10
39.7098
 20
86.5500
 30
0.000000
  70
    32
  0
VERTEX
  8
0
  5
389
 10
39.9628
 20
86.5367
 30
0.000000
  70
    32
  0
VERTEX
  8
0
  5
38A
 10
40.2171
 20
86.5255
 30
0.000000
  70
    32
  0
VERTEX
  8
0
  5
38B
 10
40.4724
 20
86.5163
 30
0.000000
  70
    32
  0
VERTEX
  8
0
  5
38C
 10
40.7286
 20
86.5092
 30
0.000000
  70
    32
  0
VERTEX
  8
0
  5
38D
 10
40.9854
 20
86.5041
 30
0.000000
  70
    32
  0
VERTEX
  8
0
  5
38E
 10
41.2426
 20
86.5010
 30
0.000000
  70
    32
  0
VERTEX
  8
0
  5
38F
 10
41.5000
 20
86.5000
 30
0.000000
  70
    32
  0
VERTEX
  8
0
  5
390
 10
41.7574
 20
86.5010
 30
0.000000
  70
    32
  0
VERTEX
  8
0
  5
391
 10
42.0146
 20
86.5041
 30
0.000000
  70
    32
  0
VERTEX
  8
0
  5
392
 10
42.2714
 20
86.5092
 30
0.000000
  70
    32
  0
VERTEX
  8
0
  5
393
 10
42.5276
 20
86.5163
 30
0.000000
  70
    32
  0
VERTEX
  8
0
  5
394
 10
42.7829
 20
86.5255
 30
0.000000
  70
    32
  0
VERTEX
  8
0
  5
395
 10
43.0372
 20
86.5367
 30
0.000000
  70
    32
  0
VERTEX
  8
0
  5
396
 10
43.2902
 20
86.5500
 30
0.000000
  70
    32
  0
VERTEX
  8
0
  5
397
 10
43.5417
 20
86.5652
 30
0.000000
  70
    32
  0
VERTEX
  8
0
  5
398
 10
43.7916
 20
86.5824
 30
0.000000
  70
    32
  0
VERTEX
  8
0
  5
399
 10
44.0396
 20
86.6016
 30
0.000000
  70
    32
  0
VERTEX
  8
0
  5
39A
 10
44.2855
 20
86.6228
 30
0.000000
  70
    32
  0
VERTEX
  8
0
  5
39B
 10
44.5292
 20
86.6459
 30
0.000000
  70
    32
  0
VERTEX
  8
0
  5
39C
 10
44.7703
 20
86.6709
 30
0.000000
  70
    32
  0
VERTEX
  8
0
  5
39D
 10
45.0088
 20
86.6978
 30
0.000000
  70
    32
  0
VERTEX
  8
0
  5
39E
 10
45.2444
 20
86.7266
 30
0.000000
  70
    32
  0
VERTEX
  8
0
  5
39F
 10
45.4770
 20
86.7573
 30
0.000000
  70
    32
  0
VERTEX
  8
0
  5
3A0
 10
45.7063
 20
86.7898
 30
0.000000
  70
    32
  0
VERTEX
  8
0
  5
3A1
 10
45.9321
 20
86.8242
 30
0.000000
  70
    32
  0
VERTEX
  8
0
  5
3A2
 10
46.1544
 20
86.8603
 30
0.000000
  70
    32
  0
VERTEX
  8
0
  5
3A3
 10
46.3728
 20
86.8981
 30
0.000000
  70
    32
  0
VERTEX
  8
0
  5
3A4
 10
46.5872
 20
86.9377
 30
0.000000
  70
    32
  0
VERTEX
  8
0
  5
3A5
 10
46.7975
 20
86.9790
 30
0.000000
  70
    32
  0
VERTEX
  8
0
  5
3A6
 10
47.0034
 20
87.0219
 30
0.000000
  70
    32
  0
VERTEX
  8
0
  5
3A7
 10
47.2048
 20
87.0664
 30
0.000000
  70
    32
  0
VERTEX
  8
0
  5
3A8
 10
47.4016
 20
87.1125
 30
0.000000
  70
    32
  0
VERTEX
  8
0
  5
3A9
 10
47.5936
 20
87.1602
 30
0.000000
  70
    32
  0
VERTEX
  8
0
  5
3AA
 10
47.7805
 20
87.2093
 30
0.000000
  70
    32
  0
VERTEX
  8
0
  5
3AB
 10
47.9623
 20
87.2600
 30
0.000000
  70
    32
  0
VERTEX
  8
0
  5
3AC
 10
48.1388
 20
87.3120
 30
0.000000
  70
    32
  0
VERTEX
  8
0
  5
3AD
 10
48.3099
 20
87.3655
 30
0.000000
  70
    32
  0
VERTEX
  8
0
  5
3AE
 10
48.4754
 20
87.4202
 30
0.000000
  70
    32
  0
VERTEX
  8
0
  5
3AF
 10
48.6353
 20
87.4763
 30
0.000000
  70
    32
  0
VERTEX
  8
0
  5
3B0
 10
48.7892
 20
87.5336
 30
0.000000
  70
    32
  0
VERTEX
  8
0
  5
3B1
 10
48.9372
 20
87.5921
 30
0.000000
  70
    32
  0
VERTEX
  8
0
  5
3B2
 10
49.0792
 20
87.6518
 30
0.000000
  70
    32
  0
VERTEX
  8
0
  5
3B3
 10
49.2149
 20
87.7126
 30
0.000000
  70
    32
  0
VERTEX
  8
0
  5
3B4
 10
49.3443
 20
87.7744
 30
0.000000
  70
    32
  0
VERTEX
  8
0
  5
3B5
 10
49.4673
 20
87.8372
 30
0.000000
  70
    32
  0
VERTEX
  8
0
  5
3B6
 10
49.5837
 20
87.9010
 30
0.000000
  70
    32
  0
VERTEX
  8
0
  5
3B7
 10
49.6936
 20
87.9657
 30
0.000000
  70
    32
  0
VERTEX
  8
0
  5
3B8
 10
49.7967
 20
88.0312
 30
0.000000
  70
    32
  0
VERTEX
  8
0
  5
3B9
 10
49.8931
 20
88.0975
 30
0.000000
  70
    32
  0
VERTEX
  8
0
  5
3BA
 10
49.9826
 20
88.1646
 30
0.000000
  70
    32
  0
VERTEX
  8
0
  5
3BB
 10
50.0652
 20
88.2323
 30
0.000000
  70
    32
  0
VERTEX
  8
0
  5
3BC
 10
50.1407
 20
88.3007
 30
0.000000
  70
    32
  0
VERTEX
  8
0
  5
3BD
 10
50.2092
 20
88.3696
 30
0.000000
  70
    32
  0
VERTEX
  8
0
  5
3BE
 10
50.2705
 20
88.4391
 30
0.000000
  70
    32
  0
VERTEX
  8
0
  5
3BF
 10
50.3247
 20
88.5090
 30
0.000000
  70
    32
  0
VERTEX
  8
0
  5
3C0
 10
50.3716
 20
88.5793
 30
0.000000
  70
    32
  0
VERTEX
  8
0
  5
3C1
 10
50.4113
 20
88.6499
 30
0.000000
  70
    32
  0
VERTEX
  8
0
  5
3C2
 10
50.4437
 20
88.7209
 30
0.000000
  70
    32
  0
VERTEX
  8
0
  5
3C3
 10
50.4688
 20
88.7921
 30
0.000000
  70
    32
  0
VERTEX
  8
0
  5
3C4
 10
50.4866
 20
88.8634
 30
0.000000
  70
    32
  0
VERTEX
  8
0
  5
3C5
 10
50.4969
 20
88.9349
 30
0.000000
  70
    32
  0
VERTEX
  8
0
  5
3C6
 10
50.5000
 20
89.0064
 30
0.000000
  70
    32
  0
VERTEX
  8
0
  5
3C7
 10
50.4956
 20
89.0779
 30
0.000000
  70
    32
  0
VERTEX
  8
0
  5
3C8
 10
50.4839
 20
89.1493
 30
0.000000
  70
    32
  0
VERTEX
  8
0
  5
3C9
 10
50.4649
 20
89.2206
 30
0.000000
  70
    32
  0
VERTEX
  8
0
  5
3CA
 10
50.4385
 20
89.2918
 30
0.000000
  70
    32
  0
VERTEX
  8
0
  5
3CB
 10
50.4048
 20
89.3627
 30
0.000000
  70
    32
  0
VERTEX
  8
0
  5
3CC
 10
50.3638
 20
89.4333
 30
0.000000
  70
    32
  0
VERTEX
  8
0
  5
3CD
 10
50.3156
 20
89.5035
 30
0.000000
  70
    32
  0
VERTEX
  8
0
  5
3CE
 10
50.2601
 20
89.5733
 30
0.000000
  70
    32
  0
VERTEX
  8
0
  5
3CF
 10
50.1975
 20
89.6427
 30
0.000000
  70
    32
  0
SEQEND
  8
0
  5
3D0
  0
LINE
  5
15D
  8
0
 10
45.0
 20
92.0
 30
0.0
 11
38.0
 21
92.0
 31
0.0
  0
ARC
  5
168
  8
0
 10
41.5
 20
98.74
 30
0.0
 40
7.76
 50
47.924978
 51
132.075022
  0
LINE
  5
16F
  8
0
 10
35.0
 20
90.729153
 30
0.0
 11
36.3
 21
104.5
 31
0.0
  0
LINE
  5
170
  8
0
 10
48.0
 20
90.729153
 30
0.0
 11
46.7
 21
104.5
 31
0.0
  0
POLYLINE
  5
173
  8
0
 10
37.0
 20
89.0
 30
0.0
 66
     1
 70
     8
  0
VERTEX
  8
0
  5
3D1
 10
37.0000
 20
89.0000
 30
0.000000
  70
    32
  0
VERTEX
  8
0
  5
3D2
 10
37.0014
 20
88.9632
 30
0.000000
  70
    32
  0
VERTEX
  8
0
  5
3D3
 10
37.0054
 20
88.9264
 30
0.000000
  70
    32
  0
VERTEX
  8
0
  5
3D4
 10
37.0122
 20
88.8897
 30
0.000000
  70
    32
  0
VERTEX
  8
0
  5
3D5
 10
37.0217
 20
88.8530
 30
0.000000
  70
    32
  0
VERTEX
  8
0
  5
3D6
 10
37.0338
 20
88.8164
 30
0.000000
  70
    32
  0
VERTEX
  8
0
  5
3D7
 10
37.0487
 20
88.7799
 30
0.000000
  70
    32
  0
VERTEX
  8
0
  5
3D8
 10
37.0663
 20
88.7436
 30
0.000000
  70
    32
  0
VERTEX
  8
0
  5
3D9
 10
37.0865
 20
88.7074
 30
0.000000
  70
    32
  0
VERTEX
  8
0
  5
3DA
 10
37.1093
 20
88.6713
 30
0.000000
  70
    32
  0
VERTEX
  8
0
  5
3DB
 10
37.1349
 20
88.6355
 30
0.000000
  70
    32
  0
VERTEX
  8
0
  5
3DC
 10
37.1630
 20
88.5999
 30
0.000000
  70
    32
  0
VERTEX
  8
0
  5
3DD
 10
37.1938
 20
88.5646
 30
0.000000
  70
    32
  0
VERTEX
  8
0
  5
3DE
 10
37.2271
 20
88.5295
 30
0.000000
  70
    32
  0
VERTEX
  8
0
  5
3DF
 10
37.2631
 20
88.4947
 30
0.000000
  70
    32
  0
VERTEX
  8
0
  5
3E0
 10
37.3015
 20
88.4602
 30
0.000000
  70
    32
  0
VERTEX
  8
0
  5
3E1
 10
37.3425
 20
88.4260
 30
0.000000
  70
    32
  0
VERTEX
  8
0
  5
3E2
 10
37.3861
 20
88.3921
 30
0.000000
  70
    32
  0
VERTEX
  8
0
  5
3E3
 10
37.4320
 20
88.3587
 30
0.000000
  70
    32
  0
VERTEX
  8
0
  5
3E4
 10
37.4805
 20
88.3256
 30
0.000000
  70
    32
  0
VERTEX
  8
0
  5
3E5
 10
37.5314
 20
88.2929
 30
0.000000
  70
    32
  0
VERTEX
  8
0
  5
3E6
 10
37.5846
 20
88.2607
 30
0.000000
  70
    32
  0
VERTEX
  8
0
  5
3E7
 10
37.6402
 20
88.2288
 30
0.000000
  70
    32
  0
VERTEX
  8
0
  5
3E8
 10
37.6982
 20
88.1975
 30
0.000000
  70
    32
  0
VERTEX
  8
0
  5
3E9
 10
37.7584
 20
88.1666
 30
0.000000
  70
    32
  0
VERTEX
  8
0
  5
3EA
 10
37.8209
 20
88.1363
 30
0.000000
  70
    32
  0
VERTEX
  8
0
  5
3EB
 10
37.8856
 20
88.1065
 30
0.000000
  70
    32
  0
VERTEX
  8
0
  5
3EC
 10
37.9524
 20
88.0772
 30
0.000000
  70
    32
  0
VERTEX
  8
0
  5
3ED
 10
38.0215
 20
88.0484
 30
0.000000
  70
    32
  0
VERTEX
  8
0
  5
3EE
 10
38.0926
 20
88.0202
 30
0.000000
  70
    32
  0
VERTEX
  8
0
  5
3EF
 10
38.1657
 20
87.9927
 30
0.000000
  70
    32
  0
VERTEX
  8
0
  5
3F0
 10
38.2409
 20
87.9657
 30
0.000000
  70
    32
  0
VERTEX
  8
0
  5
3F1
 10
38.3180
 20
87.9393
 30
0.000000
  70
    32
  0
VERTEX
  8
0
  5
3F2
 10
38.3971
 20
87.9136
 30
0.000000
  70
    32
  0
VERTEX
  8
0
  5
3F3
 10
38.4780
 20
87.8886
 30
0.000000
  70
    32
  0
VERTEX
  8
0
  5
3F4
 10
38.5607
 20
87.8642
 30
0.000000
  70
    32
  0
VERTEX
  8
0
  5
3F5
 10
38.6452
 20
87.8405
 30
0.000000
  70
    32
  0
VERTEX
  8
0
  5
3F6
 10
38.7315
 20
87.8175
 30
0.000000
  70
    32
  0
VERTEX
  8
0
  5
3F7
 10
38.8194
 20
87.7952
 30
0.000000
  70
    32
  0
VERTEX
  8
0
  5
3F8
 10
38.9089
 20
87.7736
 30
0.000000
  70
    32
  0
VERTEX
  8
0
  5
3F9
 10
38.9999
 20
87.7528
 30
0.000000
  70
    32
  0
VERTEX
  8
0
  5
3FA
 10
39.0925
 20
87.7327
 30
0.000000
  70
    32
  0
VERTEX
  8
0
  5
3FB
 10
39.1865
 20
87.7134
 30
0.000000
  70
    32
  0
VERTEX
  8
0
  5
3FC
 10
39.2820
 20
87.6949
 30
0.000000
  70
    32
  0
VERTEX
  8
0
  5
3FD
 10
39.3787
 20
87.6771
 30
0.000000
  70
    32
  0
VERTEX
  8
0
  5
3FE
 10
39.4767
 20
87.6602
 30
0.000000
  70
    32
  0
VERTEX
  8
0
  5
3FF
 10
39.5760
 20
87.6440
 30
0.000000
  70
    32
  0
VERTEX
  8
0
  5
400
 10
39.6764
 20
87.6287
 30
0.000000
  70
    32
  0
VERTEX
  8
0
  5
401
 10
39.7779
 20
87.6142
 30
0.000000
  70
    32
  0
VERTEX
  8
0
  5
402
 10
39.8805
 20
87.6005
 30
0.000000
  70
    32
  0
VERTEX
  8
0
  5
403
 10
39.9840
 20
87.5877
 30
0.000000
  70
    32
  0
VERTEX
  8
0
  5
404
 10
40.0884
 20
87.5757
 30
0.000000
  70
    32
  0
VERTEX
  8
0
  5
405
 10
40.1937
 20
87.5646
 30
0.000000
  70
    32
  0
VERTEX
  8
0
  5
406
 10
40.2998
 20
87.5543
 30
0.000000
  70
    32
  0
VERTEX
  8
0
  5
407
 10
40.4066
 20
87.5450
 30
0.000000
  70
    32
  0
VERTEX
  8
0
  5
408
 10
40.5140
 20
87.5364
 30
0.000000
  70
    32
  0
VERTEX
  8
0
  5
409
 10
40.6221
 20
87.5288
 30
0.000000
  70
    32
  0
VERTEX
  8
0
  5
40A
 10
40.7307
 20
87.5221
 30
0.000000
  70
    32
  0
VERTEX
  8
0
  5
40B
 10
40.8397
 20
87.5162
 30
0.000000
  70
    32
  0
VERTEX
  8
0
  5
40C
 10
40.9492
 20
87.5113
 30
0.000000
  70
    32
  0
VERTEX
  8
0
  5
40D
 10
41.0589
 20
87.5072
 30
0.000000
  70
    32
  0
VERTEX
  8
0
  5
40E
 10
41.1690
 20
87.5041
 30
0.000000
  70
    32
  0
VERTEX
  8
0
  5
40F
 10
41.2792
 20
87.5018
 30
0.000000
  70
    32
  0
VERTEX
  8
0
  5
410
 10
41.3896
 20
87.5005
 30
0.000000
  70
    32
  0
VERTEX
  8
0
  5
411
 10
41.5000
 20
87.5000
 30
0.000000
  70
    32
  0
VERTEX
  8
0
  5
412
 10
41.6104
 20
87.5005
 30
0.000000
  70
    32
  0
VERTEX
  8
0
  5
413
 10
41.7208
 20
87.5018
 30
0.000000
  70
    32
  0
VERTEX
  8
0
  5
414
 10
41.8310
 20
87.5041
 30
0.000000
  70
    32
  0
VERTEX
  8
0
  5
415
 10
41.9411
 20
87.5072
 30
0.000000
  70
    32
  0
VERTEX
  8
0
  5
416
 10
42.0508
 20
87.5113
 30
0.000000
  70
    32
  0
VERTEX
  8
0
  5
417
 10
42.1603
 20
87.5162
 30
0.000000
  70
    32
  0
VERTEX
  8
0
  5
418
 10
42.2693
 20
87.5221
 30
0.000000
  70
    32
  0
VERTEX
  8
0
  5
419
 10
42.3779
 20
87.5288
 30
0.000000
  70
    32
  0
VERTEX
  8
0
  5
41A
 10
42.4860
 20
87.5364
 30
0.000000
  70
    32
  0
VERTEX
  8
0
  5
41B
 10
42.5934
 20
87.5450
 30
0.000000
  70
    32
  0
VERTEX
  8
0
  5
41C
 10
42.7002
 20
87.5543
 30
0.000000
  70
    32
  0
VERTEX
  8
0
  5
41D
 10
42.8063
 20
87.5646
 30
0.000000
  70
    32
  0
VERTEX
  8
0
  5
41E
 10
42.9116
 20
87.5757
 30
0.000000
  70
    32
  0
VERTEX
  8
0
  5
41F
 10
43.0160
 20
87.5877
 30
0.000000
  70
    32
  0
VERTEX
  8
0
  5
420
 10
43.1195
 20
87.6005
 30
0.000000
  70
    32
  0
VERTEX
  8
0
  5
421
 10
43.2221
 20
87.6142
 30
0.000000
  70
    32
  0
VERTEX
  8
0
  5
422
 10
43.3236
 20
87.6287
 30
0.000000
  70
    32
  0
VERTEX
  8
0
  5
423
 10
43.4240
 20
87.6440
 30
0.000000
  70
    32
  0
VERTEX
  8
0
  5
424
 10
43.5233
 20
87.6602
 30
0.000000
  70
    32
  0
VERTEX
  8
0
  5
425
 10
43.6213
 20
87.6771
 30
0.000000
  70
    32
  0
VERTEX
  8
0
  5
426
 10
43.7180
 20
87.6949
 30
0.000000
  70
    32
  0
VERTEX
  8
0
  5
427
 10
43.8135
 20
87.7134
 30
0.000000
  70
    32
  0
VERTEX
  8
0
  5
428
 10
43.9075
 20
87.7327
 30
0.000000
  70
    32
  0
VERTEX
  8
0
  5
429
 10
44.0001
 20
87.7528
 30
0.000000
  70
    32
  0
VERTEX
  8
0
  5
42A
 10
44.0911
 20
87.7736
 30
0.000000
  70
    32
  0
VERTEX
  8
0
  5
42B
 10
44.1806
 20
87.7952
 30
0.000000
  70
    32
  0
VERTEX
  8
0
  5
42C
 10
44.2685
 20
87.8175
 30
0.000000
  70
    32
  0
VERTEX
  8
0
  5
42D
 10
44.3548
 20
87.8405
 30
0.000000
  70
    32
  0
VERTEX
  8
0
  5
42E
 10
44.4393
 20
87.8642
 30
0.000000
  70
    32
  0
VERTEX
  8
0
  5
42F
 10
44.5220
 20
87.8886
 30
0.000000
  70
    32
  0
VERTEX
  8
0
  5
430
 10
44.6029
 20
87.9136
 30
0.000000
  70
    32
  0
VERTEX
  8
0
  5
431
 10
44.6820
 20
87.9393
 30
0.000000
  70
    32
  0
VERTEX
  8
0
  5
432
 10
44.7591
 20
87.9657
 30
0.000000
  70
    32
  0
VERTEX
  8
0
  5
433
 10
44.8343
 20
87.9927
 30
0.000000
  70
    32
  0
VERTEX
  8
0
  5
434
 10
44.9074
 20
88.0202
 30
0.000000
  70
    32
  0
VERTEX
  8
0
  5
435
 10
44.9785
 20
88.0484
 30
0.000000
  70
    32
  0
VERTEX
  8
0
  5
436
 10
45.0476
 20
88.0772
 30
0.000000
  70
    32
  0
VERTEX
  8
0
  5
437
 10
45.1144
 20
88.1065
 30
0.000000
  70
    32
  0
VERTEX
  8
0
  5
438
 10
45.1791
 20
88.1363
 30
0.000000
  70
    32
  0
VERTEX
  8
0
  5
439
 10
45.2416
 20
88.1666
 30
0.000000
  70
    32
  0
VERTEX
  8
0
  5
43A
 10
45.3018
 20
88.1975
 30
0.000000
  70
    32
  0
VERTEX
  8
0
  5
43B
 10
45.3598
 20
88.2288
 30
0.000000
  70
    32
  0
VERTEX
  8
0
  5
43C
 10
45.4154
 20
88.2607
 30
0.000000
  70
    32
  0
VERTEX
  8
0
  5
43D
 10
45.4686
 20
88.2929
 30
0.000000
  70
    32
  0
VERTEX
  8
0
  5
43E
 10
45.5195
 20
88.3256
 30
0.000000
  70
    32
  0
VERTEX
  8
0
  5
43F
 10
45.5680
 20
88.3587
 30
0.000000
  70
    32
  0
VERTEX
  8
0
  5
440
 10
45.6139
 20
88.3921
 30
0.000000
  70
    32
  0
VERTEX
  8
0
  5
441
 10
45.6575
 20
88.4260
 30
0.000000
  70
    32
  0
VERTEX
  8
0
  5
442
 10
45.6985
 20
88.4602
 30
0.000000
  70
    32
  0
VERTEX
  8
0
  5
443
 10
45.7369
 20
88.4947
 30
0.000000
  70
    32
  0
VERTEX
  8
0
  5
444
 10
45.7729
 20
88.5295
 30
0.000000
  70
    32
  0
VERTEX
  8
0
  5
445
 10
45.8062
 20
88.5646
 30
0.000000
  70
    32
  0
VERTEX
  8
0
  5
446
 10
45.8370
 20
88.5999
 30
0.000000
  70
    32
  0
VERTEX
  8
0
  5
447
 10
45.8651
 20
88.6355
 30
0.000000
  70
    32
  0
VERTEX
  8
0
  5
448
 10
45.8907
 20
88.6713
 30
0.000000
  70
    32
  0
VERTEX
  8
0
  5
449
 10
45.9135
 20
88.7074
 30
0.000000
  70
    32
  0
VERTEX
  8
0
  5
44A
 10
45.9337
 20
88.7436
 30
0.000000
  70
    32
  0
VERTEX
  8
0
  5
44B
 10
45.9513
 20
88.7799
 30
0.000000
  70
    32
  0
VERTEX
  8
0
  5
44C
 10
45.9662
 20
88.8164
 30
0.000000
  70
    32
  0
VERTEX
  8
0
  5
44D
 10
45.9783
 20
88.8530
 30
0.000000
  70
    32
  0
VERTEX
  8
0
  5
44E
 10
45.9878
 20
88.8897
 30
0.000000
  70
    32
  0
VERTEX
  8
0
  5
44F
 10
45.9946
 20
88.9264
 30
0.000000
  70
    32
  0
VERTEX
  8
0
  5
450
 10
45.9986
 20
88.9632
 30
0.000000
  70
    32
  0
VERTEX
  8
0
  5
451
 10
46.0000
 20
89.0000
 30
0.000000
  70
    32
  0
SEQEND
  8
0
  5
452
  0
LINE
  5
174
  8
0
 10
37.0
 20
89.0
 30
0.0
 11
37.0
 21
91.0
 31
0.0
  0
LINE
  5
175
  8
0
 10
46.0
 20
89.0
 30
0.0
 11
46.0
 21
91.0
 31
0.0
  0
ARC
  5
176
  8
0
 10
38.0
 20
91.0
 30
0.0
 40
1.0
 50
90.0
 51
180.0
  0
ARC
  5
177
  8
0
 10
45.0
 20
91.0
 30
0.0
 40
1.0
 50
0.0
 51
90.0
  0
LINE
  5
187
  8
1
 10
101.0
 20
17.0
 30
0.0
 11
101.0
 21
96.5
 31
0.0
  0
LINE
  5
188
  8
0
 10
98.0
 20
21.0
 30
0.0
 11
97.0
 21
22.0
 31
0.0
  0
LINE
  5
189
  8
0
 10
101.0
 20
61.0
 30
0.0
 11
94.25
 21
61.0
 31
0.0
  0
LINE
  5
18A
  8
0
 10
97.0
 20
22.0
 30
0.0
 11
101.0
 21
22.0
 31
0.0
  0
LINE
  5
18B
  8
0
 10
97.0
 20
59.5
 30
0.0
 11
101.0
 21
59.5
 31
0.0
  0
LINE
  5
18C
  8
0
 10
97.0
 20
61.0
 30
0.0
 11
97.0
 21
22.0
 31
0.0
  0
LINE
  5
18D
  8
0
 10
104.0
 20
21.0
 30
0.0
 11
104.0
 21
59.5
 31
0.0
  0
LINE
  5
18E
  8
0
 10
105.0
 20
61.0
 30
0.0
 11
105.0
 21
22.0
 31
0.0
  0
LINE
  5
18F
  8
0
 10
98.0
 20
21.0
 30
0.0
 11
98.0
 21
59.5
 31
0.0
  0
LINE
  5
190
  8
0
 10
105.0
 20
22.0
 30
0.0
 11
101.0
 21
22.0
 31
0.0
  0
LINE
  5
191
  8
0
 10
104.0
 20
21.0
 30
0.0
 11
105.0
 21
22.0
 31
0.0
  0
LINE
  5
192
  8
0
 10
101.0
 20
21.0
 30
0.0
 11
98.0
 21
21.0
 31
0.0
  0
LINE
  5
193
  8
0
 10
101.0
 20
21.0
 30
0.0
 11
104.0
 21
21.0
 31
0.0
  0
LINE
  5
194
  8
0
 10
105.0
 20
59.5
 30
0.0
 11
101.0
 21
59.5
 31
0.0
  0
LINE
  5
195
  8
0
 10
101.0
 20
61.0
 30
0.0
 11
107.75
 21
61.0
 31
0.0
  0
LINE
  5
196
  8
0
 10
94.25
 20
61.0
 30
0.0
 11
94.25
 21
67.5
 31
0.0
  0
LINE
  5
197
  8
0
 10
107.75
 20
61.0
 30
0.0
 11
107.75
 21
70.5
 31
0.0
  0
LINE
  5
19C
  8
0
 10
92.0
 20
68.246616
 30
0.0
 11
92.0
 21
85.734391
 31
0.0
  0
LINE
  5
19D
  8
0
 10
92.739091
 20
86.699754
 30
0.0
 11
164.739091
 21
106.159214
 31
0.0
  0
LINE
  5
19E
  8
0
 10
166.0
 20
105.19385
 30
0.0
 11
166.0
 21
95.26149
 31
0.0
  0
LINE
  5
19F
  8
0
 10
165.265929
 20
94.297498
 30
0.0
 11
151.992048
 21
90.635737
 31
0.0
  0
LINE
  5
1A0
  8
0
 10
151.101424
 20
90.818861
 30
0.0
 11
149.437594
 21
92.149925
 31
0.0
  0
LINE
  5
1A1
  8
0
 10
107.5
 20
90.5
 30
0.0
 11
107.5
 21
77.5
 31
0.0
  0
LINE
  5
1A2
  8
0
 10
107.5
 20
77.5
 30
0.0
 11
148.472976
 21
92.309509
 31
0.0
  0
LINE
  5
1A4
  8
0
 10
109.21693
 20
70.825985
 30
0.0
 11
93.21693
 21
67.270429
 31
0.0
  0
LINE
  5
1A5
  8
0
 10
110.0
 20
71.802172
 30
0.0
 11
110.0
 21
74.666667
 31
0.0
  0
LINE
  5
1A6
  8
0
 10
109.0
 20
74.5
 30
0.0
 11
112.0
 21
75.0
 31
0.0
  0
LINE
  5
1A7
  8
0
 10
112.0
 20
75.0
 30
0.0
 11
112.0
 21
79.126506
 31
0.0
  0
LINE
  5
1A8
  8
0
 10
109.0
 20
74.5
 30
0.0
 11
109.0
 21
78.042169
 31
0.0
  0
LINE
  5
1A9
  8
0
 10
101.0
 20
92.0
 30
0.0
 11
105.5
 21
92.0
 31
0.0
  0
LINE
  5
1AA
  8
0
 10
106.5
 20
91.0
 30
0.0
 11
106.5
 21
90.418919
 31
0.0
  0
LINE
  5
1AB
  8
0
 10
101.0
 20
92.0
 30
0.0
 11
96.5
 21
92.0
 31
0.0
  0
LINE
  5
1AC
  8
0
 10
95.5
 20
91.0
 30
0.0
 11
95.5
 21
87.445946
 31
0.0
  0
ARC
  5
1AD
  8
0
 10
105.5
 20
91.0
 30
0.0
 40
1.0
 50
0.0
 51
90.0
  0
ARC
  5
1AE
  8
0
 10
96.5
 20
91.0
 30
0.0
 40
1.0
 50
90.0
 51
180.0
  0
ARC
  5
1AF
  8
0
 10
93.0
 20
85.734391
 30
0.0
 40
1.0
 50
105.124007
 51
180.0
  0
ARC
  5
1B0
  8
0
 10
93.0
 20
68.246616
 30
0.0
 40
1.0
 50
180.0
 51
282.528808
  0
ARC
  5
1B1
  8
0
 10
109.0
 20
71.802172
 30
0.0
 40
1.0
 50
282.528808
 51
0.0
  0
ARC
  5
1B2
  8
0
 10
165.0
 20
105.19385
 30
0.0
 40
1.0
 50
0.0
 51
105.124007
  0
ARC
  5
1B3
  8
0
 10
165.0
 20
95.26149
 30
0.0
 40
1.0
 50
285.422161
 51
0.0
  0
ARC
  5
1B4
  8
0
 10
151.726119
 20
91.59973
 30
0.0
 40
1.0
 50
231.340192
 51
285.422161
  0
ARC
  5
1B5
  8
0
 10
148.812899
 20
91.369056
 30
0.0
 40
1.0
 50
51.340192
 51
109.872176
  0
ENDSEC
  0
EOF
