  0
SECTION
  2
HEADER
  9
$ACADVER
  1
AC1009
  9
$INSBASE
 10
0.0
 20
0.0
 30
0.0
  9
$EXTMIN
 10
42.5
 20
53.0
 30
0.0
  9
$EXTMAX
 10
148.0
 20
106.0
 30
0.0
  9
$LIMMIN
 10
0.0
 20
0.0
  9
$LIMMAX
 10
200.0
 20
150.0
  9
$ORTHOMODE
 70
     1
  9
$REGENMODE
 70
     1
  9
$FILLMODE
 70
     1
  9
$QTEXTMODE
 70
     0
  9
$MIRRTEXT
 70
     1
  9
$DRAGMODE
 70
     2
  9
$LTSCALE
 40
1.0
  9
$OSMODE
 70
     0
  9
$ATTMODE
 70
     1
  9
$TEXTSIZE
 40
2.5
  9
$TRACEWID
 40
1.0
  9
$TEXTSTYLE
  7
STANDARD
  9
$CLAYER
  8
0
  9
$CELTYPE
  6
BYLAYER
  9
$CECOLOR
 62
   256
  9
$DIMSCALE
 40
1.0
  9
$DIMASZ
 40
2.5
  9
$DIMEXO
 40
0.625
  9
$DIMDLI
 40
3.75
  9
$DIMRND
 40
0.0
  9
$DIMDLE
 40
0.0
  9
$DIMEXE
 40
1.25
  9
$DIMTP
 40
0.0
  9
$DIMTM
 40
0.0
  9
$DIMTXT
 40
2.5
  9
$DIMCEN
 40
2.5
  9
$DIMTSZ
 40
0.0
  9
$DIMTOL
 70
     0
  9
$DIMLIM
 70
     0
  9
$DIMTIH
 70
     0
  9
$DIMTOH
 70
     0
  9
$DIMSE1
 70
     0
  9
$DIMSE2
 70
     0
  9
$DIMTAD
 70
     1
  9
$DIMZIN
 70
     8
  9
$DIMBLK
  1

  9
$DIMASO
 70
     1
  9
$DIMSHO
 70
     1
  9
$DIMPOST
  1

  9
$DIMAPOST
  1

  9
$DIMALT
 70
     0
  9
$DIMALTD
 70
     4
  9
$DIMALTF
 40
0.0394
  9
$DIMLFAC
 40
1.0
  9
$DIMTOFL
 70
     1
  9
$DIMTVP
 40
0.0
  9
$DIMTIX
 70
     0
  9
$DIMSOXD
 70
     0
  9
$DIMSAH
 70
     0
  9
$DIMBLK1
  1

  9
$DIMBLK2
  1

  9
$DIMSTYLE
  2
STANDARD
  9
$DIMCLRD
 70
     0
  9
$DIMCLRE
 70
     0
  9
$DIMCLRT
 70
     0
  9
$DIMTFAC
 40
1.0
  9
$DIMGAP
 40
0.625
  9
$LUNITS
 70
     2
  9
$LUPREC
 70
     4
  9
$SKETCHINC
 40
1.0
  9
$FILLETRAD
 40
1.0
  9
$AUNITS
 70
     0
  9
$AUPREC
 70
     0
  9
$MENU
  1
.
  9
$ELEVATION
 40
0.0
  9
$PELEVATION
 40
0.0
  9
$THICKNESS
 40
0.0
  9
$LIMCHECK
 70
     0
  9
$BLIPMODE
 70
     0
  9
$CHAMFERA
 40
10.0
  9
$CHAMFERB
 40
10.0
  9
$SKPOLY
 70
     0
  9
$TDCREATE
 40
2452126.530473
  9
$TDUPDATE
 40
2452128.455341
  9
$TDINDWG
 40
0.015574
  9
$TDUSRTIMER
 40
0.015574
  9
$USRTIMER
 70
     1
  9
$ANGBASE
 50
0.0
  9
$ANGDIR
 70
     0
  9
$PDMODE
 70
     0
  9
$PDSIZE
 40
0.0
  9
$PLINEWID
 40
0.0
  9
$COORDS
 70
     2
  9
$SPLFRAME
 70
     0
  9
$SPLINETYPE
 70
     6
  9
$SPLINESEGS
 70
     8
  9
$ATTDIA
 70
     0
  9
$ATTREQ
 70
     1
  9
$HANDLING
 70
     1
  9
$HANDSEED
  5
3CF
  9
$SURFTAB1
 70
     6
  9
$SURFTAB2
 70
     6
  9
$SURFTYPE
 70
     6
  9
$SURFU
 70
     6
  9
$SURFV
 70
     6
  9
$UCSNAME
  2

  9
$UCSORG
 10
0.0
 20
0.0
 30
0.0
  9
$UCSXDIR
 10
1.0
 20
0.0
 30
0.0
  9
$UCSYDIR
 10
0.0
 20
1.0
 30
0.0
  9
$PUCSNAME
  2

  9
$PUCSORG
 10
0.0
 20
0.0
 30
0.0
  9
$PUCSXDIR
 10
1.0
 20
0.0
 30
0.0
  9
$PUCSYDIR
 10
0.0
 20
1.0
 30
0.0
  9
$USERI1
 70
     0
  9
$USERI2
 70
     0
  9
$USERI3
 70
     0
  9
$USERI4
 70
     0
  9
$USERI5
 70
     0
  9
$USERR1
 40
0.0
  9
$USERR2
 40
0.0
  9
$USERR3
 40
0.0
  9
$USERR4
 40
0.0
  9
$USERR5
 40
0.0
  9
$WORLDVIEW
 70
     1
  9
$SHADEDGE
 70
     3
  9
$SHADEDIF
 70
    70
  9
$TILEMODE
 70
     1
  9
$MAXACTVP
 70
    48
  9
$PLIMCHECK
 70
     0
  9
$PEXTMIN
 10
1.000000E+020
 20
1.000000E+020
 30
1.000000E+020
  9
$PEXTMAX
 10
-1.000000E+020
 20
-1.000000E+020
 30
-1.000000E+020
  9
$PLIMMIN
 10
0.0
 20
0.0
  9
$PLIMMAX
 10
420.0
 20
297.0
  9
$UNITMODE
 70
     0
  9
$VISRETAIN
 70
     1
  9
$PLINEGEN
 70
     0
  9
$PSLTSCALE
 70
     1
  0
ENDSEC
  0
SECTION
  2
TABLES
  0
TABLE
  2
VPORT
 70
     2
  0
VPORT
  2
*ACTIVE
 70
     0
 10
0.0
 20
0.0
 11
1.0
 21
1.0
 12
97.374571
 22
74.937083
 13
0.0
 23
0.0
 14
0.5
 24
0.5
 15
1.0
 25
1.0
 16
0.0
 26
0.0
 36
1.0
 17
0.0
 27
0.0
 37
0.0
 40
156.66443
 41
1.353571
 42
50.0
 43
0.0
 44
0.0
 50
0.0
 51
0.0
 71
     0
 72
   100
 73
     1
 74
     1
 75
     1
 76
     1
 77
     0
 78
     0
  0
ENDTAB
  0
TABLE
  2
LTYPE
 70
     3
  0
LTYPE
  2
CONTINUOUS
 70
     0
  3
Solid line
 72
    65
 73
     0
 40
0.0
  0
LTYPE
  2
CENTER
 70
     0
  3
____ _ ____ _ ____ _ ____ _ ____ _ ____ _ ____
 72
    65
 73
     4
 40
2.0
 49
1.25
 49
-0.25
 49
0.25
 49
-0.25
  0
LTYPE
  2
HIDDEN2
 70
     0
  3
Hidden (.5x) _ _ _ _ _ _ _ _ _ _ _ _ _ _ _ _ _
 72
    65
 73
     2
 40
4.7625
 49
3.175
 49
-1.5875
  0
ENDTAB
  0
TABLE
  2
LAYER
 70
     3
  0
LAYER
  2
0
 70
     0
 62
     7
  6
CONTINUOUS
  0
LAYER
  2
1
 70
     0
 62
     1
  6
CENTER
  0
LAYER
  2
2
 70
     0
 62
     2
  6
HIDDEN2
  0
ENDTAB
  0
TABLE
  2
STYLE
 70
     3
  0
STYLE
  2
STANDARD
 70
     0
 40
0.0
 41
1.0
 50
0.0
 71
     0
 42
2.5
  3
txt
  4

  0
STYLE
  2
BIGFONT
 70
     0
 40
10.0
 41
0.8
 50
0.0
 71
     0
 42
10.0
  3
txt.shx
  4
bigfont
  0
STYLE
  2

 70
     1
 40
0.0
 41
1.0
 50
0.0
 71
     0
 42
2.5
  3
ltypeshp.shx
  4

  0
ENDTAB
  0
TABLE
  2
VIEW
 70
     0
  0
ENDTAB
  0
TABLE
  2
UCS
 70
     0
  0
ENDTAB
  0
TABLE
  2
APPID
 70
     1
  0
APPID
  2
ACAD
 70
     0
  0
ENDTAB
  0
TABLE
  2
DIMSTYLE
 70
     1
  0
DIMSTYLE
  2
STANDARD
 70
     0
  3

  4

  5

  6

  7

 40
1.0
 41
0.18
 42
0.0625
 43
0.38
 44
0.18
 45
0.0
 46
0.0
 47
0.0
 48
0.0
140
0.18
141
0.09
142
0.0
143
25.4
144
1.0
145
0.0
146
1.0
147
0.09
 71
     0
 72
     0
 73
     1
 74
     1
 75
     0
 76
     0
 77
     0
 78
     0
170
     0
171
     2
172
     0
173
     0
174
     0
175
     0
176
     0
177
     0
178
     0
  0
ENDTAB
  0
ENDSEC
  0
SECTION
  2
BLOCKS
  0
BLOCK
  8
0
  2
$MODEL_SPACE
 70
     0
 10
0.0
 20
0.0
 30
0.0
  3
$MODEL_SPACE
  1

  0
ENDBLK
  5
1A
  8
0
  0
BLOCK
 67
     1
  8
0
  2
$PAPER_SPACE
 70
     0
 10
0.0
 20
0.0
 30
0.0
  3
$PAPER_SPACE
  1

  0
ENDBLK
  5
17
 67
     1
  8
0
  0
BLOCK
  8
0
  2
A$C00836C8E
 70
     0
 10
0.0
 20
0.0
 30
0.0
  3
A$C00836C8E
  1

  0
ARC
  5
24
  8
0
 10
81.5
 20
18.004234
 30
0.0
 40
1.0
 50
180.0
 51
285.042801
  0
LINE
  5
25
  8
0
 10
81.239334
 20
35.69962
 30
0.0
 11
129.239334
 21
48.65962
 31
0.0
  0
LINE
  5
26
  8
1
 10
8.0
 20
50.5
 30
0.0
 11
8.0
 21
0.0
 31
0.0
  0
LINE
  5
27
  8
0
 10
2.0
 20
13.5
 30
0.0
 11
2.0
 21
17.267081
 31
0.0
  0
LINE
  5
28
  8
0
 10
14.0
 20
13.5
 30
0.0
 11
14.0
 21
17.267081
 31
0.0
  0
LINE
  5
29
  8
0
 10
8.0
 20
13.5
 30
0.0
 11
2.0
 21
13.5
 31
0.0
  0
LINE
  5
2A
  8
0
 10
9.5
 20
3.5
 30
0.0
 11
9.5
 21
12.5
 31
0.0
  0
LINE
  5
2B
  8
0
 10
10.0
 20
13.5
 30
0.0
 11
10.0
 21
4.0
 31
0.0
  0
LINE
  5
2C
  8
0
 10
6.0
 20
13.5
 30
0.0
 11
6.0
 21
4.0
 31
0.0
  0
LINE
  5
2D
  8
0
 10
6.5
 20
3.5
 30
0.0
 11
6.5
 21
12.5
 31
0.0
  0
LINE
  5
2E
  8
0
 10
6.5
 20
3.5
 30
0.0
 11
8.0
 21
3.5
 31
0.0
  0
LINE
  5
2F
  8
0
 10
6.0
 20
4.0
 30
0.0
 11
8.0
 21
4.0
 31
0.0
  0
LINE
  5
30
  8
0
 10
6.0
 20
4.0
 30
0.0
 11
6.5
 21
3.5
 31
0.0
  0
LINE
  5
31
  8
0
 10
10.0
 20
4.0
 30
0.0
 11
8.0
 21
4.0
 31
0.0
  0
LINE
  5
32
  8
0
 10
9.5
 20
3.5
 30
0.0
 11
8.0
 21
3.5
 31
0.0
  0
LINE
  5
33
  8
0
 10
10.0
 20
4.0
 30
0.0
 11
9.5
 21
3.5
 31
0.0
  0
LINE
  5
34
  8
0
 10
8.0
 20
13.5
 30
0.0
 11
14.0
 21
13.5
 31
0.0
  0
LINE
  5
35
  8
0
 10
6.0
 20
12.5
 30
0.0
 11
8.0
 21
12.5
 31
0.0
  0
LINE
  5
36
  8
0
 10
10.0
 20
12.5
 30
0.0
 11
8.0
 21
12.5
 31
0.0
  0
LINE
  5
37
  8
0
 10
16.0
 20
18.5
 30
0.0
 11
16.0
 21
37.5
 31
0.0
  0
LINE
  5
38
  8
0
 10
0.0
 20
18.5
 30
0.0
 11
0.0
 21
37.5
 31
0.0
  0
POLYLINE
  5
39
  8
0
 10
0.267585
 20
38.012942
 30
0.0
 66
     1
 70
     8
  0
VERTEX
  8
0
  5
145
 10
0.267585
 20
38.0129
 30
0.000000
  70
    32
  0
VERTEX
  8
0
  5
146
 10
0.212081
 20
37.9575
 30
0.000000
  70
    32
  0
VERTEX
  8
0
  5
147
 10
0.162945
 20
37.9016
 30
0.000000
  70
    32
  0
VERTEX
  8
0
  5
148
 10
0.120218
 20
37.8454
 30
0.000000
  70
    32
  0
VERTEX
  8
0
  5
149
 10
0.0839342
 20
37.7890
 30
0.000000
  70
    32
  0
VERTEX
  8
0
  5
14A
 10
0.0541232
 20
37.7323
 30
0.000000
  70
    32
  0
VERTEX
  8
0
  5
14B
 10
0.0308095
 20
37.6754
 30
0.000000
  70
    32
  0
VERTEX
  8
0
  5
14C
 10
0.0140121
 20
37.6183
 30
0.000000
  70
    32
  0
VERTEX
  8
0
  5
14D
 10
0.00374481
 20
37.5612
 30
0.000000
  70
    32
  0
VERTEX
  8
0
  5
14E
 10
1.60367e-005
 20
37.5040
 30
0.000000
  70
    32
  0
VERTEX
  8
0
  5
14F
 10
0.00282881
 20
37.4468
 30
0.000000
  70
    32
  0
VERTEX
  8
0
  5
150
 10
0.0121808
 20
37.3897
 30
0.000000
  70
    32
  0
VERTEX
  8
0
  5
151
 10
0.0280644
 20
37.3326
 30
0.000000
  70
    32
  0
VERTEX
  8
0
  5
152
 10
0.0504667
 20
37.2757
 30
0.000000
  70
    32
  0
VERTEX
  8
0
  5
153
 10
0.0793692
 20
37.2190
 30
0.000000
  70
    32
  0
VERTEX
  8
0
  5
154
 10
0.114748
 20
37.1625
 30
0.000000
  70
    32
  0
VERTEX
  8
0
  5
155
 10
0.156575
 20
37.1062
 30
0.000000
  70
    32
  0
VERTEX
  8
0
  5
156
 10
0.204816
 20
37.0503
 30
0.000000
  70
    32
  0
VERTEX
  8
0
  5
157
 10
0.259430
 20
36.9948
 30
0.000000
  70
    32
  0
VERTEX
  8
0
  5
158
 10
0.320374
 20
36.9397
 30
0.000000
  70
    32
  0
VERTEX
  8
0
  5
159
 10
0.387598
 20
36.8850
 30
0.000000
  70
    32
  0
VERTEX
  8
0
  5
15A
 10
0.461046
 20
36.8309
 30
0.000000
  70
    32
  0
VERTEX
  8
0
  5
15B
 10
0.540659
 20
36.7772
 30
0.000000
  70
    32
  0
VERTEX
  8
0
  5
15C
 10
0.626371
 20
36.7242
 30
0.000000
  70
    32
  0
VERTEX
  8
0
  5
15D
 10
0.718112
 20
36.6718
 30
0.000000
  70
    32
  0
VERTEX
  8
0
  5
15E
 10
0.815808
 20
36.6201
 30
0.000000
  70
    32
  0
VERTEX
  8
0
  5
15F
 10
0.919379
 20
36.5691
 30
0.000000
  70
    32
  0
VERTEX
  8
0
  5
160
 10
1.02874
 20
36.5189
 30
0.000000
  70
    32
  0
VERTEX
  8
0
  5
161
 10
1.14380
 20
36.4695
 30
0.000000
  70
    32
  0
VERTEX
  8
0
  5
162
 10
1.26447
 20
36.4209
 30
0.000000
  70
    32
  0
VERTEX
  8
0
  5
163
 10
1.39064
 20
36.3732
 30
0.000000
  70
    32
  0
VERTEX
  8
0
  5
164
 10
1.52222
 20
36.3264
 30
0.000000
  70
    32
  0
VERTEX
  8
0
  5
165
 10
1.65910
 20
36.2806
 30
0.000000
  70
    32
  0
VERTEX
  8
0
  5
166
 10
1.80116
 20
36.2357
 30
0.000000
  70
    32
  0
VERTEX
  8
0
  5
167
 10
1.94829
 20
36.1919
 30
0.000000
  70
    32
  0
VERTEX
  8
0
  5
168
 10
2.10036
 20
36.1492
 30
0.000000
  70
    32
  0
VERTEX
  8
0
  5
169
 10
2.25727
 20
36.1076
 30
0.000000
  70
    32
  0
VERTEX
  8
0
  5
16A
 10
2.41886
 20
36.0671
 30
0.000000
  70
    32
  0
VERTEX
  8
0
  5
16B
 10
2.58502
 20
36.0278
 30
0.000000
  70
    32
  0
VERTEX
  8
0
  5
16C
 10
2.75561
 20
35.9897
 30
0.000000
  70
    32
  0
VERTEX
  8
0
  5
16D
 10
2.93049
 20
35.9528
 30
0.000000
  70
    32
  0
VERTEX
  8
0
  5
16E
 10
3.10951
 20
35.9172
 30
0.000000
  70
    32
  0
VERTEX
  8
0
  5
16F
 10
3.29254
 20
35.8829
 30
0.000000
  70
    32
  0
VERTEX
  8
0
  5
170
 10
3.47941
 20
35.8499
 30
0.000000
  70
    32
  0
VERTEX
  8
0
  5
171
 10
3.66997
 20
35.8183
 30
0.000000
  70
    32
  0
VERTEX
  8
0
  5
172
 10
3.86408
 20
35.7880
 30
0.000000
  70
    32
  0
VERTEX
  8
0
  5
173
 10
4.06157
 20
35.7592
 30
0.000000
  70
    32
  0
VERTEX
  8
0
  5
174
 10
4.26228
 20
35.7317
 30
0.000000
  70
    32
  0
VERTEX
  8
0
  5
175
 10
4.46605
 20
35.7057
 30
0.000000
  70
    32
  0
VERTEX
  8
0
  5
176
 10
4.67271
 20
35.6812
 30
0.000000
  70
    32
  0
VERTEX
  8
0
  5
177
 10
4.88208
 20
35.6581
 30
0.000000
  70
    32
  0
VERTEX
  8
0
  5
178
 10
5.09401
 20
35.6366
 30
0.000000
  70
    32
  0
VERTEX
  8
0
  5
179
 10
5.30831
 20
35.6166
 30
0.000000
  70
    32
  0
VERTEX
  8
0
  5
17A
 10
5.52482
 20
35.5981
 30
0.000000
  70
    32
  0
VERTEX
  8
0
  5
17B
 10
5.74335
 20
35.5812
 30
0.000000
  70
    32
  0
VERTEX
  8
0
  5
17C
 10
5.96372
 20
35.5659
 30
0.000000
  70
    32
  0
VERTEX
  8
0
  5
17D
 10
6.18576
 20
35.5521
 30
0.000000
  70
    32
  0
VERTEX
  8
0
  5
17E
 10
6.40928
 20
35.5399
 30
0.000000
  70
    32
  0
VERTEX
  8
0
  5
17F
 10
6.63410
 20
35.5294
 30
0.000000
  70
    32
  0
VERTEX
  8
0
  5
180
 10
6.86004
 20
35.5204
 30
0.000000
  70
    32
  0
VERTEX
  8
0
  5
181
 10
7.08691
 20
35.5131
 30
0.000000
  70
    32
  0
VERTEX
  8
0
  5
182
 10
7.31453
 20
35.5074
 30
0.000000
  70
    32
  0
VERTEX
  8
0
  5
183
 10
7.54271
 20
35.5033
 30
0.000000
  70
    32
  0
VERTEX
  8
0
  5
184
 10
7.77126
 20
35.5008
 30
0.000000
  70
    32
  0
VERTEX
  8
0
  5
185
 10
8.00000
 20
35.5000
 30
0.000000
  70
    32
  0
VERTEX
  8
0
  5
186
 10
8.22874
 20
35.5008
 30
0.000000
  70
    32
  0
VERTEX
  8
0
  5
187
 10
8.45729
 20
35.5033
 30
0.000000
  70
    32
  0
VERTEX
  8
0
  5
188
 10
8.68547
 20
35.5074
 30
0.000000
  70
    32
  0
VERTEX
  8
0
  5
189
 10
8.91309
 20
35.5131
 30
0.000000
  70
    32
  0
VERTEX
  8
0
  5
18A
 10
9.13996
 20
35.5204
 30
0.000000
  70
    32
  0
VERTEX
  8
0
  5
18B
 10
9.36590
 20
35.5294
 30
0.000000
  70
    32
  0
VERTEX
  8
0
  5
18C
 10
9.59072
 20
35.5399
 30
0.000000
  70
    32
  0
VERTEX
  8
0
  5
18D
 10
9.81424
 20
35.5521
 30
0.000000
  70
    32
  0
VERTEX
  8
0
  5
18E
 10
10.0363
 20
35.5659
 30
0.000000
  70
    32
  0
VERTEX
  8
0
  5
18F
 10
10.2567
 20
35.5812
 30
0.000000
  70
    32
  0
VERTEX
  8
0
  5
190
 10
10.4752
 20
35.5981
 30
0.000000
  70
    32
  0
VERTEX
  8
0
  5
191
 10
10.6917
 20
35.6166
 30
0.000000
  70
    32
  0
VERTEX
  8
0
  5
192
 10
10.9060
 20
35.6366
 30
0.000000
  70
    32
  0
VERTEX
  8
0
  5
193
 10
11.1179
 20
35.6581
 30
0.000000
  70
    32
  0
VERTEX
  8
0
  5
194
 10
11.3273
 20
35.6812
 30
0.000000
  70
    32
  0
VERTEX
  8
0
  5
195
 10
11.5339
 20
35.7057
 30
0.000000
  70
    32
  0
VERTEX
  8
0
  5
196
 10
11.7377
 20
35.7317
 30
0.000000
  70
    32
  0
VERTEX
  8
0
  5
197
 10
11.9384
 20
35.7592
 30
0.000000
  70
    32
  0
VERTEX
  8
0
  5
198
 10
12.1359
 20
35.7880
 30
0.000000
  70
    32
  0
VERTEX
  8
0
  5
199
 10
12.3300
 20
35.8183
 30
0.000000
  70
    32
  0
VERTEX
  8
0
  5
19A
 10
12.5206
 20
35.8499
 30
0.000000
  70
    32
  0
VERTEX
  8
0
  5
19B
 10
12.7075
 20
35.8829
 30
0.000000
  70
    32
  0
VERTEX
  8
0
  5
19C
 10
12.8905
 20
35.9172
 30
0.000000
  70
    32
  0
VERTEX
  8
0
  5
19D
 10
13.0695
 20
35.9528
 30
0.000000
  70
    32
  0
VERTEX
  8
0
  5
19E
 10
13.2444
 20
35.9897
 30
0.000000
  70
    32
  0
VERTEX
  8
0
  5
19F
 10
13.4150
 20
36.0278
 30
0.000000
  70
    32
  0
VERTEX
  8
0
  5
1A0
 10
13.5811
 20
36.0671
 30
0.000000
  70
    32
  0
VERTEX
  8
0
  5
1A1
 10
13.7427
 20
36.1076
 30
0.000000
  70
    32
  0
VERTEX
  8
0
  5
1A2
 10
13.8996
 20
36.1492
 30
0.000000
  70
    32
  0
VERTEX
  8
0
  5
1A3
 10
14.0517
 20
36.1919
 30
0.000000
  70
    32
  0
VERTEX
  8
0
  5
1A4
 10
14.1988
 20
36.2357
 30
0.000000
  70
    32
  0
VERTEX
  8
0
  5
1A5
 10
14.3409
 20
36.2806
 30
0.000000
  70
    32
  0
VERTEX
  8
0
  5
1A6
 10
14.4778
 20
36.3264
 30
0.000000
  70
    32
  0
VERTEX
  8
0
  5
1A7
 10
14.6094
 20
36.3732
 30
0.000000
  70
    32
  0
VERTEX
  8
0
  5
1A8
 10
14.7355
 20
36.4209
 30
0.000000
  70
    32
  0
VERTEX
  8
0
  5
1A9
 10
14.8562
 20
36.4695
 30
0.000000
  70
    32
  0
VERTEX
  8
0
  5
1AA
 10
14.9713
 20
36.5189
 30
0.000000
  70
    32
  0
VERTEX
  8
0
  5
1AB
 10
15.0806
 20
36.5691
 30
0.000000
  70
    32
  0
VERTEX
  8
0
  5
1AC
 10
15.1842
 20
36.6201
 30
0.000000
  70
    32
  0
VERTEX
  8
0
  5
1AD
 10
15.2819
 20
36.6718
 30
0.000000
  70
    32
  0
VERTEX
  8
0
  5
1AE
 10
15.3736
 20
36.7242
 30
0.000000
  70
    32
  0
VERTEX
  8
0
  5
1AF
 10
15.4593
 20
36.7772
 30
0.000000
  70
    32
  0
VERTEX
  8
0
  5
1B0
 10
15.5390
 20
36.8309
 30
0.000000
  70
    32
  0
VERTEX
  8
0
  5
1B1
 10
15.6124
 20
36.8850
 30
0.000000
  70
    32
  0
VERTEX
  8
0
  5
1B2
 10
15.6796
 20
36.9397
 30
0.000000
  70
    32
  0
VERTEX
  8
0
  5
1B3
 10
15.7406
 20
36.9948
 30
0.000000
  70
    32
  0
VERTEX
  8
0
  5
1B4
 10
15.7952
 20
37.0503
 30
0.000000
  70
    32
  0
VERTEX
  8
0
  5
1B5
 10
15.8434
 20
37.1062
 30
0.000000
  70
    32
  0
VERTEX
  8
0
  5
1B6
 10
15.8853
 20
37.1625
 30
0.000000
  70
    32
  0
VERTEX
  8
0
  5
1B7
 10
15.9206
 20
37.2190
 30
0.000000
  70
    32
  0
VERTEX
  8
0
  5
1B8
 10
15.9495
 20
37.2757
 30
0.000000
  70
    32
  0
VERTEX
  8
0
  5
1B9
 10
15.9719
 20
37.3326
 30
0.000000
  70
    32
  0
VERTEX
  8
0
  5
1BA
 10
15.9878
 20
37.3897
 30
0.000000
  70
    32
  0
VERTEX
  8
0
  5
1BB
 10
15.9972
 20
37.4468
 30
0.000000
  70
    32
  0
VERTEX
  8
0
  5
1BC
 10
16.0000
 20
37.5040
 30
0.000000
  70
    32
  0
VERTEX
  8
0
  5
1BD
 10
15.9963
 20
37.5612
 30
0.000000
  70
    32
  0
VERTEX
  8
0
  5
1BE
 10
15.9860
 20
37.6183
 30
0.000000
  70
    32
  0
VERTEX
  8
0
  5
1BF
 10
15.9692
 20
37.6754
 30
0.000000
  70
    32
  0
VERTEX
  8
0
  5
1C0
 10
15.9459
 20
37.7323
 30
0.000000
  70
    32
  0
VERTEX
  8
0
  5
1C1
 10
15.9161
 20
37.7890
 30
0.000000
  70
    32
  0
VERTEX
  8
0
  5
1C2
 10
15.8798
 20
37.8454
 30
0.000000
  70
    32
  0
VERTEX
  8
0
  5
1C3
 10
15.8371
 20
37.9016
 30
0.000000
  70
    32
  0
VERTEX
  8
0
  5
1C4
 10
15.7879
 20
37.9575
 30
0.000000
  70
    32
  0
VERTEX
  8
0
  5
1C5
 10
15.7324
 20
38.0129
 30
0.000000
  70
    32
  0
SEQEND
  8
0
  5
1C6
  0
ARC
  5
3A
  8
0
 10
8.0
 20
45.0
 30
0.0
 40
8.5
 50
241.927513
 51
298.072487
  0
POLYLINE
  5
3B
  8
0
 10
0.0
 20
18.5
 30
0.0
 66
     1
 70
     8
  0
VERTEX
  8
0
  5
1C7
 10
0.000000
 20
18.5000
 30
0.000000
  70
    32
  0
VERTEX
  8
0
  5
1C8
 10
0.00240945
 20
18.4543
 30
0.000000
  70
    32
  0
VERTEX
  8
0
  5
1C9
 10
0.00963635
 20
18.4085
 30
0.000000
  70
    32
  0
VERTEX
  8
0
  5
1CA
 10
0.0216763
 20
18.3629
 30
0.000000
  70
    32
  0
VERTEX
  8
0
  5
1CB
 10
0.0385222
 20
18.3173
 30
0.000000
  70
    32
  0
VERTEX
  8
0
  5
1CC
 10
0.0601637
 20
18.2718
 30
0.000000
  70
    32
  0
VERTEX
  8
0
  5
1CD
 10
0.0865879
 20
18.2265
 30
0.000000
  70
    32
  0
VERTEX
  8
0
  5
1CE
 10
0.117779
 20
18.1813
 30
0.000000
  70
    32
  0
VERTEX
  8
0
  5
1CF
 10
0.153718
 20
18.1364
 30
0.000000
  70
    32
  0
VERTEX
  8
0
  5
1D0
 10
0.194383
 20
18.0916
 30
0.000000
  70
    32
  0
VERTEX
  8
0
  5
1D1
 10
0.239750
 20
18.0471
 30
0.000000
  70
    32
  0
VERTEX
  8
0
  5
1D2
 10
0.289791
 20
18.0028
 30
0.000000
  70
    32
  0
VERTEX
  8
0
  5
1D3
 10
0.344477
 20
17.9589
 30
0.000000
  70
    32
  0
VERTEX
  8
0
  5
1D4
 10
0.403775
 20
17.9153
 30
0.000000
  70
    32
  0
VERTEX
  8
0
  5
1D5
 10
0.467647
 20
17.8720
 30
0.000000
  70
    32
  0
VERTEX
  8
0
  5
1D6
 10
0.536058
 20
17.8292
 30
0.000000
  70
    32
  0
VERTEX
  8
0
  5
1D7
 10
0.608964
 20
17.7867
 30
0.000000
  70
    32
  0
VERTEX
  8
0
  5
1D8
 10
0.686322
 20
17.7446
 30
0.000000
  70
    32
  0
VERTEX
  8
0
  5
1D9
 10
0.768086
 20
17.7030
 30
0.000000
  70
    32
  0
VERTEX
  8
0
  5
1DA
 10
0.854206
 20
17.6619
 30
0.000000
  70
    32
  0
VERTEX
  8
0
  5
1DB
 10
0.944630
 20
17.6213
 30
0.000000
  70
    32
  0
VERTEX
  8
0
  5
1DC
 10
1.03930
 20
17.5812
 30
0.000000
  70
    32
  0
VERTEX
  8
0
  5
1DD
 10
1.13817
 20
17.5417
 30
0.000000
  70
    32
  0
VERTEX
  8
0
  5
1DE
 10
1.24117
 20
17.5028
 30
0.000000
  70
    32
  0
VERTEX
  8
0
  5
1DF
 10
1.34824
 20
17.4644
 30
0.000000
  70
    32
  0
VERTEX
  8
0
  5
1E0
 10
1.45932
 20
17.4267
 30
0.000000
  70
    32
  0
VERTEX
  8
0
  5
1E1
 10
1.57434
 20
17.3896
 30
0.000000
  70
    32
  0
VERTEX
  8
0
  5
1E2
 10
1.69323
 20
17.3532
 30
0.000000
  70
    32
  0
VERTEX
  8
0
  5
1E3
 10
1.81592
 20
17.3175
 30
0.000000
  70
    32
  0
VERTEX
  8
0
  5
1E4
 10
1.94233
 20
17.2825
 30
0.000000
  70
    32
  0
VERTEX
  8
0
  5
1E5
 10
2.07239
 20
17.2482
 30
0.000000
  70
    32
  0
VERTEX
  8
0
  5
1E6
 10
2.20602
 20
17.2147
 30
0.000000
  70
    32
  0
VERTEX
  8
0
  5
1E7
 10
2.34315
 20
17.1820
 30
0.000000
  70
    32
  0
VERTEX
  8
0
  5
1E8
 10
2.48368
 20
17.1500
 30
0.000000
  70
    32
  0
VERTEX
  8
0
  5
1E9
 10
2.62753
 20
17.1189
 30
0.000000
  70
    32
  0
VERTEX
  8
0
  5
1EA
 10
2.77462
 20
17.0886
 30
0.000000
  70
    32
  0
VERTEX
  8
0
  5
1EB
 10
2.92485
 20
17.0591
 30
0.000000
  70
    32
  0
VERTEX
  8
0
  5
1EC
 10
3.07815
 20
17.0305
 30
0.000000
  70
    32
  0
VERTEX
  8
0
  5
1ED
 10
3.23441
 20
17.0028
 30
0.000000
  70
    32
  0
VERTEX
  8
0
  5
1EE
 10
3.39353
 20
16.9760
 30
0.000000
  70
    32
  0
VERTEX
  8
0
  5
1EF
 10
3.55544
 20
16.9501
 30
0.000000
  70
    32
  0
VERTEX
  8
0
  5
1F0
 10
3.72002
 20
16.9252
 30
0.000000
  70
    32
  0
VERTEX
  8
0
  5
1F1
 10
3.88718
 20
16.9012
 30
0.000000
  70
    32
  0
VERTEX
  8
0
  5
1F2
 10
4.05681
 20
16.8782
 30
0.000000
  70
    32
  0
VERTEX
  8
0
  5
1F3
 10
4.22883
 20
16.8561
 30
0.000000
  70
    32
  0
VERTEX
  8
0
  5
1F4
 10
4.40311
 20
16.8350
 30
0.000000
  70
    32
  0
VERTEX
  8
0
  5
1F5
 10
4.57956
 20
16.8150
 30
0.000000
  70
    32
  0
VERTEX
  8
0
  5
1F6
 10
4.75807
 20
16.7959
 30
0.000000
  70
    32
  0
VERTEX
  8
0
  5
1F7
 10
4.93853
 20
16.7779
 30
0.000000
  70
    32
  0
VERTEX
  8
0
  5
1F8
 10
5.12084
 20
16.7609
 30
0.000000
  70
    32
  0
VERTEX
  8
0
  5
1F9
 10
5.30488
 20
16.7450
 30
0.000000
  70
    32
  0
VERTEX
  8
0
  5
1FA
 10
5.49055
 20
16.7301
 30
0.000000
  70
    32
  0
VERTEX
  8
0
  5
1FB
 10
5.67772
 20
16.7163
 30
0.000000
  70
    32
  0
VERTEX
  8
0
  5
1FC
 10
5.86630
 20
16.7035
 30
0.000000
  70
    32
  0
VERTEX
  8
0
  5
1FD
 10
6.05616
 20
16.6919
 30
0.000000
  70
    32
  0
VERTEX
  8
0
  5
1FE
 10
6.24719
 20
16.6813
 30
0.000000
  70
    32
  0
VERTEX
  8
0
  5
1FF
 10
6.43928
 20
16.6718
 30
0.000000
  70
    32
  0
VERTEX
  8
0
  5
200
 10
6.63230
 20
16.6634
 30
0.000000
  70
    32
  0
VERTEX
  8
0
  5
201
 10
6.82616
 20
16.6562
 30
0.000000
  70
    32
  0
VERTEX
  8
0
  5
202
 10
7.02071
 20
16.6500
 30
0.000000
  70
    32
  0
VERTEX
  8
0
  5
203
 10
7.21586
 20
16.6450
 30
0.000000
  70
    32
  0
VERTEX
  8
0
  5
204
 10
7.41148
 20
16.6411
 30
0.000000
  70
    32
  0
VERTEX
  8
0
  5
205
 10
7.60746
 20
16.6382
 30
0.000000
  70
    32
  0
VERTEX
  8
0
  5
206
 10
7.80367
 20
16.6366
 30
0.000000
  70
    32
  0
VERTEX
  8
0
  5
207
 10
8.00000
 20
16.6360
 30
0.000000
  70
    32
  0
VERTEX
  8
0
  5
208
 10
8.19633
 20
16.6366
 30
0.000000
  70
    32
  0
VERTEX
  8
0
  5
209
 10
8.39254
 20
16.6382
 30
0.000000
  70
    32
  0
VERTEX
  8
0
  5
20A
 10
8.58852
 20
16.6411
 30
0.000000
  70
    32
  0
VERTEX
  8
0
  5
20B
 10
8.78414
 20
16.6450
 30
0.000000
  70
    32
  0
VERTEX
  8
0
  5
20C
 10
8.97929
 20
16.6500
 30
0.000000
  70
    32
  0
VERTEX
  8
0
  5
20D
 10
9.17384
 20
16.6562
 30
0.000000
  70
    32
  0
VERTEX
  8
0
  5
20E
 10
9.36770
 20
16.6634
 30
0.000000
  70
    32
  0
VERTEX
  8
0
  5
20F
 10
9.56072
 20
16.6718
 30
0.000000
  70
    32
  0
VERTEX
  8
0
  5
210
 10
9.75281
 20
16.6813
 30
0.000000
  70
    32
  0
VERTEX
  8
0
  5
211
 10
9.94384
 20
16.6919
 30
0.000000
  70
    32
  0
VERTEX
  8
0
  5
212
 10
10.1337
 20
16.7035
 30
0.000000
  70
    32
  0
VERTEX
  8
0
  5
213
 10
10.3223
 20
16.7163
 30
0.000000
  70
    32
  0
VERTEX
  8
0
  5
214
 10
10.5095
 20
16.7301
 30
0.000000
  70
    32
  0
VERTEX
  8
0
  5
215
 10
10.6951
 20
16.7450
 30
0.000000
  70
    32
  0
VERTEX
  8
0
  5
216
 10
10.8792
 20
16.7609
 30
0.000000
  70
    32
  0
VERTEX
  8
0
  5
217
 10
11.0615
 20
16.7779
 30
0.000000
  70
    32
  0
VERTEX
  8
0
  5
218
 10
11.2419
 20
16.7959
 30
0.000000
  70
    32
  0
VERTEX
  8
0
  5
219
 10
11.4204
 20
16.8150
 30
0.000000
  70
    32
  0
VERTEX
  8
0
  5
21A
 10
11.5969
 20
16.8350
 30
0.000000
  70
    32
  0
VERTEX
  8
0
  5
21B
 10
11.7712
 20
16.8561
 30
0.000000
  70
    32
  0
VERTEX
  8
0
  5
21C
 10
11.9432
 20
16.8782
 30
0.000000
  70
    32
  0
VERTEX
  8
0
  5
21D
 10
12.1128
 20
16.9012
 30
0.000000
  70
    32
  0
VERTEX
  8
0
  5
21E
 10
12.2800
 20
16.9252
 30
0.000000
  70
    32
  0
VERTEX
  8
0
  5
21F
 10
12.4446
 20
16.9501
 30
0.000000
  70
    32
  0
VERTEX
  8
0
  5
220
 10
12.6065
 20
16.9760
 30
0.000000
  70
    32
  0
VERTEX
  8
0
  5
221
 10
12.7656
 20
17.0028
 30
0.000000
  70
    32
  0
VERTEX
  8
0
  5
222
 10
12.9219
 20
17.0305
 30
0.000000
  70
    32
  0
VERTEX
  8
0
  5
223
 10
13.0751
 20
17.0591
 30
0.000000
  70
    32
  0
VERTEX
  8
0
  5
224
 10
13.2254
 20
17.0886
 30
0.000000
  70
    32
  0
VERTEX
  8
0
  5
225
 10
13.3725
 20
17.1189
 30
0.000000
  70
    32
  0
VERTEX
  8
0
  5
226
 10
13.5163
 20
17.1500
 30
0.000000
  70
    32
  0
VERTEX
  8
0
  5
227
 10
13.6569
 20
17.1820
 30
0.000000
  70
    32
  0
VERTEX
  8
0
  5
228
 10
13.7940
 20
17.2147
 30
0.000000
  70
    32
  0
VERTEX
  8
0
  5
229
 10
13.9276
 20
17.2482
 30
0.000000
  70
    32
  0
VERTEX
  8
0
  5
22A
 10
14.0577
 20
17.2825
 30
0.000000
  70
    32
  0
VERTEX
  8
0
  5
22B
 10
14.1841
 20
17.3175
 30
0.000000
  70
    32
  0
VERTEX
  8
0
  5
22C
 10
14.3068
 20
17.3532
 30
0.000000
  70
    32
  0
VERTEX
  8
0
  5
22D
 10
14.4257
 20
17.3896
 30
0.000000
  70
    32
  0
VERTEX
  8
0
  5
22E
 10
14.5407
 20
17.4267
 30
0.000000
  70
    32
  0
VERTEX
  8
0
  5
22F
 10
14.6518
 20
17.4644
 30
0.000000
  70
    32
  0
VERTEX
  8
0
  5
230
 10
14.7588
 20
17.5028
 30
0.000000
  70
    32
  0
VERTEX
  8
0
  5
231
 10
14.8618
 20
17.5417
 30
0.000000
  70
    32
  0
VERTEX
  8
0
  5
232
 10
14.9607
 20
17.5812
 30
0.000000
  70
    32
  0
VERTEX
  8
0
  5
233
 10
15.0554
 20
17.6213
 30
0.000000
  70
    32
  0
VERTEX
  8
0
  5
234
 10
15.1458
 20
17.6619
 30
0.000000
  70
    32
  0
VERTEX
  8
0
  5
235
 10
15.2319
 20
17.7030
 30
0.000000
  70
    32
  0
VERTEX
  8
0
  5
236
 10
15.3137
 20
17.7446
 30
0.000000
  70
    32
  0
VERTEX
  8
0
  5
237
 10
15.3910
 20
17.7867
 30
0.000000
  70
    32
  0
VERTEX
  8
0
  5
238
 10
15.4639
 20
17.8292
 30
0.000000
  70
    32
  0
VERTEX
  8
0
  5
239
 10
15.5324
 20
17.8720
 30
0.000000
  70
    32
  0
VERTEX
  8
0
  5
23A
 10
15.5962
 20
17.9153
 30
0.000000
  70
    32
  0
VERTEX
  8
0
  5
23B
 10
15.6555
 20
17.9589
 30
0.000000
  70
    32
  0
VERTEX
  8
0
  5
23C
 10
15.7102
 20
18.0028
 30
0.000000
  70
    32
  0
VERTEX
  8
0
  5
23D
 10
15.7603
 20
18.0471
 30
0.000000
  70
    32
  0
VERTEX
  8
0
  5
23E
 10
15.8056
 20
18.0916
 30
0.000000
  70
    32
  0
VERTEX
  8
0
  5
23F
 10
15.8463
 20
18.1364
 30
0.000000
  70
    32
  0
VERTEX
  8
0
  5
240
 10
15.8822
 20
18.1813
 30
0.000000
  70
    32
  0
VERTEX
  8
0
  5
241
 10
15.9134
 20
18.2265
 30
0.000000
  70
    32
  0
VERTEX
  8
0
  5
242
 10
15.9398
 20
18.2718
 30
0.000000
  70
    32
  0
VERTEX
  8
0
  5
243
 10
15.9615
 20
18.3173
 30
0.000000
  70
    32
  0
VERTEX
  8
0
  5
244
 10
15.9783
 20
18.3629
 30
0.000000
  70
    32
  0
VERTEX
  8
0
  5
245
 10
15.9904
 20
18.4085
 30
0.000000
  70
    32
  0
VERTEX
  8
0
  5
246
 10
15.9976
 20
18.4543
 30
0.000000
  70
    32
  0
VERTEX
  8
0
  5
247
 10
16.0000
 20
18.5000
 30
0.000000
  70
    32
  0
SEQEND
  8
0
  5
248
  0
LINE
  5
3C
  8
0
 10
2.029365
 20
36.168846
 30
0.0
 11
2.0
 21
36.0
 31
0.0
  0
LINE
  5
3D
  8
0
 10
13.970635
 20
36.168846
 30
0.0
 11
14.0
 21
36.0
 31
0.0
  0
LINE
  5
3E
  8
0
 10
4.0
 20
47.5
 30
0.0
 11
2.514032
 21
38.955682
 31
0.0
  0
ARC
  5
3F
  8
0
 10
8.0
 20
42.916667
 30
0.0
 40
6.083333
 50
48.88791
 51
131.11209
  0
LINE
  5
40
  8
0
 10
8.0
 20
40.0
 30
0.0
 11
11.5
 21
40.0
 31
0.0
  0
LINE
  5
41
  8
0
 10
8.0
 20
40.0
 30
0.0
 11
4.5
 21
40.0
 31
0.0
  0
LINE
  5
42
  8
0
 10
4.0
 20
39.5
 30
0.0
 11
4.0
 21
37.5
 31
0.0
  0
ARC
  5
43
  8
0
 10
4.5
 20
39.5
 30
0.0
 40
0.5
 50
90.0
 51
180.0
  0
LINE
  5
44
  8
0
 10
12.0
 20
47.5
 30
0.0
 11
13.485968
 21
38.955682
 31
0.0
  0
LINE
  5
45
  8
0
 10
12.0
 20
39.5
 30
0.0
 11
12.0
 21
37.5
 31
0.0
  0
ARC
  5
46
  8
0
 10
11.5
 20
39.5
 30
0.0
 40
0.5
 50
0.0
 51
90.0
  0
LINE
  5
47
  8
0
 10
80.5
 20
34.734191
 30
0.0
 11
80.5
 21
18.004234
 31
0.0
  0
ARC
  5
48
  8
0
 10
81.5
 20
34.734191
 30
0.0
 40
1.0
 50
105.109575
 51
180.0
  0
LINE
  5
49
  8
0
 10
94.5
 20
13.5
 30
0.0
 11
94.5
 21
20.4625
 31
0.0
  0
LINE
  5
4A
  8
0
 10
82.5
 20
13.5
 30
0.0
 11
82.5
 21
17.2375
 31
0.0
  0
LINE
  5
4B
  8
1
 10
88.5
 20
43.0
 30
0.0
 11
88.5
 21
0.0
 31
0.0
  0
LINE
  5
4C
  8
0
 10
90.5
 20
13.5
 30
0.0
 11
90.5
 21
4.0
 31
0.0
  0
LINE
  5
4D
  8
0
 10
90.0
 20
3.5
 30
0.0
 11
90.0
 21
12.5
 31
0.0
  0
LINE
  5
4E
  8
0
 10
87.0
 20
3.5
 30
0.0
 11
87.0
 21
12.5
 31
0.0
  0
LINE
  5
4F
  8
0
 10
86.5
 20
13.5
 30
0.0
 11
86.5
 21
4.0
 31
0.0
  0
LINE
  5
50
  8
0
 10
90.5
 20
4.0
 30
0.0
 11
88.5
 21
4.0
 31
0.0
  0
LINE
  5
51
  8
0
 10
90.0
 20
3.5
 30
0.0
 11
88.5
 21
3.5
 31
0.0
  0
LINE
  5
52
  8
0
 10
87.0
 20
3.5
 30
0.0
 11
88.5
 21
3.5
 31
0.0
  0
LINE
  5
53
  8
0
 10
86.5
 20
4.0
 30
0.0
 11
88.5
 21
4.0
 31
0.0
  0
LINE
  5
54
  8
0
 10
86.5
 20
4.0
 30
0.0
 11
87.0
 21
3.5
 31
0.0
  0
LINE
  5
55
  8
0
 10
90.5
 20
4.0
 30
0.0
 11
90.0
 21
3.5
 31
0.0
  0
LINE
  5
56
  8
0
 10
88.5
 20
13.5
 30
0.0
 11
94.5
 21
13.5
 31
0.0
  0
LINE
  5
57
  8
0
 10
90.5
 20
12.5
 30
0.0
 11
88.5
 21
12.5
 31
0.0
  0
LINE
  5
58
  8
0
 10
88.5
 20
13.5
 30
0.0
 11
82.5
 21
13.5
 31
0.0
  0
LINE
  5
59
  8
0
 10
86.5
 20
12.5
 30
0.0
 11
88.5
 21
12.5
 31
0.0
  0
LINE
  5
5A
  8
0
 10
118.0
 20
37.0
 30
0.0
 11
94.5
 21
30.0
 31
0.0
  0
LINE
  5
5B
  8
0
 10
94.5
 20
30.0
 30
0.0
 11
94.5
 21
39.28
 31
0.0
  0
LINE
  5
5C
  8
0
 10
84.5
 20
36.58
 30
0.0
 11
84.5
 21
39.5
 31
0.0
  0
LINE
  5
5D
  8
0
 10
96.5
 20
21.766734
 30
0.0
 11
96.5
 21
30.595745
 31
0.0
  0
LINE
  5
5E
  8
0
 10
95.759541
 20
20.801001
 30
0.0
 11
81.759541
 21
17.038501
 31
0.0
  0
ARC
  5
5F
  8
0
 10
95.5
 20
21.766734
 30
0.0
 40
1.0
 50
285.042801
 51
0.0
  0
LINE
  5
60
  8
0
 10
85.0
 20
40.0
 30
0.0
 11
92.0
 21
40.0
 31
0.0
  0
ARC
  5
61
  8
0
 10
85.0
 20
39.5
 30
0.0
 40
0.5
 50
90.0
 51
180.0
  0
ARC
  5
62
  8
0
 10
92.0
 20
39.5
 30
0.0
 40
0.5
 50
0.0
 51
90.0
  0
LINE
  5
63
  8
0
 10
92.5
 20
39.5
 30
0.0
 11
92.5
 21
38.74
 31
0.0
  0
LINE
  5
64
  8
0
 10
129.752422
 20
38.80498
 30
0.0
 11
119.554394
 21
36.144624
 31
0.0
  0
ARC
  5
65
  8
0
 10
119.301972
 20
37.112242
 30
0.0
 40
1.0
 50
225.0
 51
284.620874
  0
LINE
  5
66
  8
0
 10
118.594865
 20
36.405135
 30
0.0
 11
118.0
 21
37.0
 31
0.0
  0
ARC
  5
67
  8
0
 10
129.5
 20
47.694191
 30
0.0
 40
1.0
 50
0.0
 51
105.109575
  0
LINE
  5
68
  8
0
 10
130.5
 20
47.694191
 30
0.0
 11
130.5
 21
39.772597
 31
0.0
  0
ARC
  5
69
  8
0
 10
129.5
 20
39.772597
 30
0.0
 40
1.0
 50
284.620874
 51
0.0
  0
ENDBLK
  5
6B
  8
0
  0
ENDSEC
  0
SECTION
  2
ENTITIES
  0
LINE
  5
BA
  8
1
 10
49.5
 20
106.0
 30
0.0
 11
49.5
 21
53.0
 31
0.0
  0
LINE
  5
BB
  8
0
 10
49.5
 20
68.0
 30
0.0
 11
44.5
 21
68.0
 31
0.0
  0
LINE
  5
BC
  8
0
 10
44.5
 20
68.0
 30
0.0
 11
44.5
 21
71.740262
 31
0.0
  0
LINE
  5
C1
  8
0
 10
54.5
 20
68.0
 30
0.0
 11
54.5
 21
71.740262
 31
0.0
  0
LINE
  5
C2
  8
0
 10
49.5
 20
68.0
 30
0.0
 11
54.5
 21
68.0
 31
0.0
  0
POLYLINE
  5
C8
  8
0
 10
42.5
 20
73.0
 30
0.0
 66
     1
 70
     8
  0
VERTEX
  8
0
  5
249
 10
42.5000
 20
73.0000
 30
0.000000
  70
    32
  0
VERTEX
  8
0
  5
24A
 10
42.5021
 20
72.9558
 30
0.000000
  70
    32
  0
VERTEX
  8
0
  5
24B
 10
42.5084
 20
72.9117
 30
0.000000
  70
    32
  0
VERTEX
  8
0
  5
24C
 10
42.5190
 20
72.8676
 30
0.000000
  70
    32
  0
VERTEX
  8
0
  5
24D
 10
42.5337
 20
72.8236
 30
0.000000
  70
    32
  0
VERTEX
  8
0
  5
24E
 10
42.5526
 20
72.7797
 30
0.000000
  70
    32
  0
VERTEX
  8
0
  5
24F
 10
42.5758
 20
72.7359
 30
0.000000
  70
    32
  0
VERTEX
  8
0
  5
250
 10
42.6031
 20
72.6923
 30
0.000000
  70
    32
  0
VERTEX
  8
0
  5
251
 10
42.6345
 20
72.6488
 30
0.000000
  70
    32
  0
VERTEX
  8
0
  5
252
 10
42.6701
 20
72.6056
 30
0.000000
  70
    32
  0
VERTEX
  8
0
  5
253
 10
42.7098
 20
72.5626
 30
0.000000
  70
    32
  0
VERTEX
  8
0
  5
254
 10
42.7536
 20
72.5199
 30
0.000000
  70
    32
  0
VERTEX
  8
0
  5
255
 10
42.8014
 20
72.4775
 30
0.000000
  70
    32
  0
VERTEX
  8
0
  5
256
 10
42.8533
 20
72.4354
 30
0.000000
  70
    32
  0
VERTEX
  8
0
  5
257
 10
42.9092
 20
72.3936
 30
0.000000
  70
    32
  0
VERTEX
  8
0
  5
258
 10
42.9691
 20
72.3522
 30
0.000000
  70
    32
  0
VERTEX
  8
0
  5
259
 10
43.0328
 20
72.3112
 30
0.000000
  70
    32
  0
VERTEX
  8
0
  5
25A
 10
43.1005
 20
72.2706
 30
0.000000
  70
    32
  0
VERTEX
  8
0
  5
25B
 10
43.1721
 20
72.2304
 30
0.000000
  70
    32
  0
VERTEX
  8
0
  5
25C
 10
43.2474
 20
72.1907
 30
0.000000
  70
    32
  0
VERTEX
  8
0
  5
25D
 10
43.3266
 20
72.1515
 30
0.000000
  70
    32
  0
VERTEX
  8
0
  5
25E
 10
43.4094
 20
72.1128
 30
0.000000
  70
    32
  0
VERTEX
  8
0
  5
25F
 10
43.4959
 20
72.0746
 30
0.000000
  70
    32
  0
VERTEX
  8
0
  5
260
 10
43.5860
 20
72.0370
 30
0.000000
  70
    32
  0
VERTEX
  8
0
  5
261
 10
43.6797
 20
72.0000
 30
0.000000
  70
    32
  0
VERTEX
  8
0
  5
262
 10
43.7769
 20
71.9635
 30
0.000000
  70
    32
  0
VERTEX
  8
0
  5
263
 10
43.8775
 20
71.9277
 30
0.000000
  70
    32
  0
VERTEX
  8
0
  5
264
 10
43.9816
 20
71.8926
 30
0.000000
  70
    32
  0
VERTEX
  8
0
  5
265
 10
44.0889
 20
71.8581
 30
0.000000
  70
    32
  0
VERTEX
  8
0
  5
266
 10
44.1995
 20
71.8243
 30
0.000000
  70
    32
  0
VERTEX
  8
0
  5
267
 10
44.3133
 20
71.7912
 30
0.000000
  70
    32
  0
VERTEX
  8
0
  5
268
 10
44.4303
 20
71.7588
 30
0.000000
  70
    32
  0
VERTEX
  8
0
  5
269
 10
44.5503
 20
71.7272
 30
0.000000
  70
    32
  0
VERTEX
  8
0
  5
26A
 10
44.6732
 20
71.6964
 30
0.000000
  70
    32
  0
VERTEX
  8
0
  5
26B
 10
44.7991
 20
71.6663
 30
0.000000
  70
    32
  0
VERTEX
  8
0
  5
26C
 10
44.9278
 20
71.6370
 30
0.000000
  70
    32
  0
VERTEX
  8
0
  5
26D
 10
45.0592
 20
71.6086
 30
0.000000
  70
    32
  0
VERTEX
  8
0
  5
26E
 10
45.1934
 20
71.5810
 30
0.000000
  70
    32
  0
VERTEX
  8
0
  5
26F
 10
45.3301
 20
71.5542
 30
0.000000
  70
    32
  0
VERTEX
  8
0
  5
270
 10
45.4693
 20
71.5283
 30
0.000000
  70
    32
  0
VERTEX
  8
0
  5
271
 10
45.6110
 20
71.5034
 30
0.000000
  70
    32
  0
VERTEX
  8
0
  5
272
 10
45.7550
 20
71.4793
 30
0.000000
  70
    32
  0
VERTEX
  8
0
  5
273
 10
45.9013
 20
71.4561
 30
0.000000
  70
    32
  0
VERTEX
  8
0
  5
274
 10
46.0497
 20
71.4338
 30
0.000000
  70
    32
  0
VERTEX
  8
0
  5
275
 10
46.2002
 20
71.4125
 30
0.000000
  70
    32
  0
VERTEX
  8
0
  5
276
 10
46.3527
 20
71.3922
 30
0.000000
  70
    32
  0
VERTEX
  8
0
  5
277
 10
46.5071
 20
71.3728
 30
0.000000
  70
    32
  0
VERTEX
  8
0
  5
278
 10
46.6633
 20
71.3544
 30
0.000000
  70
    32
  0
VERTEX
  8
0
  5
279
 10
46.8212
 20
71.3370
 30
0.000000
  70
    32
  0
VERTEX
  8
0
  5
27A
 10
46.9807
 20
71.3206
 30
0.000000
  70
    32
  0
VERTEX
  8
0
  5
27B
 10
47.1418
 20
71.3052
 30
0.000000
  70
    32
  0
VERTEX
  8
0
  5
27C
 10
47.3042
 20
71.2908
 30
0.000000
  70
    32
  0
VERTEX
  8
0
  5
27D
 10
47.4680
 20
71.2775
 30
0.000000
  70
    32
  0
VERTEX
  8
0
  5
27E
 10
47.6330
 20
71.2652
 30
0.000000
  70
    32
  0
VERTEX
  8
0
  5
27F
 10
47.7991
 20
71.2539
 30
0.000000
  70
    32
  0
VERTEX
  8
0
  5
280
 10
47.9663
 20
71.2437
 30
0.000000
  70
    32
  0
VERTEX
  8
0
  5
281
 10
48.1344
 20
71.2346
 30
0.000000
  70
    32
  0
VERTEX
  8
0
  5
282
 10
48.3033
 20
71.2265
 30
0.000000
  70
    32
  0
VERTEX
  8
0
  5
283
 10
48.4729
 20
71.2195
 30
0.000000
  70
    32
  0
VERTEX
  8
0
  5
284
 10
48.6431
 20
71.2135
 30
0.000000
  70
    32
  0
VERTEX
  8
0
  5
285
 10
48.8139
 20
71.2087
 30
0.000000
  70
    32
  0
VERTEX
  8
0
  5
286
 10
48.9850
 20
71.2049
 30
0.000000
  70
    32
  0
VERTEX
  8
0
  5
287
 10
49.1565
 20
71.2022
 30
0.000000
  70
    32
  0
VERTEX
  8
0
  5
288
 10
49.3282
 20
71.2005
 30
0.000000
  70
    32
  0
VERTEX
  8
0
  5
289
 10
49.5000
 20
71.2000
 30
0.000000
  70
    32
  0
VERTEX
  8
0
  5
28A
 10
49.6718
 20
71.2005
 30
0.000000
  70
    32
  0
VERTEX
  8
0
  5
28B
 10
49.8435
 20
71.2022
 30
0.000000
  70
    32
  0
VERTEX
  8
0
  5
28C
 10
50.0150
 20
71.2049
 30
0.000000
  70
    32
  0
VERTEX
  8
0
  5
28D
 10
50.1861
 20
71.2087
 30
0.000000
  70
    32
  0
VERTEX
  8
0
  5
28E
 10
50.3569
 20
71.2135
 30
0.000000
  70
    32
  0
VERTEX
  8
0
  5
28F
 10
50.5271
 20
71.2195
 30
0.000000
  70
    32
  0
VERTEX
  8
0
  5
290
 10
50.6967
 20
71.2265
 30
0.000000
  70
    32
  0
VERTEX
  8
0
  5
291
 10
50.8656
 20
71.2346
 30
0.000000
  70
    32
  0
VERTEX
  8
0
  5
292
 10
51.0337
 20
71.2437
 30
0.000000
  70
    32
  0
VERTEX
  8
0
  5
293
 10
51.2009
 20
71.2539
 30
0.000000
  70
    32
  0
VERTEX
  8
0
  5
294
 10
51.3670
 20
71.2652
 30
0.000000
  70
    32
  0
VERTEX
  8
0
  5
295
 10
51.5320
 20
71.2775
 30
0.000000
  70
    32
  0
VERTEX
  8
0
  5
296
 10
51.6958
 20
71.2908
 30
0.000000
  70
    32
  0
VERTEX
  8
0
  5
297
 10
51.8582
 20
71.3052
 30
0.000000
  70
    32
  0
VERTEX
  8
0
  5
298
 10
52.0193
 20
71.3206
 30
0.000000
  70
    32
  0
VERTEX
  8
0
  5
299
 10
52.1788
 20
71.3370
 30
0.000000
  70
    32
  0
VERTEX
  8
0
  5
29A
 10
52.3367
 20
71.3544
 30
0.000000
  70
    32
  0
VERTEX
  8
0
  5
29B
 10
52.4929
 20
71.3728
 30
0.000000
  70
    32
  0
VERTEX
  8
0
  5
29C
 10
52.6473
 20
71.3922
 30
0.000000
  70
    32
  0
VERTEX
  8
0
  5
29D
 10
52.7998
 20
71.4125
 30
0.000000
  70
    32
  0
VERTEX
  8
0
  5
29E
 10
52.9503
 20
71.4338
 30
0.000000
  70
    32
  0
VERTEX
  8
0
  5
29F
 10
53.0987
 20
71.4561
 30
0.000000
  70
    32
  0
VERTEX
  8
0
  5
2A0
 10
53.2450
 20
71.4793
 30
0.000000
  70
    32
  0
VERTEX
  8
0
  5
2A1
 10
53.3890
 20
71.5034
 30
0.000000
  70
    32
  0
VERTEX
  8
0
  5
2A2
 10
53.5307
 20
71.5283
 30
0.000000
  70
    32
  0
VERTEX
  8
0
  5
2A3
 10
53.6699
 20
71.5542
 30
0.000000
  70
    32
  0
VERTEX
  8
0
  5
2A4
 10
53.8066
 20
71.5810
 30
0.000000
  70
    32
  0
VERTEX
  8
0
  5
2A5
 10
53.9408
 20
71.6086
 30
0.000000
  70
    32
  0
VERTEX
  8
0
  5
2A6
 10
54.0722
 20
71.6370
 30
0.000000
  70
    32
  0
VERTEX
  8
0
  5
2A7
 10
54.2009
 20
71.6663
 30
0.000000
  70
    32
  0
VERTEX
  8
0
  5
2A8
 10
54.3268
 20
71.6964
 30
0.000000
  70
    32
  0
VERTEX
  8
0
  5
2A9
 10
54.4497
 20
71.7272
 30
0.000000
  70
    32
  0
VERTEX
  8
0
  5
2AA
 10
54.5697
 20
71.7588
 30
0.000000
  70
    32
  0
VERTEX
  8
0
  5
2AB
 10
54.6867
 20
71.7912
 30
0.000000
  70
    32
  0
VERTEX
  8
0
  5
2AC
 10
54.8005
 20
71.8243
 30
0.000000
  70
    32
  0
VERTEX
  8
0
  5
2AD
 10
54.9111
 20
71.8581
 30
0.000000
  70
    32
  0
VERTEX
  8
0
  5
2AE
 10
55.0184
 20
71.8926
 30
0.000000
  70
    32
  0
VERTEX
  8
0
  5
2AF
 10
55.1225
 20
71.9277
 30
0.000000
  70
    32
  0
VERTEX
  8
0
  5
2B0
 10
55.2231
 20
71.9635
 30
0.000000
  70
    32
  0
VERTEX
  8
0
  5
2B1
 10
55.3203
 20
72.0000
 30
0.000000
  70
    32
  0
VERTEX
  8
0
  5
2B2
 10
55.4140
 20
72.0370
 30
0.000000
  70
    32
  0
VERTEX
  8
0
  5
2B3
 10
55.5041
 20
72.0746
 30
0.000000
  70
    32
  0
VERTEX
  8
0
  5
2B4
 10
55.5906
 20
72.1128
 30
0.000000
  70
    32
  0
VERTEX
  8
0
  5
2B5
 10
55.6734
 20
72.1515
 30
0.000000
  70
    32
  0
VERTEX
  8
0
  5
2B6
 10
55.7526
 20
72.1907
 30
0.000000
  70
    32
  0
VERTEX
  8
0
  5
2B7
 10
55.8279
 20
72.2304
 30
0.000000
  70
    32
  0
VERTEX
  8
0
  5
2B8
 10
55.8995
 20
72.2706
 30
0.000000
  70
    32
  0
VERTEX
  8
0
  5
2B9
 10
55.9672
 20
72.3112
 30
0.000000
  70
    32
  0
VERTEX
  8
0
  5
2BA
 10
56.0309
 20
72.3522
 30
0.000000
  70
    32
  0
VERTEX
  8
0
  5
2BB
 10
56.0908
 20
72.3936
 30
0.000000
  70
    32
  0
VERTEX
  8
0
  5
2BC
 10
56.1467
 20
72.4354
 30
0.000000
  70
    32
  0
VERTEX
  8
0
  5
2BD
 10
56.1986
 20
72.4775
 30
0.000000
  70
    32
  0
VERTEX
  8
0
  5
2BE
 10
56.2464
 20
72.5199
 30
0.000000
  70
    32
  0
VERTEX
  8
0
  5
2BF
 10
56.2902
 20
72.5626
 30
0.000000
  70
    32
  0
VERTEX
  8
0
  5
2C0
 10
56.3299
 20
72.6056
 30
0.000000
  70
    32
  0
VERTEX
  8
0
  5
2C1
 10
56.3655
 20
72.6488
 30
0.000000
  70
    32
  0
VERTEX
  8
0
  5
2C2
 10
56.3969
 20
72.6923
 30
0.000000
  70
    32
  0
VERTEX
  8
0
  5
2C3
 10
56.4242
 20
72.7359
 30
0.000000
  70
    32
  0
VERTEX
  8
0
  5
2C4
 10
56.4474
 20
72.7797
 30
0.000000
  70
    32
  0
VERTEX
  8
0
  5
2C5
 10
56.4663
 20
72.8236
 30
0.000000
  70
    32
  0
VERTEX
  8
0
  5
2C6
 10
56.4810
 20
72.8676
 30
0.000000
  70
    32
  0
VERTEX
  8
0
  5
2C7
 10
56.4916
 20
72.9117
 30
0.000000
  70
    32
  0
VERTEX
  8
0
  5
2C8
 10
56.4979
 20
72.9558
 30
0.000000
  70
    32
  0
VERTEX
  8
0
  5
2C9
 10
56.5000
 20
73.0000
 30
0.000000
  70
    32
  0
SEQEND
  8
0
  5
2CA
  0
LINE
  5
C9
  8
0
 10
42.5
 20
73.0
 30
0.0
 11
42.5
 21
90.5
 31
0.0
  0
LINE
  5
CA
  8
0
 10
56.5
 20
73.0
 30
0.0
 11
56.5
 21
90.5
 31
0.0
  0
ARC
  5
D0
  8
0
 10
49.5
 20
99.0
 30
0.0
 40
2.5
 50
36.869898
 51
143.130102
  0
POLYLINE
  5
D3
  8
0
 10
42.625135
 20
90.782356
 30
0.0
 66
     1
 70
     8
  0
VERTEX
  8
0
  5
2CB
 10
42.6251
 20
90.7824
 30
0.000000
  70
    32
  0
VERTEX
  8
0
  5
2CC
 10
42.5915
 20
90.7417
 30
0.000000
  70
    32
  0
VERTEX
  8
0
  5
2CD
 10
42.5631
 20
90.7009
 30
0.000000
  70
    32
  0
VERTEX
  8
0
  5
2CE
 10
42.5399
 20
90.6600
 30
0.000000
  70
    32
  0
VERTEX
  8
0
  5
2CF
 10
42.5220
 20
90.6189
 30
0.000000
  70
    32
  0
VERTEX
  8
0
  5
2D0
 10
42.5094
 20
90.5777
 30
0.000000
  70
    32
  0
VERTEX
  8
0
  5
2D1
 10
42.5021
 20
90.5365
 30
0.000000
  70
    32
  0
VERTEX
  8
0
  5
2D2
 10
42.5000
 20
90.4953
 30
0.000000
  70
    32
  0
VERTEX
  8
0
  5
2D3
 10
42.5033
 20
90.4540
 30
0.000000
  70
    32
  0
VERTEX
  8
0
  5
2D4
 10
42.5118
 20
90.4128
 30
0.000000
  70
    32
  0
VERTEX
  8
0
  5
2D5
 10
42.5257
 20
90.3717
 30
0.000000
  70
    32
  0
VERTEX
  8
0
  5
2D6
 10
42.5448
 20
90.3306
 30
0.000000
  70
    32
  0
VERTEX
  8
0
  5
2D7
 10
42.5691
 20
90.2897
 30
0.000000
  70
    32
  0
VERTEX
  8
0
  5
2D8
 10
42.5987
 20
90.2489
 30
0.000000
  70
    32
  0
VERTEX
  8
0
  5
2D9
 10
42.6336
 20
90.2084
 30
0.000000
  70
    32
  0
VERTEX
  8
0
  5
2DA
 10
42.6736
 20
90.1680
 30
0.000000
  70
    32
  0
VERTEX
  8
0
  5
2DB
 10
42.7188
 20
90.1279
 30
0.000000
  70
    32
  0
VERTEX
  8
0
  5
2DC
 10
42.7691
 20
90.0881
 30
0.000000
  70
    32
  0
VERTEX
  8
0
  5
2DD
 10
42.8245
 20
90.0486
 30
0.000000
  70
    32
  0
VERTEX
  8
0
  5
2DE
 10
42.8850
 20
90.0094
 30
0.000000
  70
    32
  0
VERTEX
  8
0
  5
2DF
 10
42.9504
 20
89.9706
 30
0.000000
  70
    32
  0
VERTEX
  8
0
  5
2E0
 10
43.0208
 20
89.9322
 30
0.000000
  70
    32
  0
VERTEX
  8
0
  5
2E1
 10
43.0961
 20
89.8943
 30
0.000000
  70
    32
  0
VERTEX
  8
0
  5
2E2
 10
43.1763
 20
89.8568
 30
0.000000
  70
    32
  0
VERTEX
  8
0
  5
2E3
 10
43.2612
 20
89.8197
 30
0.000000
  70
    32
  0
VERTEX
  8
0
  5
2E4
 10
43.3509
 20
89.7832
 30
0.000000
  70
    32
  0
VERTEX
  8
0
  5
2E5
 10
43.4452
 20
89.7473
 30
0.000000
  70
    32
  0
VERTEX
  8
0
  5
2E6
 10
43.5441
 20
89.7119
 30
0.000000
  70
    32
  0
VERTEX
  8
0
  5
2E7
 10
43.6475
 20
89.6771
 30
0.000000
  70
    32
  0
VERTEX
  8
0
  5
2E8
 10
43.7553
 20
89.6429
 30
0.000000
  70
    32
  0
VERTEX
  8
0
  5
2E9
 10
43.8674
 20
89.6094
 30
0.000000
  70
    32
  0
VERTEX
  8
0
  5
2EA
 10
43.9839
 20
89.5765
 30
0.000000
  70
    32
  0
VERTEX
  8
0
  5
2EB
 10
44.1045
 20
89.5444
 30
0.000000
  70
    32
  0
VERTEX
  8
0
  5
2EC
 10
44.2291
 20
89.5129
 30
0.000000
  70
    32
  0
VERTEX
  8
0
  5
2ED
 10
44.3578
 20
89.4822
 30
0.000000
  70
    32
  0
VERTEX
  8
0
  5
2EE
 10
44.4904
 20
89.4523
 30
0.000000
  70
    32
  0
VERTEX
  8
0
  5
2EF
 10
44.6267
 20
89.4232
 30
0.000000
  70
    32
  0
VERTEX
  8
0
  5
2F0
 10
44.7667
 20
89.3949
 30
0.000000
  70
    32
  0
VERTEX
  8
0
  5
2F1
 10
44.9103
 20
89.3674
 30
0.000000
  70
    32
  0
VERTEX
  8
0
  5
2F2
 10
45.0574
 20
89.3408
 30
0.000000
  70
    32
  0
VERTEX
  8
0
  5
2F3
 10
45.2078
 20
89.3151
 30
0.000000
  70
    32
  0
VERTEX
  8
0
  5
2F4
 10
45.3615
 20
89.2902
 30
0.000000
  70
    32
  0
VERTEX
  8
0
  5
2F5
 10
45.5183
 20
89.2663
 30
0.000000
  70
    32
  0
VERTEX
  8
0
  5
2F6
 10
45.6782
 20
89.2433
 30
0.000000
  70
    32
  0
VERTEX
  8
0
  5
2F7
 10
45.8409
 20
89.2213
 30
0.000000
  70
    32
  0
VERTEX
  8
0
  5
2F8
 10
46.0064
 20
89.2002
 30
0.000000
  70
    32
  0
VERTEX
  8
0
  5
2F9
 10
46.1745
 20
89.1801
 30
0.000000
  70
    32
  0
VERTEX
  8
0
  5
2FA
 10
46.3451
 20
89.1610
 30
0.000000
  70
    32
  0
VERTEX
  8
0
  5
2FB
 10
46.5182
 20
89.1429
 30
0.000000
  70
    32
  0
VERTEX
  8
0
  5
2FC
 10
46.6934
 20
89.1258
 30
0.000000
  70
    32
  0
VERTEX
  8
0
  5
2FD
 10
46.8709
 20
89.1098
 30
0.000000
  70
    32
  0
VERTEX
  8
0
  5
2FE
 10
47.0502
 20
89.0949
 30
0.000000
  70
    32
  0
VERTEX
  8
0
  5
2FF
 10
47.2315
 20
89.0809
 30
0.000000
  70
    32
  0
VERTEX
  8
0
  5
300
 10
47.4145
 20
89.0681
 30
0.000000
  70
    32
  0
VERTEX
  8
0
  5
301
 10
47.5990
 20
89.0564
 30
0.000000
  70
    32
  0
VERTEX
  8
0
  5
302
 10
47.7850
 20
89.0457
 30
0.000000
  70
    32
  0
VERTEX
  8
0
  5
303
 10
47.9723
 20
89.0362
 30
0.000000
  70
    32
  0
VERTEX
  8
0
  5
304
 10
48.1607
 20
89.0277
 30
0.000000
  70
    32
  0
VERTEX
  8
0
  5
305
 10
48.3501
 20
89.0204
 30
0.000000
  70
    32
  0
VERTEX
  8
0
  5
306
 10
48.5404
 20
89.0142
 30
0.000000
  70
    32
  0
VERTEX
  8
0
  5
307
 10
48.7315
 20
89.0091
 30
0.000000
  70
    32
  0
VERTEX
  8
0
  5
308
 10
48.9231
 20
89.0051
 30
0.000000
  70
    32
  0
VERTEX
  8
0
  5
309
 10
49.1152
 20
89.0023
 30
0.000000
  70
    32
  0
VERTEX
  8
0
  5
30A
 10
49.3075
 20
89.0006
 30
0.000000
  70
    32
  0
VERTEX
  8
0
  5
30B
 10
49.5000
 20
89.0000
 30
0.000000
  70
    32
  0
VERTEX
  8
0
  5
30C
 10
49.6925
 20
89.0006
 30
0.000000
  70
    32
  0
VERTEX
  8
0
  5
30D
 10
49.8848
 20
89.0023
 30
0.000000
  70
    32
  0
VERTEX
  8
0
  5
30E
 10
50.0769
 20
89.0051
 30
0.000000
  70
    32
  0
VERTEX
  8
0
  5
30F
 10
50.2685
 20
89.0091
 30
0.000000
  70
    32
  0
VERTEX
  8
0
  5
310
 10
50.4596
 20
89.0142
 30
0.000000
  70
    32
  0
VERTEX
  8
0
  5
311
 10
50.6499
 20
89.0204
 30
0.000000
  70
    32
  0
VERTEX
  8
0
  5
312
 10
50.8393
 20
89.0277
 30
0.000000
  70
    32
  0
VERTEX
  8
0
  5
313
 10
51.0277
 20
89.0362
 30
0.000000
  70
    32
  0
VERTEX
  8
0
  5
314
 10
51.2150
 20
89.0457
 30
0.000000
  70
    32
  0
VERTEX
  8
0
  5
315
 10
51.4010
 20
89.0564
 30
0.000000
  70
    32
  0
VERTEX
  8
0
  5
316
 10
51.5855
 20
89.0681
 30
0.000000
  70
    32
  0
VERTEX
  8
0
  5
317
 10
51.7685
 20
89.0809
 30
0.000000
  70
    32
  0
VERTEX
  8
0
  5
318
 10
51.9498
 20
89.0949
 30
0.000000
  70
    32
  0
VERTEX
  8
0
  5
319
 10
52.1291
 20
89.1098
 30
0.000000
  70
    32
  0
VERTEX
  8
0
  5
31A
 10
52.3066
 20
89.1258
 30
0.000000
  70
    32
  0
VERTEX
  8
0
  5
31B
 10
52.4818
 20
89.1429
 30
0.000000
  70
    32
  0
VERTEX
  8
0
  5
31C
 10
52.6549
 20
89.1610
 30
0.000000
  70
    32
  0
VERTEX
  8
0
  5
31D
 10
52.8255
 20
89.1801
 30
0.000000
  70
    32
  0
VERTEX
  8
0
  5
31E
 10
52.9936
 20
89.2002
 30
0.000000
  70
    32
  0
VERTEX
  8
0
  5
31F
 10
53.1591
 20
89.2213
 30
0.000000
  70
    32
  0
VERTEX
  8
0
  5
320
 10
53.3218
 20
89.2433
 30
0.000000
  70
    32
  0
VERTEX
  8
0
  5
321
 10
53.4817
 20
89.2663
 30
0.000000
  70
    32
  0
VERTEX
  8
0
  5
322
 10
53.6385
 20
89.2902
 30
0.000000
  70
    32
  0
VERTEX
  8
0
  5
323
 10
53.7922
 20
89.3151
 30
0.000000
  70
    32
  0
VERTEX
  8
0
  5
324
 10
53.9426
 20
89.3408
 30
0.000000
  70
    32
  0
VERTEX
  8
0
  5
325
 10
54.0897
 20
89.3674
 30
0.000000
  70
    32
  0
VERTEX
  8
0
  5
326
 10
54.2333
 20
89.3949
 30
0.000000
  70
    32
  0
VERTEX
  8
0
  5
327
 10
54.3733
 20
89.4232
 30
0.000000
  70
    32
  0
VERTEX
  8
0
  5
328
 10
54.5096
 20
89.4523
 30
0.000000
  70
    32
  0
VERTEX
  8
0
  5
329
 10
54.6422
 20
89.4822
 30
0.000000
  70
    32
  0
VERTEX
  8
0
  5
32A
 10
54.7709
 20
89.5129
 30
0.000000
  70
    32
  0
VERTEX
  8
0
  5
32B
 10
54.8955
 20
89.5444
 30
0.000000
  70
    32
  0
VERTEX
  8
0
  5
32C
 10
55.0161
 20
89.5765
 30
0.000000
  70
    32
  0
VERTEX
  8
0
  5
32D
 10
55.1326
 20
89.6094
 30
0.000000
  70
    32
  0
VERTEX
  8
0
  5
32E
 10
55.2447
 20
89.6429
 30
0.000000
  70
    32
  0
VERTEX
  8
0
  5
32F
 10
55.3525
 20
89.6771
 30
0.000000
  70
    32
  0
VERTEX
  8
0
  5
330
 10
55.4559
 20
89.7119
 30
0.000000
  70
    32
  0
VERTEX
  8
0
  5
331
 10
55.5548
 20
89.7473
 30
0.000000
  70
    32
  0
VERTEX
  8
0
  5
332
 10
55.6491
 20
89.7832
 30
0.000000
  70
    32
  0
VERTEX
  8
0
  5
333
 10
55.7388
 20
89.8197
 30
0.000000
  70
    32
  0
VERTEX
  8
0
  5
334
 10
55.8237
 20
89.8568
 30
0.000000
  70
    32
  0
VERTEX
  8
0
  5
335
 10
55.9039
 20
89.8943
 30
0.000000
  70
    32
  0
VERTEX
  8
0
  5
336
 10
55.9792
 20
89.9322
 30
0.000000
  70
    32
  0
VERTEX
  8
0
  5
337
 10
56.0496
 20
89.9706
 30
0.000000
  70
    32
  0
VERTEX
  8
0
  5
338
 10
56.1150
 20
90.0094
 30
0.000000
  70
    32
  0
VERTEX
  8
0
  5
339
 10
56.1755
 20
90.0486
 30
0.000000
  70
    32
  0
VERTEX
  8
0
  5
33A
 10
56.2309
 20
90.0881
 30
0.000000
  70
    32
  0
VERTEX
  8
0
  5
33B
 10
56.2812
 20
90.1279
 30
0.000000
  70
    32
  0
VERTEX
  8
0
  5
33C
 10
56.3264
 20
90.1680
 30
0.000000
  70
    32
  0
VERTEX
  8
0
  5
33D
 10
56.3664
 20
90.2084
 30
0.000000
  70
    32
  0
VERTEX
  8
0
  5
33E
 10
56.4013
 20
90.2489
 30
0.000000
  70
    32
  0
VERTEX
  8
0
  5
33F
 10
56.4309
 20
90.2897
 30
0.000000
  70
    32
  0
VERTEX
  8
0
  5
340
 10
56.4552
 20
90.3306
 30
0.000000
  70
    32
  0
VERTEX
  8
0
  5
341
 10
56.4743
 20
90.3717
 30
0.000000
  70
    32
  0
VERTEX
  8
0
  5
342
 10
56.4882
 20
90.4128
 30
0.000000
  70
    32
  0
VERTEX
  8
0
  5
343
 10
56.4967
 20
90.4540
 30
0.000000
  70
    32
  0
VERTEX
  8
0
  5
344
 10
56.5000
 20
90.4953
 30
0.000000
  70
    32
  0
VERTEX
  8
0
  5
345
 10
56.4979
 20
90.5365
 30
0.000000
  70
    32
  0
VERTEX
  8
0
  5
346
 10
56.4906
 20
90.5777
 30
0.000000
  70
    32
  0
VERTEX
  8
0
  5
347
 10
56.4780
 20
90.6189
 30
0.000000
  70
    32
  0
VERTEX
  8
0
  5
348
 10
56.4601
 20
90.6600
 30
0.000000
  70
    32
  0
VERTEX
  8
0
  5
349
 10
56.4369
 20
90.7009
 30
0.000000
  70
    32
  0
VERTEX
  8
0
  5
34A
 10
56.4085
 20
90.7417
 30
0.000000
  70
    32
  0
VERTEX
  8
0
  5
34B
 10
56.3749
 20
90.7824
 30
0.000000
  70
    32
  0
SEQEND
  8
0
  5
34C
  0
LINE
  5
D6
  8
0
 10
54.717492
 20
91.5
 30
0.0
 11
51.5
 21
100.5
 31
0.0
  0
LINE
  5
D7
  8
0
 10
44.282508
 20
91.5
 30
0.0
 11
47.5
 21
100.5
 31
0.0
  0
LINE
  5
D9
  8
0
 10
52.5
 20
93.0
 30
0.0
 11
46.5
 21
93.0
 31
0.0
  0
LINE
  5
DC
  8
0
 10
53.5
 20
92.0
 30
0.0
 11
53.5
 21
90.5
 31
0.0
  0
LINE
  5
DD
  8
0
 10
45.5
 20
92.0
 30
0.0
 11
45.5
 21
90.5
 31
0.0
  0
POLYLINE
  5
DE
  8
0
 10
45.5
 20
90.5
 30
0.0
 66
     1
 70
     8
  0
VERTEX
  8
0
  5
34D
 10
45.5000
 20
90.5000
 30
0.000000
  70
    32
  0
VERTEX
  8
0
  5
34E
 10
45.5012
 20
90.4755
 30
0.000000
  70
    32
  0
VERTEX
  8
0
  5
34F
 10
45.5048
 20
90.4509
 30
0.000000
  70
    32
  0
VERTEX
  8
0
  5
350
 10
45.5108
 20
90.4264
 30
0.000000
  70
    32
  0
VERTEX
  8
0
  5
351
 10
45.5193
 20
90.4020
 30
0.000000
  70
    32
  0
VERTEX
  8
0
  5
352
 10
45.5301
 20
90.3776
 30
0.000000
  70
    32
  0
VERTEX
  8
0
  5
353
 10
45.5433
 20
90.3533
 30
0.000000
  70
    32
  0
VERTEX
  8
0
  5
354
 10
45.5589
 20
90.3290
 30
0.000000
  70
    32
  0
VERTEX
  8
0
  5
355
 10
45.5769
 20
90.3049
 30
0.000000
  70
    32
  0
VERTEX
  8
0
  5
356
 10
45.5972
 20
90.2809
 30
0.000000
  70
    32
  0
VERTEX
  8
0
  5
357
 10
45.6199
 20
90.2570
 30
0.000000
  70
    32
  0
VERTEX
  8
0
  5
358
 10
45.6449
 20
90.2333
 30
0.000000
  70
    32
  0
VERTEX
  8
0
  5
359
 10
45.6722
 20
90.2097
 30
0.000000
  70
    32
  0
VERTEX
  8
0
  5
35A
 10
45.7019
 20
90.1863
 30
0.000000
  70
    32
  0
VERTEX
  8
0
  5
35B
 10
45.7338
 20
90.1631
 30
0.000000
  70
    32
  0
VERTEX
  8
0
  5
35C
 10
45.7680
 20
90.1401
 30
0.000000
  70
    32
  0
VERTEX
  8
0
  5
35D
 10
45.8045
 20
90.1173
 30
0.000000
  70
    32
  0
VERTEX
  8
0
  5
35E
 10
45.8432
 20
90.0948
 30
0.000000
  70
    32
  0
VERTEX
  8
0
  5
35F
 10
45.8840
 20
90.0724
 30
0.000000
  70
    32
  0
VERTEX
  8
0
  5
360
 10
45.9271
 20
90.0504
 30
0.000000
  70
    32
  0
VERTEX
  8
0
  5
361
 10
45.9723
 20
90.0286
 30
0.000000
  70
    32
  0
VERTEX
  8
0
  5
362
 10
46.0197
 20
90.0071
 30
0.000000
  70
    32
  0
VERTEX
  8
0
  5
363
 10
46.0691
 20
89.9859
 30
0.000000
  70
    32
  0
VERTEX
  8
0
  5
364
 10
46.1206
 20
89.9650
 30
0.000000
  70
    32
  0
VERTEX
  8
0
  5
365
 10
46.1741
 20
89.9444
 30
0.000000
  70
    32
  0
VERTEX
  8
0
  5
366
 10
46.2297
 20
89.9242
 30
0.000000
  70
    32
  0
VERTEX
  8
0
  5
367
 10
46.2872
 20
89.9043
 30
0.000000
  70
    32
  0
VERTEX
  8
0
  5
368
 10
46.3466
 20
89.8848
 30
0.000000
  70
    32
  0
VERTEX
  8
0
  5
369
 10
46.4080
 20
89.8656
 30
0.000000
  70
    32
  0
VERTEX
  8
0
  5
36A
 10
46.4712
 20
89.8468
 30
0.000000
  70
    32
  0
VERTEX
  8
0
  5
36B
 10
46.5362
 20
89.8284
 30
0.000000
  70
    32
  0
VERTEX
  8
0
  5
36C
 10
46.6030
 20
89.8105
 30
0.000000
  70
    32
  0
VERTEX
  8
0
  5
36D
 10
46.6716
 20
89.7929
 30
0.000000
  70
    32
  0
VERTEX
  8
0
  5
36E
 10
46.7418
 20
89.7758
 30
0.000000
  70
    32
  0
VERTEX
  8
0
  5
36F
 10
46.8138
 20
89.7590
 30
0.000000
  70
    32
  0
VERTEX
  8
0
  5
370
 10
46.8873
 20
89.7428
 30
0.000000
  70
    32
  0
VERTEX
  8
0
  5
371
 10
46.9624
 20
89.7270
 30
0.000000
  70
    32
  0
VERTEX
  8
0
  5
372
 10
47.0391
 20
89.7117
 30
0.000000
  70
    32
  0
VERTEX
  8
0
  5
373
 10
47.1172
 20
89.6968
 30
0.000000
  70
    32
  0
VERTEX
  8
0
  5
374
 10
47.1968
 20
89.6824
 30
0.000000
  70
    32
  0
VERTEX
  8
0
  5
375
 10
47.2777
 20
89.6685
 30
0.000000
  70
    32
  0
VERTEX
  8
0
  5
376
 10
47.3600
 20
89.6551
 30
0.000000
  70
    32
  0
VERTEX
  8
0
  5
377
 10
47.4436
 20
89.6423
 30
0.000000
  70
    32
  0
VERTEX
  8
0
  5
378
 10
47.5284
 20
89.6299
 30
0.000000
  70
    32
  0
VERTEX
  8
0
  5
379
 10
47.6144
 20
89.6181
 30
0.000000
  70
    32
  0
VERTEX
  8
0
  5
37A
 10
47.7016
 20
89.6068
 30
0.000000
  70
    32
  0
VERTEX
  8
0
  5
37B
 10
47.7898
 20
89.5960
 30
0.000000
  70
    32
  0
VERTEX
  8
0
  5
37C
 10
47.8790
 20
89.5858
 30
0.000000
  70
    32
  0
VERTEX
  8
0
  5
37D
 10
47.9693
 20
89.5761
 30
0.000000
  70
    32
  0
VERTEX
  8
0
  5
37E
 10
48.0604
 20
89.5670
 30
0.000000
  70
    32
  0
VERTEX
  8
0
  5
37F
 10
48.1524
 20
89.5585
 30
0.000000
  70
    32
  0
VERTEX
  8
0
  5
380
 10
48.2453
 20
89.5505
 30
0.000000
  70
    32
  0
VERTEX
  8
0
  5
381
 10
48.3389
 20
89.5431
 30
0.000000
  70
    32
  0
VERTEX
  8
0
  5
382
 10
48.4331
 20
89.5362
 30
0.000000
  70
    32
  0
VERTEX
  8
0
  5
383
 10
48.5281
 20
89.5300
 30
0.000000
  70
    32
  0
VERTEX
  8
0
  5
384
 10
48.6236
 20
89.5243
 30
0.000000
  70
    32
  0
VERTEX
  8
0
  5
385
 10
48.7196
 20
89.5192
 30
0.000000
  70
    32
  0
VERTEX
  8
0
  5
386
 10
48.8162
 20
89.5147
 30
0.000000
  70
    32
  0
VERTEX
  8
0
  5
387
 10
48.9131
 20
89.5108
 30
0.000000
  70
    32
  0
VERTEX
  8
0
  5
388
 10
49.0104
 20
89.5075
 30
0.000000
  70
    32
  0
VERTEX
  8
0
  5
389
 10
49.1079
 20
89.5048
 30
0.000000
  70
    32
  0
VERTEX
  8
0
  5
38A
 10
49.2057
 20
89.5027
 30
0.000000
  70
    32
  0
VERTEX
  8
0
  5
38B
 10
49.3037
 20
89.5012
 30
0.000000
  70
    32
  0
VERTEX
  8
0
  5
38C
 10
49.4018
 20
89.5003
 30
0.000000
  70
    32
  0
VERTEX
  8
0
  5
38D
 10
49.5000
 20
89.5000
 30
0.000000
  70
    32
  0
VERTEX
  8
0
  5
38E
 10
49.5982
 20
89.5003
 30
0.000000
  70
    32
  0
VERTEX
  8
0
  5
38F
 10
49.6963
 20
89.5012
 30
0.000000
  70
    32
  0
VERTEX
  8
0
  5
390
 10
49.7943
 20
89.5027
 30
0.000000
  70
    32
  0
VERTEX
  8
0
  5
391
 10
49.8921
 20
89.5048
 30
0.000000
  70
    32
  0
VERTEX
  8
0
  5
392
 10
49.9896
 20
89.5075
 30
0.000000
  70
    32
  0
VERTEX
  8
0
  5
393
 10
50.0869
 20
89.5108
 30
0.000000
  70
    32
  0
VERTEX
  8
0
  5
394
 10
50.1838
 20
89.5147
 30
0.000000
  70
    32
  0
VERTEX
  8
0
  5
395
 10
50.2804
 20
89.5192
 30
0.000000
  70
    32
  0
VERTEX
  8
0
  5
396
 10
50.3764
 20
89.5243
 30
0.000000
  70
    32
  0
VERTEX
  8
0
  5
397
 10
50.4719
 20
89.5300
 30
0.000000
  70
    32
  0
VERTEX
  8
0
  5
398
 10
50.5669
 20
89.5362
 30
0.000000
  70
    32
  0
VERTEX
  8
0
  5
399
 10
50.6611
 20
89.5431
 30
0.000000
  70
    32
  0
VERTEX
  8
0
  5
39A
 10
50.7547
 20
89.5505
 30
0.000000
  70
    32
  0
VERTEX
  8
0
  5
39B
 10
50.8476
 20
89.5585
 30
0.000000
  70
    32
  0
VERTEX
  8
0
  5
39C
 10
50.9396
 20
89.5670
 30
0.000000
  70
    32
  0
VERTEX
  8
0
  5
39D
 10
51.0307
 20
89.5761
 30
0.000000
  70
    32
  0
VERTEX
  8
0
  5
39E
 10
51.1210
 20
89.5858
 30
0.000000
  70
    32
  0
VERTEX
  8
0
  5
39F
 10
51.2102
 20
89.5960
 30
0.000000
  70
    32
  0
VERTEX
  8
0
  5
3A0
 10
51.2984
 20
89.6068
 30
0.000000
  70
    32
  0
VERTEX
  8
0
  5
3A1
 10
51.3856
 20
89.6181
 30
0.000000
  70
    32
  0
VERTEX
  8
0
  5
3A2
 10
51.4716
 20
89.6299
 30
0.000000
  70
    32
  0
VERTEX
  8
0
  5
3A3
 10
51.5564
 20
89.6423
 30
0.000000
  70
    32
  0
VERTEX
  8
0
  5
3A4
 10
51.6400
 20
89.6551
 30
0.000000
  70
    32
  0
VERTEX
  8
0
  5
3A5
 10
51.7223
 20
89.6685
 30
0.000000
  70
    32
  0
VERTEX
  8
0
  5
3A6
 10
51.8032
 20
89.6824
 30
0.000000
  70
    32
  0
VERTEX
  8
0
  5
3A7
 10
51.8828
 20
89.6968
 30
0.000000
  70
    32
  0
VERTEX
  8
0
  5
3A8
 10
51.9609
 20
89.7117
 30
0.000000
  70
    32
  0
VERTEX
  8
0
  5
3A9
 10
52.0376
 20
89.7270
 30
0.000000
  70
    32
  0
VERTEX
  8
0
  5
3AA
 10
52.1127
 20
89.7428
 30
0.000000
  70
    32
  0
VERTEX
  8
0
  5
3AB
 10
52.1862
 20
89.7590
 30
0.000000
  70
    32
  0
VERTEX
  8
0
  5
3AC
 10
52.2582
 20
89.7758
 30
0.000000
  70
    32
  0
VERTEX
  8
0
  5
3AD
 10
52.3284
 20
89.7929
 30
0.000000
  70
    32
  0
VERTEX
  8
0
  5
3AE
 10
52.3970
 20
89.8105
 30
0.000000
  70
    32
  0
VERTEX
  8
0
  5
3AF
 10
52.4638
 20
89.8284
 30
0.000000
  70
    32
  0
VERTEX
  8
0
  5
3B0
 10
52.5288
 20
89.8468
 30
0.000000
  70
    32
  0
VERTEX
  8
0
  5
3B1
 10
52.5920
 20
89.8656
 30
0.000000
  70
    32
  0
VERTEX
  8
0
  5
3B2
 10
52.6534
 20
89.8848
 30
0.000000
  70
    32
  0
VERTEX
  8
0
  5
3B3
 10
52.7128
 20
89.9043
 30
0.000000
  70
    32
  0
VERTEX
  8
0
  5
3B4
 10
52.7703
 20
89.9242
 30
0.000000
  70
    32
  0
VERTEX
  8
0
  5
3B5
 10
52.8259
 20
89.9444
 30
0.000000
  70
    32
  0
VERTEX
  8
0
  5
3B6
 10
52.8794
 20
89.9650
 30
0.000000
  70
    32
  0
VERTEX
  8
0
  5
3B7
 10
52.9309
 20
89.9859
 30
0.000000
  70
    32
  0
VERTEX
  8
0
  5
3B8
 10
52.9803
 20
90.0071
 30
0.000000
  70
    32
  0
VERTEX
  8
0
  5
3B9
 10
53.0277
 20
90.0286
 30
0.000000
  70
    32
  0
VERTEX
  8
0
  5
3BA
 10
53.0729
 20
90.0504
 30
0.000000
  70
    32
  0
VERTEX
  8
0
  5
3BB
 10
53.1160
 20
90.0724
 30
0.000000
  70
    32
  0
VERTEX
  8
0
  5
3BC
 10
53.1568
 20
90.0948
 30
0.000000
  70
    32
  0
VERTEX
  8
0
  5
3BD
 10
53.1955
 20
90.1173
 30
0.000000
  70
    32
  0
VERTEX
  8
0
  5
3BE
 10
53.2320
 20
90.1401
 30
0.000000
  70
    32
  0
VERTEX
  8
0
  5
3BF
 10
53.2662
 20
90.1631
 30
0.000000
  70
    32
  0
VERTEX
  8
0
  5
3C0
 10
53.2981
 20
90.1863
 30
0.000000
  70
    32
  0
VERTEX
  8
0
  5
3C1
 10
53.3278
 20
90.2097
 30
0.000000
  70
    32
  0
VERTEX
  8
0
  5
3C2
 10
53.3551
 20
90.2333
 30
0.000000
  70
    32
  0
VERTEX
  8
0
  5
3C3
 10
53.3801
 20
90.2570
 30
0.000000
  70
    32
  0
VERTEX
  8
0
  5
3C4
 10
53.4028
 20
90.2809
 30
0.000000
  70
    32
  0
VERTEX
  8
0
  5
3C5
 10
53.4231
 20
90.3049
 30
0.000000
  70
    32
  0
VERTEX
  8
0
  5
3C6
 10
53.4411
 20
90.3290
 30
0.000000
  70
    32
  0
VERTEX
  8
0
  5
3C7
 10
53.4567
 20
90.3533
 30
0.000000
  70
    32
  0
VERTEX
  8
0
  5
3C8
 10
53.4699
 20
90.3776
 30
0.000000
  70
    32
  0
VERTEX
  8
0
  5
3C9
 10
53.4807
 20
90.4020
 30
0.000000
  70
    32
  0
VERTEX
  8
0
  5
3CA
 10
53.4892
 20
90.4264
 30
0.000000
  70
    32
  0
VERTEX
  8
0
  5
3CB
 10
53.4952
 20
90.4509
 30
0.000000
  70
    32
  0
VERTEX
  8
0
  5
3CC
 10
53.4988
 20
90.4755
 30
0.000000
  70
    32
  0
VERTEX
  8
0
  5
3CD
 10
53.5000
 20
90.5000
 30
0.000000
  70
    32
  0
SEQEND
  8
0
  5
3CE
  0
ARC
  5
DF
  8
0
 10
46.5
 20
92.0
 30
0.0
 40
1.0
 50
90.0
 51
180.0
  0
ARC
  5
E0
  8
0
 10
52.5
 20
92.0
 30
0.0
 40
1.0
 50
0.0
 51
90.0
  0
LINE
  5
E1
  8
0
 10
47.0
 20
67.0
 30
0.0
 11
49.5
 21
67.0
 31
0.0
  0
LINE
  5
E2
  8
0
 10
47.5
 20
56.0
 30
0.0
 11
49.5
 21
56.0
 31
0.0
  0
LINE
  5
E3
  8
0
 10
47.0
 20
56.5
 30
0.0
 11
49.5
 21
56.5
 31
0.0
  0
LINE
  5
E4
  8
0
 10
47.0
 20
68.0
 30
0.0
 11
47.0
 21
56.5
 31
0.0
  0
LINE
  5
E5
  8
0
 10
47.5
 20
56.0
 30
0.0
 11
47.5
 21
67.0
 31
0.0
  0
LINE
  5
E6
  8
0
 10
47.0
 20
56.5
 30
0.0
 11
47.5
 21
56.0
 31
0.0
  0
LINE
  5
ED
  8
1
 10
106.0
 20
53.5
 30
0.0
 11
106.0
 21
96.5
 31
0.0
  0
LINE
  5
EE
  8
0
 10
106.0
 20
68.0
 30
0.0
 11
101.0
 21
68.0
 31
0.0
  0
LINE
  5
FB
  8
0
 10
106.0
 20
68.0
 30
0.0
 11
111.0
 21
68.0
 31
0.0
  0
LINE
  5
FC
  8
0
 10
101.0
 20
68.0
 30
0.0
 11
101.0
 21
71.671429
 31
0.0
  0
LINE
  5
FD
  8
0
 10
111.0
 20
68.0
 30
0.0
 11
111.0
 21
74.028571
 31
0.0
  0
LINE
  5
102
  8
0
 10
99.0
 20
72.463119
 30
0.0
 11
99.0
 21
88.223076
 31
0.0
  0
LINE
  5
103
  8
0
 10
99.752814
 20
89.192044
 30
0.0
 11
146.752814
 21
101.18184
 31
0.0
  0
LINE
  5
104
  8
0
 10
148.0
 20
100.212872
 30
0.0
 11
148.0
 21
93.289859
 31
0.0
  0
LINE
  5
105
  8
0
 10
147.231621
 20
92.317053
 30
0.0
 11
138.043599
 21
90.129428
 31
0.0
  0
LINE
  5
106
  8
0
 10
137.104872
 20
90.395128
 30
0.0
 11
135.951959
 21
91.548041
 31
0.0
  0
LINE
  5
107
  8
0
 10
111.0
 20
92.0
 30
0.0
 11
111.0
 21
83.0
 31
0.0
  0
LINE
  5
109
  8
0
 10
111.0
 20
83.0
 30
0.0
 11
134.900034
 21
91.779604
 31
0.0
  0
LINE
  5
10B
  8
0
 10
112.229427
 20
74.318365
 30
0.0
 11
100.229427
 21
71.489793
 31
0.0
  0
LINE
  5
10C
  8
0
 10
113.0
 20
75.291691
 30
0.0
 11
113.0
 21
79.5
 31
0.0
  0
LINE
  5
10E
  8
0
 10
114.0
 20
79.5
 30
0.0
 11
112.0
 21
79.5
 31
0.0
  0
LINE
  5
10F
  8
0
 10
112.0
 20
79.5
 30
0.0
 11
112.0
 21
83.367347
 31
0.0
  0
LINE
  5
110
  8
0
 10
114.0
 20
79.5
 30
0.0
 11
114.0
 21
84.102041
 31
0.0
  0
ARC
  5
111
  8
0
 10
100.0
 20
88.223076
 30
0.0
 40
1.0
 50
104.311041
 51
180.0
  0
ARC
  5
112
  8
0
 10
100.0
 20
72.463119
 30
0.0
 40
1.0
 50
180.0
 51
283.263329
  0
ARC
  5
113
  8
0
 10
147.0
 20
100.212872
 30
0.0
 40
1.0
 50
0.0
 51
104.311041
  0
ARC
  5
114
  8
0
 10
147.0
 20
93.289859
 30
0.0
 40
1.0
 50
283.392498
 51
0.0
  0
ARC
  5
115
  8
0
 10
137.811979
 20
91.102235
 30
0.0
 40
1.0
 50
225.0
 51
283.392498
  0
ARC
  5
116
  8
0
 10
135.244852
 20
90.840935
 30
0.0
 40
1.0
 50
45.0
 51
110.170653
  0
ARC
  5
117
  8
0
 10
112.0
 20
75.291691
 30
0.0
 40
1.0
 50
283.263329
 51
0.0
  0
LINE
  5
118
  8
0
 10
103.0
 20
93.0
 30
0.0
 11
109.0
 21
93.0
 31
0.0
  0
LINE
  5
119
  8
0
 10
110.0
 20
92.0
 30
0.0
 11
110.0
 21
91.806122
 31
0.0
  0
LINE
  5
11A
  8
0
 10
102.0
 20
92.0
 30
0.0
 11
102.0
 21
89.765306
 31
0.0
  0
ARC
  5
11B
  8
0
 10
109.0
 20
92.0
 30
0.0
 40
1.0
 50
0.0
 51
90.0
  0
ARC
  5
11C
  8
0
 10
103.0
 20
92.0
 30
0.0
 40
1.0
 50
90.0
 51
180.0
  0
LINE
  5
125
  8
0
 10
52.0
 20
68.0
 30
0.0
 11
52.0
 21
56.5
 31
0.0
  0
LINE
  5
126
  8
0
 10
51.5
 20
56.0
 30
0.0
 11
51.5
 21
67.0
 31
0.0
  0
LINE
  5
127
  8
0
 10
51.5
 20
56.0
 30
0.0
 11
49.5
 21
56.0
 31
0.0
  0
LINE
  5
128
  8
0
 10
52.0
 20
56.5
 30
0.0
 11
49.5
 21
56.5
 31
0.0
  0
LINE
  5
129
  8
0
 10
52.0
 20
56.5
 30
0.0
 11
51.5
 21
56.0
 31
0.0
  0
LINE
  5
12A
  8
0
 10
52.0
 20
67.0
 30
0.0
 11
49.5
 21
67.0
 31
0.0
  0
LINE
  5
12B
  8
0
 10
108.0
 20
56.0
 30
0.0
 11
108.0
 21
67.0
 31
0.0
  0
LINE
  5
12C
  8
0
 10
108.5
 20
68.0
 30
0.0
 11
108.5
 21
56.5
 31
0.0
  0
LINE
  5
12D
  8
0
 10
103.5
 20
68.0
 30
0.0
 11
103.5
 21
56.5
 31
0.0
  0
LINE
  5
12E
  8
0
 10
104.0
 20
56.0
 30
0.0
 11
104.0
 21
67.0
 31
0.0
  0
LINE
  5
12F
  8
0
 10
104.0
 20
56.0
 30
0.0
 11
106.0
 21
56.0
 31
0.0
  0
LINE
  5
130
  8
0
 10
103.5
 20
56.5
 30
0.0
 11
106.0
 21
56.5
 31
0.0
  0
LINE
  5
131
  8
0
 10
103.5
 20
56.5
 30
0.0
 11
104.0
 21
56.0
 31
0.0
  0
LINE
  5
132
  8
0
 10
108.5
 20
56.5
 30
0.0
 11
106.0
 21
56.5
 31
0.0
  0
LINE
  5
133
  8
0
 10
108.0
 20
56.0
 30
0.0
 11
106.0
 21
56.0
 31
0.0
  0
LINE
  5
134
  8
0
 10
108.5
 20
56.5
 30
0.0
 11
108.0
 21
56.0
 31
0.0
  0
LINE
  5
135
  8
0
 10
103.5
 20
67.0
 30
0.0
 11
106.0
 21
67.0
 31
0.0
  0
LINE
  5
136
  8
0
 10
108.5
 20
67.0
 30
0.0
 11
106.0
 21
67.0
 31
0.0
  0
ENDSEC
  0
EOF
