  0
SECTION
  2
HEADER
  9
$ACADVER
  1
AC1009
  9
$INSBASE
 10
0.0
 20
0.0
 30
0.0
  9
$EXTMIN
 10
19.5
 20
38.0
 30
0.0
  9
$EXTMAX
 10
188.5
 20
132.0
 30
0.0
  9
$LIMMIN
 10
0.0
 20
0.0
  9
$LIMMAX
 10
200.0
 20
150.0
  9
$ORTHOMODE
 70
     1
  9
$REGENMODE
 70
     1
  9
$FILLMODE
 70
     1
  9
$QTEXTMODE
 70
     0
  9
$MIRRTEXT
 70
     1
  9
$DRAGMODE
 70
     2
  9
$LTSCALE
 40
1.0
  9
$OSMODE
 70
     0
  9
$ATTMODE
 70
     1
  9
$TEXTSIZE
 40
2.5
  9
$TRACEWID
 40
1.0
  9
$TEXTSTYLE
  7
STANDARD
  9
$CLAYER
  8
0
  9
$CELTYPE
  6
BYLAYER
  9
$CECOLOR
 62
   256
  9
$DIMSCALE
 40
1.0
  9
$DIMASZ
 40
2.5
  9
$DIMEXO
 40
0.625
  9
$DIMDLI
 40
3.75
  9
$DIMRND
 40
0.0
  9
$DIMDLE
 40
0.0
  9
$DIMEXE
 40
1.25
  9
$DIMTP
 40
0.0
  9
$DIMTM
 40
0.0
  9
$DIMTXT
 40
2.5
  9
$DIMCEN
 40
2.5
  9
$DIMTSZ
 40
0.0
  9
$DIMTOL
 70
     0
  9
$DIMLIM
 70
     0
  9
$DIMTIH
 70
     0
  9
$DIMTOH
 70
     0
  9
$DIMSE1
 70
     0
  9
$DIMSE2
 70
     0
  9
$DIMTAD
 70
     1
  9
$DIMZIN
 70
     8
  9
$DIMBLK
  1

  9
$DIMASO
 70
     1
  9
$DIMSHO
 70
     1
  9
$DIMPOST
  1

  9
$DIMAPOST
  1

  9
$DIMALT
 70
     0
  9
$DIMALTD
 70
     4
  9
$DIMALTF
 40
0.0394
  9
$DIMLFAC
 40
1.0
  9
$DIMTOFL
 70
     1
  9
$DIMTVP
 40
0.0
  9
$DIMTIX
 70
     0
  9
$DIMSOXD
 70
     0
  9
$DIMSAH
 70
     0
  9
$DIMBLK1
  1

  9
$DIMBLK2
  1

  9
$DIMSTYLE
  2
STANDARD
  9
$DIMCLRD
 70
     0
  9
$DIMCLRE
 70
     0
  9
$DIMCLRT
 70
     0
  9
$DIMTFAC
 40
1.0
  9
$DIMGAP
 40
0.625
  9
$LUNITS
 70
     2
  9
$LUPREC
 70
     4
  9
$SKETCHINC
 40
1.0
  9
$FILLETRAD
 40
1.0
  9
$AUNITS
 70
     0
  9
$AUPREC
 70
     0
  9
$MENU
  1
.
  9
$ELEVATION
 40
0.0
  9
$PELEVATION
 40
0.0
  9
$THICKNESS
 40
0.0
  9
$LIMCHECK
 70
     0
  9
$BLIPMODE
 70
     0
  9
$CHAMFERA
 40
10.0
  9
$CHAMFERB
 40
10.0
  9
$SKPOLY
 70
     0
  9
$TDCREATE
 40
2452126.530473
  9
$TDUPDATE
 40
2452126.620537
  9
$TDINDWG
 40
0.078396
  9
$TDUSRTIMER
 40
0.078396
  9
$USRTIMER
 70
     1
  9
$ANGBASE
 50
0.0
  9
$ANGDIR
 70
     0
  9
$PDMODE
 70
     0
  9
$PDSIZE
 40
0.0
  9
$PLINEWID
 40
0.0
  9
$COORDS
 70
     2
  9
$SPLFRAME
 70
     0
  9
$SPLINETYPE
 70
     6
  9
$SPLINESEGS
 70
     8
  9
$ATTDIA
 70
     0
  9
$ATTREQ
 70
     1
  9
$HANDLING
 70
     1
  9
$HANDSEED
  5
521
  9
$SURFTAB1
 70
     6
  9
$SURFTAB2
 70
     6
  9
$SURFTYPE
 70
     6
  9
$SURFU
 70
     6
  9
$SURFV
 70
     6
  9
$UCSNAME
  2

  9
$UCSORG
 10
0.0
 20
0.0
 30
0.0
  9
$UCSXDIR
 10
1.0
 20
0.0
 30
0.0
  9
$UCSYDIR
 10
0.0
 20
1.0
 30
0.0
  9
$PUCSNAME
  2

  9
$PUCSORG
 10
0.0
 20
0.0
 30
0.0
  9
$PUCSXDIR
 10
1.0
 20
0.0
 30
0.0
  9
$PUCSYDIR
 10
0.0
 20
1.0
 30
0.0
  9
$USERI1
 70
     0
  9
$USERI2
 70
     0
  9
$USERI3
 70
     0
  9
$USERI4
 70
     0
  9
$USERI5
 70
     0
  9
$USERR1
 40
0.0
  9
$USERR2
 40
0.0
  9
$USERR3
 40
0.0
  9
$USERR4
 40
0.0
  9
$USERR5
 40
0.0
  9
$WORLDVIEW
 70
     1
  9
$SHADEDGE
 70
     3
  9
$SHADEDIF
 70
    70
  9
$TILEMODE
 70
     1
  9
$MAXACTVP
 70
    48
  9
$PLIMCHECK
 70
     0
  9
$PEXTMIN
 10
1.000000E+020
 20
1.000000E+020
 30
1.000000E+020
  9
$PEXTMAX
 10
-1.000000E+020
 20
-1.000000E+020
 30
-1.000000E+020
  9
$PLIMMIN
 10
0.0
 20
0.0
  9
$PLIMMAX
 10
420.0
 20
297.0
  9
$UNITMODE
 70
     0
  9
$VISRETAIN
 70
     1
  9
$PLINEGEN
 70
     0
  9
$PSLTSCALE
 70
     1
  0
ENDSEC
  0
SECTION
  2
TABLES
  0
TABLE
  2
VPORT
 70
     2
  0
VPORT
  2
*ACTIVE
 70
     0
 10
0.0
 20
0.0
 11
1.0
 21
1.0
 12
97.374571
 22
74.937083
 13
0.0
 23
0.0
 14
0.5
 24
0.5
 15
1.0
 25
1.0
 16
0.0
 26
0.0
 36
1.0
 17
0.0
 27
0.0
 37
0.0
 40
156.66443
 41
1.353571
 42
50.0
 43
0.0
 44
0.0
 50
0.0
 51
0.0
 71
     0
 72
   100
 73
     1
 74
     1
 75
     1
 76
     1
 77
     0
 78
     0
  0
ENDTAB
  0
TABLE
  2
LTYPE
 70
     3
  0
LTYPE
  2
CONTINUOUS
 70
     0
  3
Solid line
 72
    65
 73
     0
 40
0.0
  0
LTYPE
  2
CENTER
 70
     0
  3
____ _ ____ _ ____ _ ____ _ ____ _ ____ _ ____
 72
    65
 73
     4
 40
2.0
 49
1.25
 49
-0.25
 49
0.25
 49
-0.25
  0
LTYPE
  2
HIDDEN2
 70
     0
  3
Hidden (.5x) _ _ _ _ _ _ _ _ _ _ _ _ _ _ _ _ _
 72
    65
 73
     2
 40
4.7625
 49
3.175
 49
-1.5875
  0
ENDTAB
  0
TABLE
  2
LAYER
 70
     3
  0
LAYER
  2
0
 70
     0
 62
     7
  6
CONTINUOUS
  0
LAYER
  2
1
 70
     0
 62
     1
  6
CENTER
  0
LAYER
  2
2
 70
     0
 62
     2
  6
HIDDEN2
  0
ENDTAB
  0
TABLE
  2
STYLE
 70
     3
  0
STYLE
  2
STANDARD
 70
     0
 40
0.0
 41
1.0
 50
0.0
 71
     0
 42
2.5
  3
txt
  4

  0
STYLE
  2
BIGFONT
 70
     0
 40
10.0
 41
0.8
 50
0.0
 71
     0
 42
10.0
  3
txt.shx
  4
bigfont
  0
STYLE
  2

 70
     1
 40
0.0
 41
1.0
 50
0.0
 71
     0
 42
2.5
  3
ltypeshp.shx
  4

  0
ENDTAB
  0
TABLE
  2
VIEW
 70
     0
  0
ENDTAB
  0
TABLE
  2
UCS
 70
     0
  0
ENDTAB
  0
TABLE
  2
APPID
 70
     1
  0
APPID
  2
ACAD
 70
     0
  0
ENDTAB
  0
TABLE
  2
DIMSTYLE
 70
     1
  0
DIMSTYLE
  2
STANDARD
 70
     0
  3

  4

  5

  6

  7

 40
1.0
 41
0.18
 42
0.0625
 43
0.38
 44
0.18
 45
0.0
 46
0.0
 47
0.0
 48
0.0
140
0.18
141
0.09
142
0.0
143
25.4
144
1.0
145
0.0
146
1.0
147
0.09
 71
     0
 72
     0
 73
     1
 74
     1
 75
     0
 76
     0
 77
     0
 78
     0
170
     0
171
     2
172
     0
173
     0
174
     0
175
     0
176
     0
177
     0
178
     0
  0
ENDTAB
  0
ENDSEC
  0
SECTION
  2
BLOCKS
  0
BLOCK
  8
0
  2
$MODEL_SPACE
 70
     0
 10
0.0
 20
0.0
 30
0.0
  3
$MODEL_SPACE
  1

  0
ENDBLK
  5
1A
  8
0
  0
BLOCK
 67
     1
  8
0
  2
$PAPER_SPACE
 70
     0
 10
0.0
 20
0.0
 30
0.0
  3
$PAPER_SPACE
  1

  0
ENDBLK
  5
17
 67
     1
  8
0
  0
BLOCK
  8
0
  2
A$C00836C8E
 70
     0
 10
0.0
 20
0.0
 30
0.0
  3
A$C00836C8E
  1

  0
ARC
  5
24
  8
0
 10
81.5
 20
18.004234
 30
0.0
 40
1.0
 50
180.0
 51
285.042801
  0
LINE
  5
25
  8
0
 10
81.239334
 20
35.69962
 30
0.0
 11
129.239334
 21
48.65962
 31
0.0
  0
LINE
  5
26
  8
1
 10
8.0
 20
50.5
 30
0.0
 11
8.0
 21
0.0
 31
0.0
  0
LINE
  5
27
  8
0
 10
2.0
 20
13.5
 30
0.0
 11
2.0
 21
17.267081
 31
0.0
  0
LINE
  5
28
  8
0
 10
14.0
 20
13.5
 30
0.0
 11
14.0
 21
17.267081
 31
0.0
  0
LINE
  5
29
  8
0
 10
8.0
 20
13.5
 30
0.0
 11
2.0
 21
13.5
 31
0.0
  0
LINE
  5
2A
  8
0
 10
9.5
 20
3.5
 30
0.0
 11
9.5
 21
12.5
 31
0.0
  0
LINE
  5
2B
  8
0
 10
10.0
 20
13.5
 30
0.0
 11
10.0
 21
4.0
 31
0.0
  0
LINE
  5
2C
  8
0
 10
6.0
 20
13.5
 30
0.0
 11
6.0
 21
4.0
 31
0.0
  0
LINE
  5
2D
  8
0
 10
6.5
 20
3.5
 30
0.0
 11
6.5
 21
12.5
 31
0.0
  0
LINE
  5
2E
  8
0
 10
6.5
 20
3.5
 30
0.0
 11
8.0
 21
3.5
 31
0.0
  0
LINE
  5
2F
  8
0
 10
6.0
 20
4.0
 30
0.0
 11
8.0
 21
4.0
 31
0.0
  0
LINE
  5
30
  8
0
 10
6.0
 20
4.0
 30
0.0
 11
6.5
 21
3.5
 31
0.0
  0
LINE
  5
31
  8
0
 10
10.0
 20
4.0
 30
0.0
 11
8.0
 21
4.0
 31
0.0
  0
LINE
  5
32
  8
0
 10
9.5
 20
3.5
 30
0.0
 11
8.0
 21
3.5
 31
0.0
  0
LINE
  5
33
  8
0
 10
10.0
 20
4.0
 30
0.0
 11
9.5
 21
3.5
 31
0.0
  0
LINE
  5
34
  8
0
 10
8.0
 20
13.5
 30
0.0
 11
14.0
 21
13.5
 31
0.0
  0
LINE
  5
35
  8
0
 10
6.0
 20
12.5
 30
0.0
 11
8.0
 21
12.5
 31
0.0
  0
LINE
  5
36
  8
0
 10
10.0
 20
12.5
 30
0.0
 11
8.0
 21
12.5
 31
0.0
  0
LINE
  5
37
  8
0
 10
16.0
 20
18.5
 30
0.0
 11
16.0
 21
37.5
 31
0.0
  0
LINE
  5
38
  8
0
 10
0.0
 20
18.5
 30
0.0
 11
0.0
 21
37.5
 31
0.0
  0
POLYLINE
  5
39
  8
0
 10
0.267585
 20
38.012942
 30
0.0
 66
     1
 70
     8
  0
VERTEX
  8
0
  5
297
 10
0.267585
 20
38.0129
 30
0.000000
  70
    32
  0
VERTEX
  8
0
  5
298
 10
0.212081
 20
37.9575
 30
0.000000
  70
    32
  0
VERTEX
  8
0
  5
299
 10
0.162945
 20
37.9016
 30
0.000000
  70
    32
  0
VERTEX
  8
0
  5
29A
 10
0.120218
 20
37.8454
 30
0.000000
  70
    32
  0
VERTEX
  8
0
  5
29B
 10
0.0839342
 20
37.7890
 30
0.000000
  70
    32
  0
VERTEX
  8
0
  5
29C
 10
0.0541232
 20
37.7323
 30
0.000000
  70
    32
  0
VERTEX
  8
0
  5
29D
 10
0.0308095
 20
37.6754
 30
0.000000
  70
    32
  0
VERTEX
  8
0
  5
29E
 10
0.0140121
 20
37.6183
 30
0.000000
  70
    32
  0
VERTEX
  8
0
  5
29F
 10
0.00374481
 20
37.5612
 30
0.000000
  70
    32
  0
VERTEX
  8
0
  5
2A0
 10
1.60367e-005
 20
37.5040
 30
0.000000
  70
    32
  0
VERTEX
  8
0
  5
2A1
 10
0.00282881
 20
37.4468
 30
0.000000
  70
    32
  0
VERTEX
  8
0
  5
2A2
 10
0.0121808
 20
37.3897
 30
0.000000
  70
    32
  0
VERTEX
  8
0
  5
2A3
 10
0.0280644
 20
37.3326
 30
0.000000
  70
    32
  0
VERTEX
  8
0
  5
2A4
 10
0.0504667
 20
37.2757
 30
0.000000
  70
    32
  0
VERTEX
  8
0
  5
2A5
 10
0.0793692
 20
37.2190
 30
0.000000
  70
    32
  0
VERTEX
  8
0
  5
2A6
 10
0.114748
 20
37.1625
 30
0.000000
  70
    32
  0
VERTEX
  8
0
  5
2A7
 10
0.156575
 20
37.1062
 30
0.000000
  70
    32
  0
VERTEX
  8
0
  5
2A8
 10
0.204816
 20
37.0503
 30
0.000000
  70
    32
  0
VERTEX
  8
0
  5
2A9
 10
0.259430
 20
36.9948
 30
0.000000
  70
    32
  0
VERTEX
  8
0
  5
2AA
 10
0.320374
 20
36.9397
 30
0.000000
  70
    32
  0
VERTEX
  8
0
  5
2AB
 10
0.387598
 20
36.8850
 30
0.000000
  70
    32
  0
VERTEX
  8
0
  5
2AC
 10
0.461046
 20
36.8309
 30
0.000000
  70
    32
  0
VERTEX
  8
0
  5
2AD
 10
0.540659
 20
36.7772
 30
0.000000
  70
    32
  0
VERTEX
  8
0
  5
2AE
 10
0.626371
 20
36.7242
 30
0.000000
  70
    32
  0
VERTEX
  8
0
  5
2AF
 10
0.718112
 20
36.6718
 30
0.000000
  70
    32
  0
VERTEX
  8
0
  5
2B0
 10
0.815808
 20
36.6201
 30
0.000000
  70
    32
  0
VERTEX
  8
0
  5
2B1
 10
0.919379
 20
36.5691
 30
0.000000
  70
    32
  0
VERTEX
  8
0
  5
2B2
 10
1.02874
 20
36.5189
 30
0.000000
  70
    32
  0
VERTEX
  8
0
  5
2B3
 10
1.14380
 20
36.4695
 30
0.000000
  70
    32
  0
VERTEX
  8
0
  5
2B4
 10
1.26447
 20
36.4209
 30
0.000000
  70
    32
  0
VERTEX
  8
0
  5
2B5
 10
1.39064
 20
36.3732
 30
0.000000
  70
    32
  0
VERTEX
  8
0
  5
2B6
 10
1.52222
 20
36.3264
 30
0.000000
  70
    32
  0
VERTEX
  8
0
  5
2B7
 10
1.65910
 20
36.2806
 30
0.000000
  70
    32
  0
VERTEX
  8
0
  5
2B8
 10
1.80116
 20
36.2357
 30
0.000000
  70
    32
  0
VERTEX
  8
0
  5
2B9
 10
1.94829
 20
36.1919
 30
0.000000
  70
    32
  0
VERTEX
  8
0
  5
2BA
 10
2.10036
 20
36.1492
 30
0.000000
  70
    32
  0
VERTEX
  8
0
  5
2BB
 10
2.25727
 20
36.1076
 30
0.000000
  70
    32
  0
VERTEX
  8
0
  5
2BC
 10
2.41886
 20
36.0671
 30
0.000000
  70
    32
  0
VERTEX
  8
0
  5
2BD
 10
2.58502
 20
36.0278
 30
0.000000
  70
    32
  0
VERTEX
  8
0
  5
2BE
 10
2.75561
 20
35.9897
 30
0.000000
  70
    32
  0
VERTEX
  8
0
  5
2BF
 10
2.93049
 20
35.9528
 30
0.000000
  70
    32
  0
VERTEX
  8
0
  5
2C0
 10
3.10951
 20
35.9172
 30
0.000000
  70
    32
  0
VERTEX
  8
0
  5
2C1
 10
3.29254
 20
35.8829
 30
0.000000
  70
    32
  0
VERTEX
  8
0
  5
2C2
 10
3.47941
 20
35.8499
 30
0.000000
  70
    32
  0
VERTEX
  8
0
  5
2C3
 10
3.66997
 20
35.8183
 30
0.000000
  70
    32
  0
VERTEX
  8
0
  5
2C4
 10
3.86408
 20
35.7880
 30
0.000000
  70
    32
  0
VERTEX
  8
0
  5
2C5
 10
4.06157
 20
35.7592
 30
0.000000
  70
    32
  0
VERTEX
  8
0
  5
2C6
 10
4.26228
 20
35.7317
 30
0.000000
  70
    32
  0
VERTEX
  8
0
  5
2C7
 10
4.46605
 20
35.7057
 30
0.000000
  70
    32
  0
VERTEX
  8
0
  5
2C8
 10
4.67271
 20
35.6812
 30
0.000000
  70
    32
  0
VERTEX
  8
0
  5
2C9
 10
4.88208
 20
35.6581
 30
0.000000
  70
    32
  0
VERTEX
  8
0
  5
2CA
 10
5.09401
 20
35.6366
 30
0.000000
  70
    32
  0
VERTEX
  8
0
  5
2CB
 10
5.30831
 20
35.6166
 30
0.000000
  70
    32
  0
VERTEX
  8
0
  5
2CC
 10
5.52482
 20
35.5981
 30
0.000000
  70
    32
  0
VERTEX
  8
0
  5
2CD
 10
5.74335
 20
35.5812
 30
0.000000
  70
    32
  0
VERTEX
  8
0
  5
2CE
 10
5.96372
 20
35.5659
 30
0.000000
  70
    32
  0
VERTEX
  8
0
  5
2CF
 10
6.18576
 20
35.5521
 30
0.000000
  70
    32
  0
VERTEX
  8
0
  5
2D0
 10
6.40928
 20
35.5399
 30
0.000000
  70
    32
  0
VERTEX
  8
0
  5
2D1
 10
6.63410
 20
35.5294
 30
0.000000
  70
    32
  0
VERTEX
  8
0
  5
2D2
 10
6.86004
 20
35.5204
 30
0.000000
  70
    32
  0
VERTEX
  8
0
  5
2D3
 10
7.08691
 20
35.5131
 30
0.000000
  70
    32
  0
VERTEX
  8
0
  5
2D4
 10
7.31453
 20
35.5074
 30
0.000000
  70
    32
  0
VERTEX
  8
0
  5
2D5
 10
7.54271
 20
35.5033
 30
0.000000
  70
    32
  0
VERTEX
  8
0
  5
2D6
 10
7.77126
 20
35.5008
 30
0.000000
  70
    32
  0
VERTEX
  8
0
  5
2D7
 10
8.00000
 20
35.5000
 30
0.000000
  70
    32
  0
VERTEX
  8
0
  5
2D8
 10
8.22874
 20
35.5008
 30
0.000000
  70
    32
  0
VERTEX
  8
0
  5
2D9
 10
8.45729
 20
35.5033
 30
0.000000
  70
    32
  0
VERTEX
  8
0
  5
2DA
 10
8.68547
 20
35.5074
 30
0.000000
  70
    32
  0
VERTEX
  8
0
  5
2DB
 10
8.91309
 20
35.5131
 30
0.000000
  70
    32
  0
VERTEX
  8
0
  5
2DC
 10
9.13996
 20
35.5204
 30
0.000000
  70
    32
  0
VERTEX
  8
0
  5
2DD
 10
9.36590
 20
35.5294
 30
0.000000
  70
    32
  0
VERTEX
  8
0
  5
2DE
 10
9.59072
 20
35.5399
 30
0.000000
  70
    32
  0
VERTEX
  8
0
  5
2DF
 10
9.81424
 20
35.5521
 30
0.000000
  70
    32
  0
VERTEX
  8
0
  5
2E0
 10
10.0363
 20
35.5659
 30
0.000000
  70
    32
  0
VERTEX
  8
0
  5
2E1
 10
10.2567
 20
35.5812
 30
0.000000
  70
    32
  0
VERTEX
  8
0
  5
2E2
 10
10.4752
 20
35.5981
 30
0.000000
  70
    32
  0
VERTEX
  8
0
  5
2E3
 10
10.6917
 20
35.6166
 30
0.000000
  70
    32
  0
VERTEX
  8
0
  5
2E4
 10
10.9060
 20
35.6366
 30
0.000000
  70
    32
  0
VERTEX
  8
0
  5
2E5
 10
11.1179
 20
35.6581
 30
0.000000
  70
    32
  0
VERTEX
  8
0
  5
2E6
 10
11.3273
 20
35.6812
 30
0.000000
  70
    32
  0
VERTEX
  8
0
  5
2E7
 10
11.5339
 20
35.7057
 30
0.000000
  70
    32
  0
VERTEX
  8
0
  5
2E8
 10
11.7377
 20
35.7317
 30
0.000000
  70
    32
  0
VERTEX
  8
0
  5
2E9
 10
11.9384
 20
35.7592
 30
0.000000
  70
    32
  0
VERTEX
  8
0
  5
2EA
 10
12.1359
 20
35.7880
 30
0.000000
  70
    32
  0
VERTEX
  8
0
  5
2EB
 10
12.3300
 20
35.8183
 30
0.000000
  70
    32
  0
VERTEX
  8
0
  5
2EC
 10
12.5206
 20
35.8499
 30
0.000000
  70
    32
  0
VERTEX
  8
0
  5
2ED
 10
12.7075
 20
35.8829
 30
0.000000
  70
    32
  0
VERTEX
  8
0
  5
2EE
 10
12.8905
 20
35.9172
 30
0.000000
  70
    32
  0
VERTEX
  8
0
  5
2EF
 10
13.0695
 20
35.9528
 30
0.000000
  70
    32
  0
VERTEX
  8
0
  5
2F0
 10
13.2444
 20
35.9897
 30
0.000000
  70
    32
  0
VERTEX
  8
0
  5
2F1
 10
13.4150
 20
36.0278
 30
0.000000
  70
    32
  0
VERTEX
  8
0
  5
2F2
 10
13.5811
 20
36.0671
 30
0.000000
  70
    32
  0
VERTEX
  8
0
  5
2F3
 10
13.7427
 20
36.1076
 30
0.000000
  70
    32
  0
VERTEX
  8
0
  5
2F4
 10
13.8996
 20
36.1492
 30
0.000000
  70
    32
  0
VERTEX
  8
0
  5
2F5
 10
14.0517
 20
36.1919
 30
0.000000
  70
    32
  0
VERTEX
  8
0
  5
2F6
 10
14.1988
 20
36.2357
 30
0.000000
  70
    32
  0
VERTEX
  8
0
  5
2F7
 10
14.3409
 20
36.2806
 30
0.000000
  70
    32
  0
VERTEX
  8
0
  5
2F8
 10
14.4778
 20
36.3264
 30
0.000000
  70
    32
  0
VERTEX
  8
0
  5
2F9
 10
14.6094
 20
36.3732
 30
0.000000
  70
    32
  0
VERTEX
  8
0
  5
2FA
 10
14.7355
 20
36.4209
 30
0.000000
  70
    32
  0
VERTEX
  8
0
  5
2FB
 10
14.8562
 20
36.4695
 30
0.000000
  70
    32
  0
VERTEX
  8
0
  5
2FC
 10
14.9713
 20
36.5189
 30
0.000000
  70
    32
  0
VERTEX
  8
0
  5
2FD
 10
15.0806
 20
36.5691
 30
0.000000
  70
    32
  0
VERTEX
  8
0
  5
2FE
 10
15.1842
 20
36.6201
 30
0.000000
  70
    32
  0
VERTEX
  8
0
  5
2FF
 10
15.2819
 20
36.6718
 30
0.000000
  70
    32
  0
VERTEX
  8
0
  5
300
 10
15.3736
 20
36.7242
 30
0.000000
  70
    32
  0
VERTEX
  8
0
  5
301
 10
15.4593
 20
36.7772
 30
0.000000
  70
    32
  0
VERTEX
  8
0
  5
302
 10
15.5390
 20
36.8309
 30
0.000000
  70
    32
  0
VERTEX
  8
0
  5
303
 10
15.6124
 20
36.8850
 30
0.000000
  70
    32
  0
VERTEX
  8
0
  5
304
 10
15.6796
 20
36.9397
 30
0.000000
  70
    32
  0
VERTEX
  8
0
  5
305
 10
15.7406
 20
36.9948
 30
0.000000
  70
    32
  0
VERTEX
  8
0
  5
306
 10
15.7952
 20
37.0503
 30
0.000000
  70
    32
  0
VERTEX
  8
0
  5
307
 10
15.8434
 20
37.1062
 30
0.000000
  70
    32
  0
VERTEX
  8
0
  5
308
 10
15.8853
 20
37.1625
 30
0.000000
  70
    32
  0
VERTEX
  8
0
  5
309
 10
15.9206
 20
37.2190
 30
0.000000
  70
    32
  0
VERTEX
  8
0
  5
30A
 10
15.9495
 20
37.2757
 30
0.000000
  70
    32
  0
VERTEX
  8
0
  5
30B
 10
15.9719
 20
37.3326
 30
0.000000
  70
    32
  0
VERTEX
  8
0
  5
30C
 10
15.9878
 20
37.3897
 30
0.000000
  70
    32
  0
VERTEX
  8
0
  5
30D
 10
15.9972
 20
37.4468
 30
0.000000
  70
    32
  0
VERTEX
  8
0
  5
30E
 10
16.0000
 20
37.5040
 30
0.000000
  70
    32
  0
VERTEX
  8
0
  5
30F
 10
15.9963
 20
37.5612
 30
0.000000
  70
    32
  0
VERTEX
  8
0
  5
310
 10
15.9860
 20
37.6183
 30
0.000000
  70
    32
  0
VERTEX
  8
0
  5
311
 10
15.9692
 20
37.6754
 30
0.000000
  70
    32
  0
VERTEX
  8
0
  5
312
 10
15.9459
 20
37.7323
 30
0.000000
  70
    32
  0
VERTEX
  8
0
  5
313
 10
15.9161
 20
37.7890
 30
0.000000
  70
    32
  0
VERTEX
  8
0
  5
314
 10
15.8798
 20
37.8454
 30
0.000000
  70
    32
  0
VERTEX
  8
0
  5
315
 10
15.8371
 20
37.9016
 30
0.000000
  70
    32
  0
VERTEX
  8
0
  5
316
 10
15.7879
 20
37.9575
 30
0.000000
  70
    32
  0
VERTEX
  8
0
  5
317
 10
15.7324
 20
38.0129
 30
0.000000
  70
    32
  0
SEQEND
  8
0
  5
318
  0
ARC
  5
3A
  8
0
 10
8.0
 20
45.0
 30
0.0
 40
8.5
 50
241.927513
 51
298.072487
  0
POLYLINE
  5
3B
  8
0
 10
0.0
 20
18.5
 30
0.0
 66
     1
 70
     8
  0
VERTEX
  8
0
  5
319
 10
0.000000
 20
18.5000
 30
0.000000
  70
    32
  0
VERTEX
  8
0
  5
31A
 10
0.00240945
 20
18.4543
 30
0.000000
  70
    32
  0
VERTEX
  8
0
  5
31B
 10
0.00963635
 20
18.4085
 30
0.000000
  70
    32
  0
VERTEX
  8
0
  5
31C
 10
0.0216763
 20
18.3629
 30
0.000000
  70
    32
  0
VERTEX
  8
0
  5
31D
 10
0.0385222
 20
18.3173
 30
0.000000
  70
    32
  0
VERTEX
  8
0
  5
31E
 10
0.0601637
 20
18.2718
 30
0.000000
  70
    32
  0
VERTEX
  8
0
  5
31F
 10
0.0865879
 20
18.2265
 30
0.000000
  70
    32
  0
VERTEX
  8
0
  5
320
 10
0.117779
 20
18.1813
 30
0.000000
  70
    32
  0
VERTEX
  8
0
  5
321
 10
0.153718
 20
18.1364
 30
0.000000
  70
    32
  0
VERTEX
  8
0
  5
322
 10
0.194383
 20
18.0916
 30
0.000000
  70
    32
  0
VERTEX
  8
0
  5
323
 10
0.239750
 20
18.0471
 30
0.000000
  70
    32
  0
VERTEX
  8
0
  5
324
 10
0.289791
 20
18.0028
 30
0.000000
  70
    32
  0
VERTEX
  8
0
  5
325
 10
0.344477
 20
17.9589
 30
0.000000
  70
    32
  0
VERTEX
  8
0
  5
326
 10
0.403775
 20
17.9153
 30
0.000000
  70
    32
  0
VERTEX
  8
0
  5
327
 10
0.467647
 20
17.8720
 30
0.000000
  70
    32
  0
VERTEX
  8
0
  5
328
 10
0.536058
 20
17.8292
 30
0.000000
  70
    32
  0
VERTEX
  8
0
  5
329
 10
0.608964
 20
17.7867
 30
0.000000
  70
    32
  0
VERTEX
  8
0
  5
32A
 10
0.686322
 20
17.7446
 30
0.000000
  70
    32
  0
VERTEX
  8
0
  5
32B
 10
0.768086
 20
17.7030
 30
0.000000
  70
    32
  0
VERTEX
  8
0
  5
32C
 10
0.854206
 20
17.6619
 30
0.000000
  70
    32
  0
VERTEX
  8
0
  5
32D
 10
0.944630
 20
17.6213
 30
0.000000
  70
    32
  0
VERTEX
  8
0
  5
32E
 10
1.03930
 20
17.5812
 30
0.000000
  70
    32
  0
VERTEX
  8
0
  5
32F
 10
1.13817
 20
17.5417
 30
0.000000
  70
    32
  0
VERTEX
  8
0
  5
330
 10
1.24117
 20
17.5028
 30
0.000000
  70
    32
  0
VERTEX
  8
0
  5
331
 10
1.34824
 20
17.4644
 30
0.000000
  70
    32
  0
VERTEX
  8
0
  5
332
 10
1.45932
 20
17.4267
 30
0.000000
  70
    32
  0
VERTEX
  8
0
  5
333
 10
1.57434
 20
17.3896
 30
0.000000
  70
    32
  0
VERTEX
  8
0
  5
334
 10
1.69323
 20
17.3532
 30
0.000000
  70
    32
  0
VERTEX
  8
0
  5
335
 10
1.81592
 20
17.3175
 30
0.000000
  70
    32
  0
VERTEX
  8
0
  5
336
 10
1.94233
 20
17.2825
 30
0.000000
  70
    32
  0
VERTEX
  8
0
  5
337
 10
2.07239
 20
17.2482
 30
0.000000
  70
    32
  0
VERTEX
  8
0
  5
338
 10
2.20602
 20
17.2147
 30
0.000000
  70
    32
  0
VERTEX
  8
0
  5
339
 10
2.34315
 20
17.1820
 30
0.000000
  70
    32
  0
VERTEX
  8
0
  5
33A
 10
2.48368
 20
17.1500
 30
0.000000
  70
    32
  0
VERTEX
  8
0
  5
33B
 10
2.62753
 20
17.1189
 30
0.000000
  70
    32
  0
VERTEX
  8
0
  5
33C
 10
2.77462
 20
17.0886
 30
0.000000
  70
    32
  0
VERTEX
  8
0
  5
33D
 10
2.92485
 20
17.0591
 30
0.000000
  70
    32
  0
VERTEX
  8
0
  5
33E
 10
3.07815
 20
17.0305
 30
0.000000
  70
    32
  0
VERTEX
  8
0
  5
33F
 10
3.23441
 20
17.0028
 30
0.000000
  70
    32
  0
VERTEX
  8
0
  5
340
 10
3.39353
 20
16.9760
 30
0.000000
  70
    32
  0
VERTEX
  8
0
  5
341
 10
3.55544
 20
16.9501
 30
0.000000
  70
    32
  0
VERTEX
  8
0
  5
342
 10
3.72002
 20
16.9252
 30
0.000000
  70
    32
  0
VERTEX
  8
0
  5
343
 10
3.88718
 20
16.9012
 30
0.000000
  70
    32
  0
VERTEX
  8
0
  5
344
 10
4.05681
 20
16.8782
 30
0.000000
  70
    32
  0
VERTEX
  8
0
  5
345
 10
4.22883
 20
16.8561
 30
0.000000
  70
    32
  0
VERTEX
  8
0
  5
346
 10
4.40311
 20
16.8350
 30
0.000000
  70
    32
  0
VERTEX
  8
0
  5
347
 10
4.57956
 20
16.8150
 30
0.000000
  70
    32
  0
VERTEX
  8
0
  5
348
 10
4.75807
 20
16.7959
 30
0.000000
  70
    32
  0
VERTEX
  8
0
  5
349
 10
4.93853
 20
16.7779
 30
0.000000
  70
    32
  0
VERTEX
  8
0
  5
34A
 10
5.12084
 20
16.7609
 30
0.000000
  70
    32
  0
VERTEX
  8
0
  5
34B
 10
5.30488
 20
16.7450
 30
0.000000
  70
    32
  0
VERTEX
  8
0
  5
34C
 10
5.49055
 20
16.7301
 30
0.000000
  70
    32
  0
VERTEX
  8
0
  5
34D
 10
5.67772
 20
16.7163
 30
0.000000
  70
    32
  0
VERTEX
  8
0
  5
34E
 10
5.86630
 20
16.7035
 30
0.000000
  70
    32
  0
VERTEX
  8
0
  5
34F
 10
6.05616
 20
16.6919
 30
0.000000
  70
    32
  0
VERTEX
  8
0
  5
350
 10
6.24719
 20
16.6813
 30
0.000000
  70
    32
  0
VERTEX
  8
0
  5
351
 10
6.43928
 20
16.6718
 30
0.000000
  70
    32
  0
VERTEX
  8
0
  5
352
 10
6.63230
 20
16.6634
 30
0.000000
  70
    32
  0
VERTEX
  8
0
  5
353
 10
6.82616
 20
16.6562
 30
0.000000
  70
    32
  0
VERTEX
  8
0
  5
354
 10
7.02071
 20
16.6500
 30
0.000000
  70
    32
  0
VERTEX
  8
0
  5
355
 10
7.21586
 20
16.6450
 30
0.000000
  70
    32
  0
VERTEX
  8
0
  5
356
 10
7.41148
 20
16.6411
 30
0.000000
  70
    32
  0
VERTEX
  8
0
  5
357
 10
7.60746
 20
16.6382
 30
0.000000
  70
    32
  0
VERTEX
  8
0
  5
358
 10
7.80367
 20
16.6366
 30
0.000000
  70
    32
  0
VERTEX
  8
0
  5
359
 10
8.00000
 20
16.6360
 30
0.000000
  70
    32
  0
VERTEX
  8
0
  5
35A
 10
8.19633
 20
16.6366
 30
0.000000
  70
    32
  0
VERTEX
  8
0
  5
35B
 10
8.39254
 20
16.6382
 30
0.000000
  70
    32
  0
VERTEX
  8
0
  5
35C
 10
8.58852
 20
16.6411
 30
0.000000
  70
    32
  0
VERTEX
  8
0
  5
35D
 10
8.78414
 20
16.6450
 30
0.000000
  70
    32
  0
VERTEX
  8
0
  5
35E
 10
8.97929
 20
16.6500
 30
0.000000
  70
    32
  0
VERTEX
  8
0
  5
35F
 10
9.17384
 20
16.6562
 30
0.000000
  70
    32
  0
VERTEX
  8
0
  5
360
 10
9.36770
 20
16.6634
 30
0.000000
  70
    32
  0
VERTEX
  8
0
  5
361
 10
9.56072
 20
16.6718
 30
0.000000
  70
    32
  0
VERTEX
  8
0
  5
362
 10
9.75281
 20
16.6813
 30
0.000000
  70
    32
  0
VERTEX
  8
0
  5
363
 10
9.94384
 20
16.6919
 30
0.000000
  70
    32
  0
VERTEX
  8
0
  5
364
 10
10.1337
 20
16.7035
 30
0.000000
  70
    32
  0
VERTEX
  8
0
  5
365
 10
10.3223
 20
16.7163
 30
0.000000
  70
    32
  0
VERTEX
  8
0
  5
366
 10
10.5095
 20
16.7301
 30
0.000000
  70
    32
  0
VERTEX
  8
0
  5
367
 10
10.6951
 20
16.7450
 30
0.000000
  70
    32
  0
VERTEX
  8
0
  5
368
 10
10.8792
 20
16.7609
 30
0.000000
  70
    32
  0
VERTEX
  8
0
  5
369
 10
11.0615
 20
16.7779
 30
0.000000
  70
    32
  0
VERTEX
  8
0
  5
36A
 10
11.2419
 20
16.7959
 30
0.000000
  70
    32
  0
VERTEX
  8
0
  5
36B
 10
11.4204
 20
16.8150
 30
0.000000
  70
    32
  0
VERTEX
  8
0
  5
36C
 10
11.5969
 20
16.8350
 30
0.000000
  70
    32
  0
VERTEX
  8
0
  5
36D
 10
11.7712
 20
16.8561
 30
0.000000
  70
    32
  0
VERTEX
  8
0
  5
36E
 10
11.9432
 20
16.8782
 30
0.000000
  70
    32
  0
VERTEX
  8
0
  5
36F
 10
12.1128
 20
16.9012
 30
0.000000
  70
    32
  0
VERTEX
  8
0
  5
370
 10
12.2800
 20
16.9252
 30
0.000000
  70
    32
  0
VERTEX
  8
0
  5
371
 10
12.4446
 20
16.9501
 30
0.000000
  70
    32
  0
VERTEX
  8
0
  5
372
 10
12.6065
 20
16.9760
 30
0.000000
  70
    32
  0
VERTEX
  8
0
  5
373
 10
12.7656
 20
17.0028
 30
0.000000
  70
    32
  0
VERTEX
  8
0
  5
374
 10
12.9219
 20
17.0305
 30
0.000000
  70
    32
  0
VERTEX
  8
0
  5
375
 10
13.0751
 20
17.0591
 30
0.000000
  70
    32
  0
VERTEX
  8
0
  5
376
 10
13.2254
 20
17.0886
 30
0.000000
  70
    32
  0
VERTEX
  8
0
  5
377
 10
13.3725
 20
17.1189
 30
0.000000
  70
    32
  0
VERTEX
  8
0
  5
378
 10
13.5163
 20
17.1500
 30
0.000000
  70
    32
  0
VERTEX
  8
0
  5
379
 10
13.6569
 20
17.1820
 30
0.000000
  70
    32
  0
VERTEX
  8
0
  5
37A
 10
13.7940
 20
17.2147
 30
0.000000
  70
    32
  0
VERTEX
  8
0
  5
37B
 10
13.9276
 20
17.2482
 30
0.000000
  70
    32
  0
VERTEX
  8
0
  5
37C
 10
14.0577
 20
17.2825
 30
0.000000
  70
    32
  0
VERTEX
  8
0
  5
37D
 10
14.1841
 20
17.3175
 30
0.000000
  70
    32
  0
VERTEX
  8
0
  5
37E
 10
14.3068
 20
17.3532
 30
0.000000
  70
    32
  0
VERTEX
  8
0
  5
37F
 10
14.4257
 20
17.3896
 30
0.000000
  70
    32
  0
VERTEX
  8
0
  5
380
 10
14.5407
 20
17.4267
 30
0.000000
  70
    32
  0
VERTEX
  8
0
  5
381
 10
14.6518
 20
17.4644
 30
0.000000
  70
    32
  0
VERTEX
  8
0
  5
382
 10
14.7588
 20
17.5028
 30
0.000000
  70
    32
  0
VERTEX
  8
0
  5
383
 10
14.8618
 20
17.5417
 30
0.000000
  70
    32
  0
VERTEX
  8
0
  5
384
 10
14.9607
 20
17.5812
 30
0.000000
  70
    32
  0
VERTEX
  8
0
  5
385
 10
15.0554
 20
17.6213
 30
0.000000
  70
    32
  0
VERTEX
  8
0
  5
386
 10
15.1458
 20
17.6619
 30
0.000000
  70
    32
  0
VERTEX
  8
0
  5
387
 10
15.2319
 20
17.7030
 30
0.000000
  70
    32
  0
VERTEX
  8
0
  5
388
 10
15.3137
 20
17.7446
 30
0.000000
  70
    32
  0
VERTEX
  8
0
  5
389
 10
15.3910
 20
17.7867
 30
0.000000
  70
    32
  0
VERTEX
  8
0
  5
38A
 10
15.4639
 20
17.8292
 30
0.000000
  70
    32
  0
VERTEX
  8
0
  5
38B
 10
15.5324
 20
17.8720
 30
0.000000
  70
    32
  0
VERTEX
  8
0
  5
38C
 10
15.5962
 20
17.9153
 30
0.000000
  70
    32
  0
VERTEX
  8
0
  5
38D
 10
15.6555
 20
17.9589
 30
0.000000
  70
    32
  0
VERTEX
  8
0
  5
38E
 10
15.7102
 20
18.0028
 30
0.000000
  70
    32
  0
VERTEX
  8
0
  5
38F
 10
15.7603
 20
18.0471
 30
0.000000
  70
    32
  0
VERTEX
  8
0
  5
390
 10
15.8056
 20
18.0916
 30
0.000000
  70
    32
  0
VERTEX
  8
0
  5
391
 10
15.8463
 20
18.1364
 30
0.000000
  70
    32
  0
VERTEX
  8
0
  5
392
 10
15.8822
 20
18.1813
 30
0.000000
  70
    32
  0
VERTEX
  8
0
  5
393
 10
15.9134
 20
18.2265
 30
0.000000
  70
    32
  0
VERTEX
  8
0
  5
394
 10
15.9398
 20
18.2718
 30
0.000000
  70
    32
  0
VERTEX
  8
0
  5
395
 10
15.9615
 20
18.3173
 30
0.000000
  70
    32
  0
VERTEX
  8
0
  5
396
 10
15.9783
 20
18.3629
 30
0.000000
  70
    32
  0
VERTEX
  8
0
  5
397
 10
15.9904
 20
18.4085
 30
0.000000
  70
    32
  0
VERTEX
  8
0
  5
398
 10
15.9976
 20
18.4543
 30
0.000000
  70
    32
  0
VERTEX
  8
0
  5
399
 10
16.0000
 20
18.5000
 30
0.000000
  70
    32
  0
SEQEND
  8
0
  5
39A
  0
LINE
  5
3C
  8
0
 10
2.029365
 20
36.168846
 30
0.0
 11
2.0
 21
36.0
 31
0.0
  0
LINE
  5
3D
  8
0
 10
13.970635
 20
36.168846
 30
0.0
 11
14.0
 21
36.0
 31
0.0
  0
LINE
  5
3E
  8
0
 10
4.0
 20
47.5
 30
0.0
 11
2.514032
 21
38.955682
 31
0.0
  0
ARC
  5
3F
  8
0
 10
8.0
 20
42.916667
 30
0.0
 40
6.083333
 50
48.88791
 51
131.11209
  0
LINE
  5
40
  8
0
 10
8.0
 20
40.0
 30
0.0
 11
11.5
 21
40.0
 31
0.0
  0
LINE
  5
41
  8
0
 10
8.0
 20
40.0
 30
0.0
 11
4.5
 21
40.0
 31
0.0
  0
LINE
  5
42
  8
0
 10
4.0
 20
39.5
 30
0.0
 11
4.0
 21
37.5
 31
0.0
  0
ARC
  5
43
  8
0
 10
4.5
 20
39.5
 30
0.0
 40
0.5
 50
90.0
 51
180.0
  0
LINE
  5
44
  8
0
 10
12.0
 20
47.5
 30
0.0
 11
13.485968
 21
38.955682
 31
0.0
  0
LINE
  5
45
  8
0
 10
12.0
 20
39.5
 30
0.0
 11
12.0
 21
37.5
 31
0.0
  0
ARC
  5
46
  8
0
 10
11.5
 20
39.5
 30
0.0
 40
0.5
 50
0.0
 51
90.0
  0
LINE
  5
47
  8
0
 10
80.5
 20
34.734191
 30
0.0
 11
80.5
 21
18.004234
 31
0.0
  0
ARC
  5
48
  8
0
 10
81.5
 20
34.734191
 30
0.0
 40
1.0
 50
105.109575
 51
180.0
  0
LINE
  5
49
  8
0
 10
94.5
 20
13.5
 30
0.0
 11
94.5
 21
20.4625
 31
0.0
  0
LINE
  5
4A
  8
0
 10
82.5
 20
13.5
 30
0.0
 11
82.5
 21
17.2375
 31
0.0
  0
LINE
  5
4B
  8
1
 10
88.5
 20
43.0
 30
0.0
 11
88.5
 21
0.0
 31
0.0
  0
LINE
  5
4C
  8
0
 10
90.5
 20
13.5
 30
0.0
 11
90.5
 21
4.0
 31
0.0
  0
LINE
  5
4D
  8
0
 10
90.0
 20
3.5
 30
0.0
 11
90.0
 21
12.5
 31
0.0
  0
LINE
  5
4E
  8
0
 10
87.0
 20
3.5
 30
0.0
 11
87.0
 21
12.5
 31
0.0
  0
LINE
  5
4F
  8
0
 10
86.5
 20
13.5
 30
0.0
 11
86.5
 21
4.0
 31
0.0
  0
LINE
  5
50
  8
0
 10
90.5
 20
4.0
 30
0.0
 11
88.5
 21
4.0
 31
0.0
  0
LINE
  5
51
  8
0
 10
90.0
 20
3.5
 30
0.0
 11
88.5
 21
3.5
 31
0.0
  0
LINE
  5
52
  8
0
 10
87.0
 20
3.5
 30
0.0
 11
88.5
 21
3.5
 31
0.0
  0
LINE
  5
53
  8
0
 10
86.5
 20
4.0
 30
0.0
 11
88.5
 21
4.0
 31
0.0
  0
LINE
  5
54
  8
0
 10
86.5
 20
4.0
 30
0.0
 11
87.0
 21
3.5
 31
0.0
  0
LINE
  5
55
  8
0
 10
90.5
 20
4.0
 30
0.0
 11
90.0
 21
3.5
 31
0.0
  0
LINE
  5
56
  8
0
 10
88.5
 20
13.5
 30
0.0
 11
94.5
 21
13.5
 31
0.0
  0
LINE
  5
57
  8
0
 10
90.5
 20
12.5
 30
0.0
 11
88.5
 21
12.5
 31
0.0
  0
LINE
  5
58
  8
0
 10
88.5
 20
13.5
 30
0.0
 11
82.5
 21
13.5
 31
0.0
  0
LINE
  5
59
  8
0
 10
86.5
 20
12.5
 30
0.0
 11
88.5
 21
12.5
 31
0.0
  0
LINE
  5
5A
  8
0
 10
118.0
 20
37.0
 30
0.0
 11
94.5
 21
30.0
 31
0.0
  0
LINE
  5
5B
  8
0
 10
94.5
 20
30.0
 30
0.0
 11
94.5
 21
39.28
 31
0.0
  0
LINE
  5
5C
  8
0
 10
84.5
 20
36.58
 30
0.0
 11
84.5
 21
39.5
 31
0.0
  0
LINE
  5
5D
  8
0
 10
96.5
 20
21.766734
 30
0.0
 11
96.5
 21
30.595745
 31
0.0
  0
LINE
  5
5E
  8
0
 10
95.759541
 20
20.801001
 30
0.0
 11
81.759541
 21
17.038501
 31
0.0
  0
ARC
  5
5F
  8
0
 10
95.5
 20
21.766734
 30
0.0
 40
1.0
 50
285.042801
 51
0.0
  0
LINE
  5
60
  8
0
 10
85.0
 20
40.0
 30
0.0
 11
92.0
 21
40.0
 31
0.0
  0
ARC
  5
61
  8
0
 10
85.0
 20
39.5
 30
0.0
 40
0.5
 50
90.0
 51
180.0
  0
ARC
  5
62
  8
0
 10
92.0
 20
39.5
 30
0.0
 40
0.5
 50
0.0
 51
90.0
  0
LINE
  5
63
  8
0
 10
92.5
 20
39.5
 30
0.0
 11
92.5
 21
38.74
 31
0.0
  0
LINE
  5
64
  8
0
 10
129.752422
 20
38.80498
 30
0.0
 11
119.554394
 21
36.144624
 31
0.0
  0
ARC
  5
65
  8
0
 10
119.301972
 20
37.112242
 30
0.0
 40
1.0
 50
225.0
 51
284.620874
  0
LINE
  5
66
  8
0
 10
118.594865
 20
36.405135
 30
0.0
 11
118.0
 21
37.0
 31
0.0
  0
ARC
  5
67
  8
0
 10
129.5
 20
47.694191
 30
0.0
 40
1.0
 50
0.0
 51
105.109575
  0
LINE
  5
68
  8
0
 10
130.5
 20
47.694191
 30
0.0
 11
130.5
 21
39.772597
 31
0.0
  0
ARC
  5
69
  8
0
 10
129.5
 20
39.772597
 30
0.0
 40
1.0
 50
284.620874
 51
0.0
  0
ENDBLK
  5
6B
  8
0
  0
ENDSEC
  0
SECTION
  2
ENTITIES
  0
LINE
  5
22C
  8
1
 10
32.0
 20
132.0
 30
0.0
 11
32.0
 21
38.0
 31
0.0
  0
LINE
  5
22D
  8
0
 10
32.0
 20
66.5
 30
0.0
 11
22.5
 21
66.5
 31
0.0
  0
LINE
  5
22E
  8
0
 10
22.5
 20
66.5
 30
0.0
 11
22.5
 21
76.550231
 31
0.0
  0
LINE
  5
22F
  8
0
 10
41.5
 20
66.5
 30
0.0
 11
41.5
 21
76.550231
 31
0.0
  0
LINE
  5
230
  8
0
 10
32.0
 20
66.5
 30
0.0
 11
41.5
 21
66.5
 31
0.0
  0
LINE
  5
231
  8
0
 10
26.0
 20
66.5
 30
0.0
 11
26.0
 21
42.5
 31
0.0
  0
LINE
  5
232
  8
0
 10
26.0
 20
42.5
 30
0.0
 11
32.0
 21
42.5
 31
0.0
  0
LINE
  5
233
  8
0
 10
32.0
 20
41.5
 30
0.0
 11
27.0
 21
41.5
 31
0.0
  0
LINE
  5
234
  8
0
 10
27.0
 20
41.5
 30
0.0
 11
26.0
 21
42.5
 31
0.0
  0
LINE
  5
235
  8
0
 10
26.0
 20
65.0
 30
0.0
 11
32.0
 21
65.0
 31
0.0
  0
LINE
  5
236
  8
0
 10
27.0
 20
41.5
 30
0.0
 11
27.0
 21
65.0
 31
0.0
  0
LINE
  5
237
  8
0
 10
37.0
 20
41.5
 30
0.0
 11
37.0
 21
65.0
 31
0.0
  0
LINE
  5
238
  8
0
 10
38.0
 20
66.5
 30
0.0
 11
38.0
 21
42.5
 31
0.0
  0
LINE
  5
239
  8
0
 10
37.0
 20
41.5
 30
0.0
 11
38.0
 21
42.5
 31
0.0
  0
LINE
  5
23A
  8
0
 10
38.0
 20
42.5
 30
0.0
 11
32.0
 21
42.5
 31
0.0
  0
LINE
  5
23B
  8
0
 10
32.0
 20
41.5
 30
0.0
 11
37.0
 21
41.5
 31
0.0
  0
LINE
  5
23C
  8
0
 10
38.0
 20
65.0
 30
0.0
 11
32.0
 21
65.0
 31
0.0
  0
POLYLINE
  5
23F
  8
0
 10
19.5
 20
78.5
 30
0.0
 66
     1
 70
     8
  0
VERTEX
  8
0
  5
39B
 10
19.5000
 20
78.5000
 30
0.000000
  70
    32
  0
VERTEX
  8
0
  5
39C
 10
19.5038
 20
78.4264
 30
0.000000
  70
    32
  0
VERTEX
  8
0
  5
39D
 10
19.5151
 20
78.3528
 30
0.000000
  70
    32
  0
VERTEX
  8
0
  5
39E
 10
19.5339
 20
78.2793
 30
0.000000
  70
    32
  0
VERTEX
  8
0
  5
39F
 10
19.5602
 20
78.2059
 30
0.000000
  70
    32
  0
VERTEX
  8
0
  5
3A0
 10
19.5940
 20
78.1328
 30
0.000000
  70
    32
  0
VERTEX
  8
0
  5
3A1
 10
19.6353
 20
78.0598
 30
0.000000
  70
    32
  0
VERTEX
  8
0
  5
3A2
 10
19.6840
 20
77.9871
 30
0.000000
  70
    32
  0
VERTEX
  8
0
  5
3A3
 10
19.7402
 20
77.9147
 30
0.000000
  70
    32
  0
VERTEX
  8
0
  5
3A4
 10
19.8037
 20
77.8427
 30
0.000000
  70
    32
  0
VERTEX
  8
0
  5
3A5
 10
19.8746
 20
77.7711
 30
0.000000
  70
    32
  0
VERTEX
  8
0
  5
3A6
 10
19.9528
 20
77.6999
 30
0.000000
  70
    32
  0
VERTEX
  8
0
  5
3A7
 10
20.0382
 20
77.6291
 30
0.000000
  70
    32
  0
VERTEX
  8
0
  5
3A8
 10
20.1309
 20
77.5590
 30
0.000000
  70
    32
  0
VERTEX
  8
0
  5
3A9
 10
20.2307
 20
77.4893
 30
0.000000
  70
    32
  0
VERTEX
  8
0
  5
3AA
 10
20.3376
 20
77.4203
 30
0.000000
  70
    32
  0
VERTEX
  8
0
  5
3AB
 10
20.4515
 20
77.3519
 30
0.000000
  70
    32
  0
VERTEX
  8
0
  5
3AC
 10
20.5724
 20
77.2843
 30
0.000000
  70
    32
  0
VERTEX
  8
0
  5
3AD
 10
20.7001
 20
77.2173
 30
0.000000
  70
    32
  0
VERTEX
  8
0
  5
3AE
 10
20.8347
 20
77.1512
 30
0.000000
  70
    32
  0
VERTEX
  8
0
  5
3AF
 10
20.9760
 20
77.0858
 30
0.000000
  70
    32
  0
VERTEX
  8
0
  5
3B0
 10
21.1239
 20
77.0213
 30
0.000000
  70
    32
  0
VERTEX
  8
0
  5
3B1
 10
21.2784
 20
76.9577
 30
0.000000
  70
    32
  0
VERTEX
  8
0
  5
3B2
 10
21.4393
 20
76.8950
 30
0.000000
  70
    32
  0
VERTEX
  8
0
  5
3B3
 10
21.6066
 20
76.8333
 30
0.000000
  70
    32
  0
VERTEX
  8
0
  5
3B4
 10
21.7802
 20
76.7726
 30
0.000000
  70
    32
  0
VERTEX
  8
0
  5
3B5
 10
21.9599
 20
76.7129
 30
0.000000
  70
    32
  0
VERTEX
  8
0
  5
3B6
 10
22.1457
 20
76.6543
 30
0.000000
  70
    32
  0
VERTEX
  8
0
  5
3B7
 10
22.3374
 20
76.5968
 30
0.000000
  70
    32
  0
VERTEX
  8
0
  5
3B8
 10
22.5349
 20
76.5405
 30
0.000000
  70
    32
  0
VERTEX
  8
0
  5
3B9
 10
22.7381
 20
76.4853
 30
0.000000
  70
    32
  0
VERTEX
  8
0
  5
3BA
 10
22.9469
 20
76.4314
 30
0.000000
  70
    32
  0
VERTEX
  8
0
  5
3BB
 10
23.1612
 20
76.3787
 30
0.000000
  70
    32
  0
VERTEX
  8
0
  5
3BC
 10
23.3807
 20
76.3273
 30
0.000000
  70
    32
  0
VERTEX
  8
0
  5
3BD
 10
23.6055
 20
76.2771
 30
0.000000
  70
    32
  0
VERTEX
  8
0
  5
3BE
 10
23.8353
 20
76.2284
 30
0.000000
  70
    32
  0
VERTEX
  8
0
  5
3BF
 10
24.0701
 20
76.1810
 30
0.000000
  70
    32
  0
VERTEX
  8
0
  5
3C0
 10
24.3096
 20
76.1350
 30
0.000000
  70
    32
  0
VERTEX
  8
0
  5
3C1
 10
24.5538
 20
76.0904
 30
0.000000
  70
    32
  0
VERTEX
  8
0
  5
3C2
 10
24.8024
 20
76.0472
 30
0.000000
  70
    32
  0
VERTEX
  8
0
  5
3C3
 10
25.0554
 20
76.0056
 30
0.000000
  70
    32
  0
VERTEX
  8
0
  5
3C4
 10
25.3125
 20
75.9654
 30
0.000000
  70
    32
  0
VERTEX
  8
0
  5
3C5
 10
25.5737
 20
75.9268
 30
0.000000
  70
    32
  0
VERTEX
  8
0
  5
3C6
 10
25.8388
 20
75.8897
 30
0.000000
  70
    32
  0
VERTEX
  8
0
  5
3C7
 10
26.1075
 20
75.8542
 30
0.000000
  70
    32
  0
VERTEX
  8
0
  5
3C8
 10
26.3799
 20
75.8203
 30
0.000000
  70
    32
  0
VERTEX
  8
0
  5
3C9
 10
26.6556
 20
75.7880
 30
0.000000
  70
    32
  0
VERTEX
  8
0
  5
3CA
 10
26.9345
 20
75.7574
 30
0.000000
  70
    32
  0
VERTEX
  8
0
  5
3CB
 10
27.2165
 20
75.7284
 30
0.000000
  70
    32
  0
VERTEX
  8
0
  5
3CC
 10
27.5013
 20
75.7010
 30
0.000000
  70
    32
  0
VERTEX
  8
0
  5
3CD
 10
27.7889
 20
75.6754
 30
0.000000
  70
    32
  0
VERTEX
  8
0
  5
3CE
 10
28.0790
 20
75.6514
 30
0.000000
  70
    32
  0
VERTEX
  8
0
  5
3CF
 10
28.3714
 20
75.6292
 30
0.000000
  70
    32
  0
VERTEX
  8
0
  5
3D0
 10
28.6661
 20
75.6087
 30
0.000000
  70
    32
  0
VERTEX
  8
0
  5
3D1
 10
28.9627
 20
75.5899
 30
0.000000
  70
    32
  0
VERTEX
  8
0
  5
3D2
 10
29.2612
 20
75.5729
 30
0.000000
  70
    32
  0
VERTEX
  8
0
  5
3D3
 10
29.5614
 20
75.5576
 30
0.000000
  70
    32
  0
VERTEX
  8
0
  5
3D4
 10
29.8630
 20
75.5442
 30
0.000000
  70
    32
  0
VERTEX
  8
0
  5
3D5
 10
30.1659
 20
75.5325
 30
0.000000
  70
    32
  0
VERTEX
  8
0
  5
3D6
 10
30.4699
 20
75.5226
 30
0.000000
  70
    32
  0
VERTEX
  8
0
  5
3D7
 10
30.7748
 20
75.5144
 30
0.000000
  70
    32
  0
VERTEX
  8
0
  5
3D8
 10
31.0804
 20
75.5081
 30
0.000000
  70
    32
  0
VERTEX
  8
0
  5
3D9
 10
31.3867
 20
75.5036
 30
0.000000
  70
    32
  0
VERTEX
  8
0
  5
3DA
 10
31.6932
 20
75.5009
 30
0.000000
  70
    32
  0
VERTEX
  8
0
  5
3DB
 10
32.0000
 20
75.5000
 30
0.000000
  70
    32
  0
VERTEX
  8
0
  5
3DC
 10
32.3068
 20
75.5009
 30
0.000000
  70
    32
  0
VERTEX
  8
0
  5
3DD
 10
32.6133
 20
75.5036
 30
0.000000
  70
    32
  0
VERTEX
  8
0
  5
3DE
 10
32.9196
 20
75.5081
 30
0.000000
  70
    32
  0
VERTEX
  8
0
  5
3DF
 10
33.2252
 20
75.5144
 30
0.000000
  70
    32
  0
VERTEX
  8
0
  5
3E0
 10
33.5301
 20
75.5226
 30
0.000000
  70
    32
  0
VERTEX
  8
0
  5
3E1
 10
33.8341
 20
75.5325
 30
0.000000
  70
    32
  0
VERTEX
  8
0
  5
3E2
 10
34.1370
 20
75.5442
 30
0.000000
  70
    32
  0
VERTEX
  8
0
  5
3E3
 10
34.4386
 20
75.5576
 30
0.000000
  70
    32
  0
VERTEX
  8
0
  5
3E4
 10
34.7388
 20
75.5729
 30
0.000000
  70
    32
  0
VERTEX
  8
0
  5
3E5
 10
35.0373
 20
75.5899
 30
0.000000
  70
    32
  0
VERTEX
  8
0
  5
3E6
 10
35.3339
 20
75.6087
 30
0.000000
  70
    32
  0
VERTEX
  8
0
  5
3E7
 10
35.6286
 20
75.6292
 30
0.000000
  70
    32
  0
VERTEX
  8
0
  5
3E8
 10
35.9210
 20
75.6514
 30
0.000000
  70
    32
  0
VERTEX
  8
0
  5
3E9
 10
36.2111
 20
75.6754
 30
0.000000
  70
    32
  0
VERTEX
  8
0
  5
3EA
 10
36.4987
 20
75.7010
 30
0.000000
  70
    32
  0
VERTEX
  8
0
  5
3EB
 10
36.7835
 20
75.7284
 30
0.000000
  70
    32
  0
VERTEX
  8
0
  5
3EC
 10
37.0655
 20
75.7574
 30
0.000000
  70
    32
  0
VERTEX
  8
0
  5
3ED
 10
37.3444
 20
75.7880
 30
0.000000
  70
    32
  0
VERTEX
  8
0
  5
3EE
 10
37.6201
 20
75.8203
 30
0.000000
  70
    32
  0
VERTEX
  8
0
  5
3EF
 10
37.8925
 20
75.8542
 30
0.000000
  70
    32
  0
VERTEX
  8
0
  5
3F0
 10
38.1612
 20
75.8897
 30
0.000000
  70
    32
  0
VERTEX
  8
0
  5
3F1
 10
38.4263
 20
75.9268
 30
0.000000
  70
    32
  0
VERTEX
  8
0
  5
3F2
 10
38.6875
 20
75.9654
 30
0.000000
  70
    32
  0
VERTEX
  8
0
  5
3F3
 10
38.9446
 20
76.0056
 30
0.000000
  70
    32
  0
VERTEX
  8
0
  5
3F4
 10
39.1976
 20
76.0472
 30
0.000000
  70
    32
  0
VERTEX
  8
0
  5
3F5
 10
39.4462
 20
76.0904
 30
0.000000
  70
    32
  0
VERTEX
  8
0
  5
3F6
 10
39.6904
 20
76.1350
 30
0.000000
  70
    32
  0
VERTEX
  8
0
  5
3F7
 10
39.9299
 20
76.1810
 30
0.000000
  70
    32
  0
VERTEX
  8
0
  5
3F8
 10
40.1647
 20
76.2284
 30
0.000000
  70
    32
  0
VERTEX
  8
0
  5
3F9
 10
40.3945
 20
76.2771
 30
0.000000
  70
    32
  0
VERTEX
  8
0
  5
3FA
 10
40.6193
 20
76.3273
 30
0.000000
  70
    32
  0
VERTEX
  8
0
  5
3FB
 10
40.8388
 20
76.3787
 30
0.000000
  70
    32
  0
VERTEX
  8
0
  5
3FC
 10
41.0531
 20
76.4314
 30
0.000000
  70
    32
  0
VERTEX
  8
0
  5
3FD
 10
41.2619
 20
76.4853
 30
0.000000
  70
    32
  0
VERTEX
  8
0
  5
3FE
 10
41.4651
 20
76.5405
 30
0.000000
  70
    32
  0
VERTEX
  8
0
  5
3FF
 10
41.6626
 20
76.5968
 30
0.000000
  70
    32
  0
VERTEX
  8
0
  5
400
 10
41.8543
 20
76.6543
 30
0.000000
  70
    32
  0
VERTEX
  8
0
  5
401
 10
42.0401
 20
76.7129
 30
0.000000
  70
    32
  0
VERTEX
  8
0
  5
402
 10
42.2198
 20
76.7726
 30
0.000000
  70
    32
  0
VERTEX
  8
0
  5
403
 10
42.3934
 20
76.8333
 30
0.000000
  70
    32
  0
VERTEX
  8
0
  5
404
 10
42.5607
 20
76.8950
 30
0.000000
  70
    32
  0
VERTEX
  8
0
  5
405
 10
42.7216
 20
76.9577
 30
0.000000
  70
    32
  0
VERTEX
  8
0
  5
406
 10
42.8761
 20
77.0213
 30
0.000000
  70
    32
  0
VERTEX
  8
0
  5
407
 10
43.0240
 20
77.0858
 30
0.000000
  70
    32
  0
VERTEX
  8
0
  5
408
 10
43.1653
 20
77.1512
 30
0.000000
  70
    32
  0
VERTEX
  8
0
  5
409
 10
43.2999
 20
77.2173
 30
0.000000
  70
    32
  0
VERTEX
  8
0
  5
40A
 10
43.4276
 20
77.2843
 30
0.000000
  70
    32
  0
VERTEX
  8
0
  5
40B
 10
43.5485
 20
77.3519
 30
0.000000
  70
    32
  0
VERTEX
  8
0
  5
40C
 10
43.6624
 20
77.4203
 30
0.000000
  70
    32
  0
VERTEX
  8
0
  5
40D
 10
43.7693
 20
77.4893
 30
0.000000
  70
    32
  0
VERTEX
  8
0
  5
40E
 10
43.8691
 20
77.5590
 30
0.000000
  70
    32
  0
VERTEX
  8
0
  5
40F
 10
43.9618
 20
77.6291
 30
0.000000
  70
    32
  0
VERTEX
  8
0
  5
410
 10
44.0472
 20
77.6999
 30
0.000000
  70
    32
  0
VERTEX
  8
0
  5
411
 10
44.1254
 20
77.7711
 30
0.000000
  70
    32
  0
VERTEX
  8
0
  5
412
 10
44.1963
 20
77.8427
 30
0.000000
  70
    32
  0
VERTEX
  8
0
  5
413
 10
44.2598
 20
77.9147
 30
0.000000
  70
    32
  0
VERTEX
  8
0
  5
414
 10
44.3160
 20
77.9871
 30
0.000000
  70
    32
  0
VERTEX
  8
0
  5
415
 10
44.3647
 20
78.0598
 30
0.000000
  70
    32
  0
VERTEX
  8
0
  5
416
 10
44.4060
 20
78.1328
 30
0.000000
  70
    32
  0
VERTEX
  8
0
  5
417
 10
44.4398
 20
78.2059
 30
0.000000
  70
    32
  0
VERTEX
  8
0
  5
418
 10
44.4661
 20
78.2793
 30
0.000000
  70
    32
  0
VERTEX
  8
0
  5
419
 10
44.4849
 20
78.3528
 30
0.000000
  70
    32
  0
VERTEX
  8
0
  5
41A
 10
44.4962
 20
78.4264
 30
0.000000
  70
    32
  0
VERTEX
  8
0
  5
41B
 10
44.5000
 20
78.5000
 30
0.000000
  70
    32
  0
SEQEND
  8
0
  5
41C
  0
LINE
  5
242
  8
0
 10
19.5
 20
78.5
 30
0.0
 11
19.5
 21
106.5
 31
0.0
  0
LINE
  5
243
  8
0
 10
44.5
 20
78.5
 30
0.0
 11
44.5
 21
106.5
 31
0.0
  0
POLYLINE
  5
244
  8
0
 10
20.055252
 20
107.678929
 30
0.0
 66
     1
 70
     8
  0
VERTEX
  8
0
  5
41D
 10
20.0553
 20
107.679
 30
0.000000
  70
    32
  0
VERTEX
  8
0
  5
41E
 10
19.9527
 20
107.567
 30
0.000000
  70
    32
  0
VERTEX
  8
0
  5
41F
 10
19.8605
 20
107.454
 30
0.000000
  70
    32
  0
VERTEX
  8
0
  5
420
 10
19.7786
 20
107.340
 30
0.000000
  70
    32
  0
VERTEX
  8
0
  5
421
 10
19.7071
 20
107.225
 30
0.000000
  70
    32
  0
VERTEX
  8
0
  5
422
 10
19.6462
 20
107.110
 30
0.000000
  70
    32
  0
VERTEX
  8
0
  5
423
 10
19.5958
 20
106.994
 30
0.000000
  70
    32
  0
VERTEX
  8
0
  5
424
 10
19.5559
 20
106.878
 30
0.000000
  70
    32
  0
VERTEX
  8
0
  5
425
 10
19.5267
 20
106.762
 30
0.000000
  70
    32
  0
VERTEX
  8
0
  5
426
 10
19.5082
 20
106.645
 30
0.000000
  70
    32
  0
VERTEX
  8
0
  5
427
 10
19.5003
 20
106.528
 30
0.000000
  70
    32
  0
VERTEX
  8
0
  5
428
 10
19.5031
 20
106.411
 30
0.000000
  70
    32
  0
VERTEX
  8
0
  5
429
 10
19.5165
 20
106.294
 30
0.000000
  70
    32
  0
VERTEX
  8
0
  5
42A
 10
19.5406
 20
106.178
 30
0.000000
  70
    32
  0
VERTEX
  8
0
  5
42B
 10
19.5754
 20
106.061
 30
0.000000
  70
    32
  0
VERTEX
  8
0
  5
42C
 10
19.6207
 20
105.945
 30
0.000000
  70
    32
  0
VERTEX
  8
0
  5
42D
 10
19.6766
 20
105.830
 30
0.000000
  70
    32
  0
VERTEX
  8
0
  5
42E
 10
19.7431
 20
105.715
 30
0.000000
  70
    32
  0
VERTEX
  8
0
  5
42F
 10
19.8200
 20
105.601
 30
0.000000
  70
    32
  0
VERTEX
  8
0
  5
430
 10
19.9073
 20
105.487
 30
0.000000
  70
    32
  0
VERTEX
  8
0
  5
431
 10
20.0049
 20
105.375
 30
0.000000
  70
    32
  0
VERTEX
  8
0
  5
432
 10
20.1128
 20
105.263
 30
0.000000
  70
    32
  0
VERTEX
  8
0
  5
433
 10
20.2308
 20
105.152
 30
0.000000
  70
    32
  0
VERTEX
  8
0
  5
434
 10
20.3588
 20
105.043
 30
0.000000
  70
    32
  0
VERTEX
  8
0
  5
435
 10
20.4968
 20
104.935
 30
0.000000
  70
    32
  0
VERTEX
  8
0
  5
436
 10
20.6446
 20
104.828
 30
0.000000
  70
    32
  0
VERTEX
  8
0
  5
437
 10
20.8021
 20
104.722
 30
0.000000
  70
    32
  0
VERTEX
  8
0
  5
438
 10
20.9692
 20
104.618
 30
0.000000
  70
    32
  0
VERTEX
  8
0
  5
439
 10
21.1457
 20
104.516
 30
0.000000
  70
    32
  0
VERTEX
  8
0
  5
43A
 10
21.3314
 20
104.416
 30
0.000000
  70
    32
  0
VERTEX
  8
0
  5
43B
 10
21.5263
 20
104.317
 30
0.000000
  70
    32
  0
VERTEX
  8
0
  5
43C
 10
21.7301
 20
104.220
 30
0.000000
  70
    32
  0
VERTEX
  8
0
  5
43D
 10
21.9426
 20
104.125
 30
0.000000
  70
    32
  0
VERTEX
  8
0
  5
43E
 10
22.1638
 20
104.032
 30
0.000000
  70
    32
  0
VERTEX
  8
0
  5
43F
 10
22.3933
 20
103.941
 30
0.000000
  70
    32
  0
VERTEX
  8
0
  5
440
 10
22.6310
 20
103.852
 30
0.000000
  70
    32
  0
VERTEX
  8
0
  5
441
 10
22.8768
 20
103.766
 30
0.000000
  70
    32
  0
VERTEX
  8
0
  5
442
 10
23.1303
 20
103.681
 30
0.000000
  70
    32
  0
VERTEX
  8
0
  5
443
 10
23.3914
 20
103.600
 30
0.000000
  70
    32
  0
VERTEX
  8
0
  5
444
 10
23.6599
 20
103.521
 30
0.000000
  70
    32
  0
VERTEX
  8
0
  5
445
 10
23.9354
 20
103.444
 30
0.000000
  70
    32
  0
VERTEX
  8
0
  5
446
 10
24.2179
 20
103.370
 30
0.000000
  70
    32
  0
VERTEX
  8
0
  5
447
 10
24.5070
 20
103.298
 30
0.000000
  70
    32
  0
VERTEX
  8
0
  5
448
 10
24.8025
 20
103.230
 30
0.000000
  70
    32
  0
VERTEX
  8
0
  5
449
 10
25.1041
 20
103.164
 30
0.000000
  70
    32
  0
VERTEX
  8
0
  5
44A
 10
25.4116
 20
103.101
 30
0.000000
  70
    32
  0
VERTEX
  8
0
  5
44B
 10
25.7248
 20
103.041
 30
0.000000
  70
    32
  0
VERTEX
  8
0
  5
44C
 10
26.0433
 20
102.983
 30
0.000000
  70
    32
  0
VERTEX
  8
0
  5
44D
 10
26.3669
 20
102.929
 30
0.000000
  70
    32
  0
VERTEX
  8
0
  5
44E
 10
26.6953
 20
102.878
 30
0.000000
  70
    32
  0
VERTEX
  8
0
  5
44F
 10
27.0282
 20
102.830
 30
0.000000
  70
    32
  0
VERTEX
  8
0
  5
450
 10
27.3654
 20
102.785
 30
0.000000
  70
    32
  0
VERTEX
  8
0
  5
451
 10
27.7065
 20
102.743
 30
0.000000
  70
    32
  0
VERTEX
  8
0
  5
452
 10
28.0513
 20
102.705
 30
0.000000
  70
    32
  0
VERTEX
  8
0
  5
453
 10
28.3995
 20
102.670
 30
0.000000
  70
    32
  0
VERTEX
  8
0
  5
454
 10
28.7507
 20
102.638
 30
0.000000
  70
    32
  0
VERTEX
  8
0
  5
455
 10
29.1047
 20
102.609
 30
0.000000
  70
    32
  0
VERTEX
  8
0
  5
456
 10
29.4612
 20
102.583
 30
0.000000
  70
    32
  0
VERTEX
  8
0
  5
457
 10
29.8198
 20
102.561
 30
0.000000
  70
    32
  0
VERTEX
  8
0
  5
458
 10
30.1803
 20
102.543
 30
0.000000
  70
    32
  0
VERTEX
  8
0
  5
459
 10
30.5424
 20
102.527
 30
0.000000
  70
    32
  0
VERTEX
  8
0
  5
45A
 10
30.9057
 20
102.515
 30
0.000000
  70
    32
  0
VERTEX
  8
0
  5
45B
 10
31.2700
 20
102.507
 30
0.000000
  70
    32
  0
VERTEX
  8
0
  5
45C
 10
31.6348
 20
102.502
 30
0.000000
  70
    32
  0
VERTEX
  8
0
  5
45D
 10
32.0000
 20
102.500
 30
0.000000
  70
    32
  0
VERTEX
  8
0
  5
45E
 10
32.3652
 20
102.502
 30
0.000000
  70
    32
  0
VERTEX
  8
0
  5
45F
 10
32.7300
 20
102.507
 30
0.000000
  70
    32
  0
VERTEX
  8
0
  5
460
 10
33.0943
 20
102.515
 30
0.000000
  70
    32
  0
VERTEX
  8
0
  5
461
 10
33.4576
 20
102.527
 30
0.000000
  70
    32
  0
VERTEX
  8
0
  5
462
 10
33.8197
 20
102.543
 30
0.000000
  70
    32
  0
VERTEX
  8
0
  5
463
 10
34.1802
 20
102.561
 30
0.000000
  70
    32
  0
VERTEX
  8
0
  5
464
 10
34.5388
 20
102.583
 30
0.000000
  70
    32
  0
VERTEX
  8
0
  5
465
 10
34.8953
 20
102.609
 30
0.000000
  70
    32
  0
VERTEX
  8
0
  5
466
 10
35.2493
 20
102.638
 30
0.000000
  70
    32
  0
VERTEX
  8
0
  5
467
 10
35.6005
 20
102.670
 30
0.000000
  70
    32
  0
VERTEX
  8
0
  5
468
 10
35.9487
 20
102.705
 30
0.000000
  70
    32
  0
VERTEX
  8
0
  5
469
 10
36.2935
 20
102.743
 30
0.000000
  70
    32
  0
VERTEX
  8
0
  5
46A
 10
36.6346
 20
102.785
 30
0.000000
  70
    32
  0
VERTEX
  8
0
  5
46B
 10
36.9718
 20
102.830
 30
0.000000
  70
    32
  0
VERTEX
  8
0
  5
46C
 10
37.3047
 20
102.878
 30
0.000000
  70
    32
  0
VERTEX
  8
0
  5
46D
 10
37.6331
 20
102.929
 30
0.000000
  70
    32
  0
VERTEX
  8
0
  5
46E
 10
37.9567
 20
102.983
 30
0.000000
  70
    32
  0
VERTEX
  8
0
  5
46F
 10
38.2752
 20
103.041
 30
0.000000
  70
    32
  0
VERTEX
  8
0
  5
470
 10
38.5884
 20
103.101
 30
0.000000
  70
    32
  0
VERTEX
  8
0
  5
471
 10
38.8959
 20
103.164
 30
0.000000
  70
    32
  0
VERTEX
  8
0
  5
472
 10
39.1975
 20
103.230
 30
0.000000
  70
    32
  0
VERTEX
  8
0
  5
473
 10
39.4930
 20
103.298
 30
0.000000
  70
    32
  0
VERTEX
  8
0
  5
474
 10
39.7821
 20
103.370
 30
0.000000
  70
    32
  0
VERTEX
  8
0
  5
475
 10
40.0646
 20
103.444
 30
0.000000
  70
    32
  0
VERTEX
  8
0
  5
476
 10
40.3401
 20
103.521
 30
0.000000
  70
    32
  0
VERTEX
  8
0
  5
477
 10
40.6086
 20
103.600
 30
0.000000
  70
    32
  0
VERTEX
  8
0
  5
478
 10
40.8697
 20
103.681
 30
0.000000
  70
    32
  0
VERTEX
  8
0
  5
479
 10
41.1232
 20
103.766
 30
0.000000
  70
    32
  0
VERTEX
  8
0
  5
47A
 10
41.3690
 20
103.852
 30
0.000000
  70
    32
  0
VERTEX
  8
0
  5
47B
 10
41.6067
 20
103.941
 30
0.000000
  70
    32
  0
VERTEX
  8
0
  5
47C
 10
41.8362
 20
104.032
 30
0.000000
  70
    32
  0
VERTEX
  8
0
  5
47D
 10
42.0574
 20
104.125
 30
0.000000
  70
    32
  0
VERTEX
  8
0
  5
47E
 10
42.2699
 20
104.220
 30
0.000000
  70
    32
  0
VERTEX
  8
0
  5
47F
 10
42.4737
 20
104.317
 30
0.000000
  70
    32
  0
VERTEX
  8
0
  5
480
 10
42.6686
 20
104.416
 30
0.000000
  70
    32
  0
VERTEX
  8
0
  5
481
 10
42.8543
 20
104.516
 30
0.000000
  70
    32
  0
VERTEX
  8
0
  5
482
 10
43.0308
 20
104.618
 30
0.000000
  70
    32
  0
VERTEX
  8
0
  5
483
 10
43.1979
 20
104.722
 30
0.000000
  70
    32
  0
VERTEX
  8
0
  5
484
 10
43.3554
 20
104.828
 30
0.000000
  70
    32
  0
VERTEX
  8
0
  5
485
 10
43.5032
 20
104.935
 30
0.000000
  70
    32
  0
VERTEX
  8
0
  5
486
 10
43.6412
 20
105.043
 30
0.000000
  70
    32
  0
VERTEX
  8
0
  5
487
 10
43.7692
 20
105.152
 30
0.000000
  70
    32
  0
VERTEX
  8
0
  5
488
 10
43.8872
 20
105.263
 30
0.000000
  70
    32
  0
VERTEX
  8
0
  5
489
 10
43.9951
 20
105.375
 30
0.000000
  70
    32
  0
VERTEX
  8
0
  5
48A
 10
44.0927
 20
105.487
 30
0.000000
  70
    32
  0
VERTEX
  8
0
  5
48B
 10
44.1800
 20
105.601
 30
0.000000
  70
    32
  0
VERTEX
  8
0
  5
48C
 10
44.2569
 20
105.715
 30
0.000000
  70
    32
  0
VERTEX
  8
0
  5
48D
 10
44.3234
 20
105.830
 30
0.000000
  70
    32
  0
VERTEX
  8
0
  5
48E
 10
44.3793
 20
105.945
 30
0.000000
  70
    32
  0
VERTEX
  8
0
  5
48F
 10
44.4246
 20
106.061
 30
0.000000
  70
    32
  0
VERTEX
  8
0
  5
490
 10
44.4594
 20
106.178
 30
0.000000
  70
    32
  0
VERTEX
  8
0
  5
491
 10
44.4835
 20
106.294
 30
0.000000
  70
    32
  0
VERTEX
  8
0
  5
492
 10
44.4969
 20
106.411
 30
0.000000
  70
    32
  0
VERTEX
  8
0
  5
493
 10
44.4997
 20
106.528
 30
0.000000
  70
    32
  0
VERTEX
  8
0
  5
494
 10
44.4918
 20
106.645
 30
0.000000
  70
    32
  0
VERTEX
  8
0
  5
495
 10
44.4733
 20
106.762
 30
0.000000
  70
    32
  0
VERTEX
  8
0
  5
496
 10
44.4441
 20
106.878
 30
0.000000
  70
    32
  0
VERTEX
  8
0
  5
497
 10
44.4042
 20
106.994
 30
0.000000
  70
    32
  0
VERTEX
  8
0
  5
498
 10
44.3538
 20
107.110
 30
0.000000
  70
    32
  0
VERTEX
  8
0
  5
499
 10
44.2929
 20
107.225
 30
0.000000
  70
    32
  0
VERTEX
  8
0
  5
49A
 10
44.2214
 20
107.340
 30
0.000000
  70
    32
  0
VERTEX
  8
0
  5
49B
 10
44.1395
 20
107.454
 30
0.000000
  70
    32
  0
VERTEX
  8
0
  5
49C
 10
44.0473
 20
107.567
 30
0.000000
  70
    32
  0
VERTEX
  8
0
  5
49D
 10
43.9447
 20
107.679
 30
0.000000
  70
    32
  0
SEQEND
  8
0
  5
49E
  0
ARC
  5
24C
  8
0
 10
32.0
 20
121.958333
 30
0.0
 40
8.541667
 50
40.449719
 51
139.550281
  0
LINE
  5
251
  8
0
 10
23.0
 20
109.275896
 30
0.0
 11
25.5
 21
127.5
 31
0.0
  0
LINE
  5
252
  8
0
 10
41.0
 20
109.275896
 30
0.0
 11
38.5
 21
127.5
 31
0.0
  0
LINE
  5
254
  8
0
 10
26.5
 20
109.5
 30
0.0
 11
37.5
 21
109.5
 31
0.0
  0
LINE
  5
255
  8
0
 10
38.5
 20
108.5
 30
0.0
 11
38.5
 21
106.5
 31
0.0
  0
LINE
  5
256
  8
0
 10
25.5
 20
108.5
 30
0.0
 11
25.5
 21
106.5
 31
0.0
  0
POLYLINE
  5
257
  8
0
 10
25.5
 20
106.5
 30
0.0
 66
     1
 70
     8
  0
VERTEX
  8
0
  5
49F
 10
25.5000
 20
106.500
 30
0.000000
  70
    32
  0
VERTEX
  8
0
  5
4A0
 10
25.5020
 20
106.451
 30
0.000000
  70
    32
  0
VERTEX
  8
0
  5
4A1
 10
25.5078
 20
106.402
 30
0.000000
  70
    32
  0
VERTEX
  8
0
  5
4A2
 10
25.5176
 20
106.353
 30
0.000000
  70
    32
  0
VERTEX
  8
0
  5
4A3
 10
25.5313
 20
106.304
 30
0.000000
  70
    32
  0
VERTEX
  8
0
  5
4A4
 10
25.5489
 20
106.255
 30
0.000000
  70
    32
  0
VERTEX
  8
0
  5
4A5
 10
25.5704
 20
106.207
 30
0.000000
  70
    32
  0
VERTEX
  8
0
  5
4A6
 10
25.5957
 20
106.158
 30
0.000000
  70
    32
  0
VERTEX
  8
0
  5
4A7
 10
25.6249
 20
106.110
 30
0.000000
  70
    32
  0
VERTEX
  8
0
  5
4A8
 10
25.6579
 20
106.062
 30
0.000000
  70
    32
  0
VERTEX
  8
0
  5
4A9
 10
25.6948
 20
106.014
 30
0.000000
  70
    32
  0
VERTEX
  8
0
  5
4AA
 10
25.7355
 20
105.967
 30
0.000000
  70
    32
  0
VERTEX
  8
0
  5
4AB
 10
25.7799
 20
105.919
 30
0.000000
  70
    32
  0
VERTEX
  8
0
  5
4AC
 10
25.8281
 20
105.873
 30
0.000000
  70
    32
  0
VERTEX
  8
0
  5
4AD
 10
25.8800
 20
105.826
 30
0.000000
  70
    32
  0
VERTEX
  8
0
  5
4AE
 10
25.9355
 20
105.780
 30
0.000000
  70
    32
  0
VERTEX
  8
0
  5
4AF
 10
25.9948
 20
105.735
 30
0.000000
  70
    32
  0
VERTEX
  8
0
  5
4B0
 10
26.0576
 20
105.690
 30
0.000000
  70
    32
  0
VERTEX
  8
0
  5
4B1
 10
26.1241
 20
105.645
 30
0.000000
  70
    32
  0
VERTEX
  8
0
  5
4B2
 10
26.1940
 20
105.601
 30
0.000000
  70
    32
  0
VERTEX
  8
0
  5
4B3
 10
26.2675
 20
105.557
 30
0.000000
  70
    32
  0
VERTEX
  8
0
  5
4B4
 10
26.3444
 20
105.514
 30
0.000000
  70
    32
  0
VERTEX
  8
0
  5
4B5
 10
26.4248
 20
105.472
 30
0.000000
  70
    32
  0
VERTEX
  8
0
  5
4B6
 10
26.5085
 20
105.430
 30
0.000000
  70
    32
  0
VERTEX
  8
0
  5
4B7
 10
26.5954
 20
105.389
 30
0.000000
  70
    32
  0
VERTEX
  8
0
  5
4B8
 10
26.6857
 20
105.348
 30
0.000000
  70
    32
  0
VERTEX
  8
0
  5
4B9
 10
26.7792
 20
105.309
 30
0.000000
  70
    32
  0
VERTEX
  8
0
  5
4BA
 10
26.8757
 20
105.270
 30
0.000000
  70
    32
  0
VERTEX
  8
0
  5
4BB
 10
26.9754
 20
105.231
 30
0.000000
  70
    32
  0
VERTEX
  8
0
  5
4BC
 10
27.0781
 20
105.194
 30
0.000000
  70
    32
  0
VERTEX
  8
0
  5
4BD
 10
27.1838
 20
105.157
 30
0.000000
  70
    32
  0
VERTEX
  8
0
  5
4BE
 10
27.2924
 20
105.121
 30
0.000000
  70
    32
  0
VERTEX
  8
0
  5
4BF
 10
27.4038
 20
105.086
 30
0.000000
  70
    32
  0
VERTEX
  8
0
  5
4C0
 10
27.5180
 20
105.052
 30
0.000000
  70
    32
  0
VERTEX
  8
0
  5
4C1
 10
27.6349
 20
105.018
 30
0.000000
  70
    32
  0
VERTEX
  8
0
  5
4C2
 10
27.7544
 20
104.986
 30
0.000000
  70
    32
  0
VERTEX
  8
0
  5
4C3
 10
27.8764
 20
104.954
 30
0.000000
  70
    32
  0
VERTEX
  8
0
  5
4C4
 10
28.0010
 20
104.923
 30
0.000000
  70
    32
  0
VERTEX
  8
0
  5
4C5
 10
28.1280
 20
104.894
 30
0.000000
  70
    32
  0
VERTEX
  8
0
  5
4C6
 10
28.2572
 20
104.865
 30
0.000000
  70
    32
  0
VERTEX
  8
0
  5
4C7
 10
28.3888
 20
104.837
 30
0.000000
  70
    32
  0
VERTEX
  8
0
  5
4C8
 10
28.5225
 20
104.810
 30
0.000000
  70
    32
  0
VERTEX
  8
0
  5
4C9
 10
28.6583
 20
104.785
 30
0.000000
  70
    32
  0
VERTEX
  8
0
  5
4CA
 10
28.7962
 20
104.760
 30
0.000000
  70
    32
  0
VERTEX
  8
0
  5
4CB
 10
28.9359
 20
104.736
 30
0.000000
  70
    32
  0
VERTEX
  8
0
  5
4CC
 10
29.0775
 20
104.714
 30
0.000000
  70
    32
  0
VERTEX
  8
0
  5
4CD
 10
29.2209
 20
104.692
 30
0.000000
  70
    32
  0
VERTEX
  8
0
  5
4CE
 10
29.3659
 20
104.672
 30
0.000000
  70
    32
  0
VERTEX
  8
0
  5
4CF
 10
29.5126
 20
104.652
 30
0.000000
  70
    32
  0
VERTEX
  8
0
  5
4D0
 10
29.6607
 20
104.634
 30
0.000000
  70
    32
  0
VERTEX
  8
0
  5
4D1
 10
29.8102
 20
104.617
 30
0.000000
  70
    32
  0
VERTEX
  8
0
  5
4D2
 10
29.9611
 20
104.601
 30
0.000000
  70
    32
  0
VERTEX
  8
0
  5
4D3
 10
30.1131
 20
104.586
 30
0.000000
  70
    32
  0
VERTEX
  8
0
  5
4D4
 10
30.2664
 20
104.572
 30
0.000000
  70
    32
  0
VERTEX
  8
0
  5
4D5
 10
30.4206
 20
104.560
 30
0.000000
  70
    32
  0
VERTEX
  8
0
  5
4D6
 10
30.5758
 20
104.549
 30
0.000000
  70
    32
  0
VERTEX
  8
0
  5
4D7
 10
30.7319
 20
104.538
 30
0.000000
  70
    32
  0
VERTEX
  8
0
  5
4D8
 10
30.8887
 20
104.529
 30
0.000000
  70
    32
  0
VERTEX
  8
0
  5
4D9
 10
31.0463
 20
104.522
 30
0.000000
  70
    32
  0
VERTEX
  8
0
  5
4DA
 10
31.2043
 20
104.515
 30
0.000000
  70
    32
  0
VERTEX
  8
0
  5
4DB
 10
31.3629
 20
104.510
 30
0.000000
  70
    32
  0
VERTEX
  8
0
  5
4DC
 10
31.5218
 20
104.505
 30
0.000000
  70
    32
  0
VERTEX
  8
0
  5
4DD
 10
31.6811
 20
104.502
 30
0.000000
  70
    32
  0
VERTEX
  8
0
  5
4DE
 10
31.8405
 20
104.501
 30
0.000000
  70
    32
  0
VERTEX
  8
0
  5
4DF
 10
32.0000
 20
104.500
 30
0.000000
  70
    32
  0
VERTEX
  8
0
  5
4E0
 10
32.1595
 20
104.501
 30
0.000000
  70
    32
  0
VERTEX
  8
0
  5
4E1
 10
32.3189
 20
104.502
 30
0.000000
  70
    32
  0
VERTEX
  8
0
  5
4E2
 10
32.4782
 20
104.505
 30
0.000000
  70
    32
  0
VERTEX
  8
0
  5
4E3
 10
32.6371
 20
104.510
 30
0.000000
  70
    32
  0
VERTEX
  8
0
  5
4E4
 10
32.7957
 20
104.515
 30
0.000000
  70
    32
  0
VERTEX
  8
0
  5
4E5
 10
32.9537
 20
104.522
 30
0.000000
  70
    32
  0
VERTEX
  8
0
  5
4E6
 10
33.1113
 20
104.529
 30
0.000000
  70
    32
  0
VERTEX
  8
0
  5
4E7
 10
33.2681
 20
104.538
 30
0.000000
  70
    32
  0
VERTEX
  8
0
  5
4E8
 10
33.4242
 20
104.549
 30
0.000000
  70
    32
  0
VERTEX
  8
0
  5
4E9
 10
33.5794
 20
104.560
 30
0.000000
  70
    32
  0
VERTEX
  8
0
  5
4EA
 10
33.7336
 20
104.572
 30
0.000000
  70
    32
  0
VERTEX
  8
0
  5
4EB
 10
33.8869
 20
104.586
 30
0.000000
  70
    32
  0
VERTEX
  8
0
  5
4EC
 10
34.0389
 20
104.601
 30
0.000000
  70
    32
  0
VERTEX
  8
0
  5
4ED
 10
34.1898
 20
104.617
 30
0.000000
  70
    32
  0
VERTEX
  8
0
  5
4EE
 10
34.3393
 20
104.634
 30
0.000000
  70
    32
  0
VERTEX
  8
0
  5
4EF
 10
34.4874
 20
104.652
 30
0.000000
  70
    32
  0
VERTEX
  8
0
  5
4F0
 10
34.6341
 20
104.672
 30
0.000000
  70
    32
  0
VERTEX
  8
0
  5
4F1
 10
34.7791
 20
104.692
 30
0.000000
  70
    32
  0
VERTEX
  8
0
  5
4F2
 10
34.9225
 20
104.714
 30
0.000000
  70
    32
  0
VERTEX
  8
0
  5
4F3
 10
35.0641
 20
104.736
 30
0.000000
  70
    32
  0
VERTEX
  8
0
  5
4F4
 10
35.2038
 20
104.760
 30
0.000000
  70
    32
  0
VERTEX
  8
0
  5
4F5
 10
35.3417
 20
104.785
 30
0.000000
  70
    32
  0
VERTEX
  8
0
  5
4F6
 10
35.4775
 20
104.810
 30
0.000000
  70
    32
  0
VERTEX
  8
0
  5
4F7
 10
35.6112
 20
104.837
 30
0.000000
  70
    32
  0
VERTEX
  8
0
  5
4F8
 10
35.7428
 20
104.865
 30
0.000000
  70
    32
  0
VERTEX
  8
0
  5
4F9
 10
35.8720
 20
104.894
 30
0.000000
  70
    32
  0
VERTEX
  8
0
  5
4FA
 10
35.9990
 20
104.923
 30
0.000000
  70
    32
  0
VERTEX
  8
0
  5
4FB
 10
36.1236
 20
104.954
 30
0.000000
  70
    32
  0
VERTEX
  8
0
  5
4FC
 10
36.2456
 20
104.986
 30
0.000000
  70
    32
  0
VERTEX
  8
0
  5
4FD
 10
36.3651
 20
105.018
 30
0.000000
  70
    32
  0
VERTEX
  8
0
  5
4FE
 10
36.4820
 20
105.052
 30
0.000000
  70
    32
  0
VERTEX
  8
0
  5
4FF
 10
36.5962
 20
105.086
 30
0.000000
  70
    32
  0
VERTEX
  8
0
  5
500
 10
36.7076
 20
105.121
 30
0.000000
  70
    32
  0
VERTEX
  8
0
  5
501
 10
36.8162
 20
105.157
 30
0.000000
  70
    32
  0
VERTEX
  8
0
  5
502
 10
36.9219
 20
105.194
 30
0.000000
  70
    32
  0
VERTEX
  8
0
  5
503
 10
37.0246
 20
105.231
 30
0.000000
  70
    32
  0
VERTEX
  8
0
  5
504
 10
37.1243
 20
105.270
 30
0.000000
  70
    32
  0
VERTEX
  8
0
  5
505
 10
37.2208
 20
105.309
 30
0.000000
  70
    32
  0
VERTEX
  8
0
  5
506
 10
37.3143
 20
105.348
 30
0.000000
  70
    32
  0
VERTEX
  8
0
  5
507
 10
37.4046
 20
105.389
 30
0.000000
  70
    32
  0
VERTEX
  8
0
  5
508
 10
37.4915
 20
105.430
 30
0.000000
  70
    32
  0
VERTEX
  8
0
  5
509
 10
37.5752
 20
105.472
 30
0.000000
  70
    32
  0
VERTEX
  8
0
  5
50A
 10
37.6556
 20
105.514
 30
0.000000
  70
    32
  0
VERTEX
  8
0
  5
50B
 10
37.7325
 20
105.557
 30
0.000000
  70
    32
  0
VERTEX
  8
0
  5
50C
 10
37.8060
 20
105.601
 30
0.000000
  70
    32
  0
VERTEX
  8
0
  5
50D
 10
37.8759
 20
105.645
 30
0.000000
  70
    32
  0
VERTEX
  8
0
  5
50E
 10
37.9424
 20
105.690
 30
0.000000
  70
    32
  0
VERTEX
  8
0
  5
50F
 10
38.0052
 20
105.735
 30
0.000000
  70
    32
  0
VERTEX
  8
0
  5
510
 10
38.0645
 20
105.780
 30
0.000000
  70
    32
  0
VERTEX
  8
0
  5
511
 10
38.1200
 20
105.826
 30
0.000000
  70
    32
  0
VERTEX
  8
0
  5
512
 10
38.1719
 20
105.873
 30
0.000000
  70
    32
  0
VERTEX
  8
0
  5
513
 10
38.2201
 20
105.919
 30
0.000000
  70
    32
  0
VERTEX
  8
0
  5
514
 10
38.2645
 20
105.967
 30
0.000000
  70
    32
  0
VERTEX
  8
0
  5
515
 10
38.3052
 20
106.014
 30
0.000000
  70
    32
  0
VERTEX
  8
0
  5
516
 10
38.3421
 20
106.062
 30
0.000000
  70
    32
  0
VERTEX
  8
0
  5
517
 10
38.3751
 20
106.110
 30
0.000000
  70
    32
  0
VERTEX
  8
0
  5
518
 10
38.4043
 20
106.158
 30
0.000000
  70
    32
  0
VERTEX
  8
0
  5
519
 10
38.4296
 20
106.207
 30
0.000000
  70
    32
  0
VERTEX
  8
0
  5
51A
 10
38.4511
 20
106.255
 30
0.000000
  70
    32
  0
VERTEX
  8
0
  5
51B
 10
38.4687
 20
106.304
 30
0.000000
  70
    32
  0
VERTEX
  8
0
  5
51C
 10
38.4824
 20
106.353
 30
0.000000
  70
    32
  0
VERTEX
  8
0
  5
51D
 10
38.4922
 20
106.402
 30
0.000000
  70
    32
  0
VERTEX
  8
0
  5
51E
 10
38.4980
 20
106.451
 30
0.000000
  70
    32
  0
VERTEX
  8
0
  5
51F
 10
38.5000
 20
106.500
 30
0.000000
  70
    32
  0
SEQEND
  8
0
  5
520
  0
ARC
  5
258
  8
0
 10
26.5
 20
108.5
 30
0.0
 40
1.0
 50
90.0
 51
180.0
  0
ARC
  5
259
  8
0
 10
37.5
 20
108.5
 30
0.0
 40
1.0
 50
0.0
 51
90.0
  0
LINE
  5
25A
  8
1
 10
86.5
 20
38.0
 30
0.0
 11
86.5
 21
115.0
 31
0.0
  0
LINE
  5
25B
  8
0
 10
91.5
 20
41.5
 30
0.0
 11
92.5
 21
42.5
 31
0.0
  0
LINE
  5
25C
  8
0
 10
86.5
 20
66.5
 30
0.0
 11
96.0
 21
66.5
 31
0.0
  0
LINE
  5
25D
  8
0
 10
92.5
 20
42.5
 30
0.0
 11
86.5
 21
42.5
 31
0.0
  0
LINE
  5
25E
  8
0
 10
92.5
 20
65.0
 30
0.0
 11
86.5
 21
65.0
 31
0.0
  0
LINE
  5
25F
  8
0
 10
91.5
 20
41.5
 30
0.0
 11
91.5
 21
65.0
 31
0.0
  0
LINE
  5
260
  8
0
 10
80.5
 20
66.5
 30
0.0
 11
80.5
 21
42.5
 31
0.0
  0
LINE
  5
261
  8
0
 10
81.5
 20
41.5
 30
0.0
 11
81.5
 21
65.0
 31
0.0
  0
LINE
  5
262
  8
0
 10
86.5
 20
41.5
 30
0.0
 11
81.5
 21
41.5
 31
0.0
  0
LINE
  5
263
  8
0
 10
80.5
 20
42.5
 30
0.0
 11
86.5
 21
42.5
 31
0.0
  0
LINE
  5
264
  8
0
 10
81.5
 20
41.5
 30
0.0
 11
80.5
 21
42.5
 31
0.0
  0
LINE
  5
265
  8
0
 10
86.5
 20
41.5
 30
0.0
 11
91.5
 21
41.5
 31
0.0
  0
LINE
  5
266
  8
0
 10
86.5
 20
66.5
 30
0.0
 11
77.0
 21
66.5
 31
0.0
  0
LINE
  5
267
  8
0
 10
80.5
 20
65.0
 30
0.0
 11
86.5
 21
65.0
 31
0.0
  0
LINE
  5
268
  8
0
 10
92.5
 20
66.5
 30
0.0
 11
92.5
 21
42.5
 31
0.0
  0
LINE
  5
269
  8
0
 10
77.0
 20
66.5
 30
0.0
 11
77.0
 21
76.22
 31
0.0
  0
LINE
  5
26A
  8
0
 10
96.0
 20
66.5
 30
0.0
 11
96.0
 21
80.78
 31
0.0
  0
LINE
  5
26F
  8
0
 10
74.0
 20
76.768397
 30
0.0
 11
74.0
 21
101.715075
 31
0.0
  0
LINE
  5
271
  8
0
 10
98.233373
 20
81.31601
 30
0.0
 11
75.233373
 21
75.79601
 31
0.0
  0
LINE
  5
272
  8
0
 10
74.762458
 20
102.686453
 30
0.0
 11
187.262458
 21
130.19737
 31
0.0
  0
LINE
  5
273
  8
0
 10
86.5
 20
109.5
 30
0.0
 11
92.0
 21
109.5
 31
0.0
  0
LINE
  5
274
  8
0
 10
93.0
 20
108.5
 30
0.0
 11
93.0
 21
107.146288
 31
0.0
  0
LINE
  5
275
  8
0
 10
86.5
 20
109.5
 30
0.0
 11
81.0
 21
109.5
 31
0.0
  0
LINE
  5
276
  8
0
 10
80.0
 20
108.5
 30
0.0
 11
80.0
 21
103.967249
 31
0.0
  0
ARC
  5
277
  8
0
 10
81.0
 20
108.5
 30
0.0
 40
1.0
 50
90.0
 51
180.0
  0
ARC
  5
278
  8
0
 10
92.0
 20
108.5
 30
0.0
 40
1.0
 50
0.0
 51
90.0
  0
LINE
  5
279
  8
0
 10
188.5
 20
129.225992
 30
0.0
 11
188.5
 21
117.254301
 31
0.0
  0
LINE
  5
27A
  8
0
 10
187.774721
 20
116.292777
 30
0.0
 11
171.797994
 21
111.727998
 31
0.0
  0
LINE
  5
27B
  8
0
 10
170.628846
 20
112.242309
 30
0.0
 11
169.387072
 21
114.725855
 31
0.0
  0
LINE
  5
27C
  8
0
 10
95.0
 20
107.5
 30
0.0
 11
95.0
 21
91.0
 31
0.0
  0
LINE
  5
27D
  8
0
 10
95.0
 20
91.0
 30
0.0
 11
168.178342
 21
115.227965
 31
0.0
  0
LINE
  5
27E
  8
0
 10
99.0
 20
82.288397
 30
0.0
 11
99.0
 21
87.666667
 31
0.0
  0
LINE
  5
27F
  8
0
 10
98.0
 20
87.5
 30
0.0
 11
101.0
 21
88.0
 31
0.0
  0
LINE
  5
280
  8
0
 10
101.0
 20
88.0
 30
0.0
 11
101.0
 21
92.986486
 31
0.0
  0
LINE
  5
281
  8
0
 10
98.0
 20
87.5
 30
0.0
 11
98.0
 21
91.993243
 31
0.0
  0
ARC
  5
282
  8
0
 10
75.0
 20
101.715075
 30
0.0
 40
1.0
 50
103.741515
 51
180.0
  0
ARC
  5
283
  8
0
 10
75.0
 20
76.768397
 30
0.0
 40
1.0
 50
180.0
 51
283.495733
  0
ARC
  5
284
  8
0
 10
98.0
 20
82.288397
 30
0.0
 40
1.0
 50
283.495733
 51
0.0
  0
ARC
  5
285
  8
0
 10
187.5
 20
129.225992
 30
0.0
 40
1.0
 50
0.0
 51
103.741515
  0
ARC
  5
286
  8
0
 10
187.5
 20
117.254301
 30
0.0
 40
1.0
 50
285.945396
 51
0.0
  0
ARC
  5
287
  8
0
 10
171.523273
 20
112.689522
 30
0.0
 40
1.0
 50
206.565051
 51
285.945396
  0
ARC
  5
288
  8
0
 10
168.492645
 20
114.278642
 30
0.0
 40
1.0
 50
26.565051
 51
108.31873
  0
ENDSEC
  0
EOF
