  0
SECTION
  2
HEADER
  9
$ACADVER
  1
AC1009
  9
$INSBASE
 10
0.0
 20
0.0
 30
0.0
  9
$EXTMIN
 10
27.0
 20
30.5
 30
0.0
  9
$EXTMAX
 10
178.0
 20
131.0
 30
0.0
  9
$LIMMIN
 10
0.0
 20
0.0
  9
$LIMMAX
 10
200.0
 20
150.0
  9
$ORTHOMODE
 70
     1
  9
$REGENMODE
 70
     1
  9
$FILLMODE
 70
     1
  9
$QTEXTMODE
 70
     0
  9
$MIRRTEXT
 70
     1
  9
$DRAGMODE
 70
     2
  9
$LTSCALE
 40
1.0
  9
$OSMODE
 70
     0
  9
$ATTMODE
 70
     1
  9
$TEXTSIZE
 40
2.5
  9
$TRACEWID
 40
1.0
  9
$TEXTSTYLE
  7
STANDARD
  9
$CLAYER
  8
0
  9
$CELTYPE
  6
BYLAYER
  9
$CECOLOR
 62
   256
  9
$DIMSCALE
 40
1.0
  9
$DIMASZ
 40
2.5
  9
$DIMEXO
 40
0.625
  9
$DIMDLI
 40
3.75
  9
$DIMRND
 40
0.0
  9
$DIMDLE
 40
0.0
  9
$DIMEXE
 40
1.25
  9
$DIMTP
 40
0.0
  9
$DIMTM
 40
0.0
  9
$DIMTXT
 40
2.5
  9
$DIMCEN
 40
2.5
  9
$DIMTSZ
 40
0.0
  9
$DIMTOL
 70
     0
  9
$DIMLIM
 70
     0
  9
$DIMTIH
 70
     0
  9
$DIMTOH
 70
     0
  9
$DIMSE1
 70
     0
  9
$DIMSE2
 70
     0
  9
$DIMTAD
 70
     1
  9
$DIMZIN
 70
     8
  9
$DIMBLK
  1

  9
$DIMASO
 70
     1
  9
$DIMSHO
 70
     1
  9
$DIMPOST
  1

  9
$DIMAPOST
  1

  9
$DIMALT
 70
     0
  9
$DIMALTD
 70
     4
  9
$DIMALTF
 40
0.0394
  9
$DIMLFAC
 40
1.0
  9
$DIMTOFL
 70
     1
  9
$DIMTVP
 40
0.0
  9
$DIMTIX
 70
     0
  9
$DIMSOXD
 70
     0
  9
$DIMSAH
 70
     0
  9
$DIMBLK1
  1

  9
$DIMBLK2
  1

  9
$DIMSTYLE
  2
STANDARD
  9
$DIMCLRD
 70
     0
  9
$DIMCLRE
 70
     0
  9
$DIMCLRT
 70
     0
  9
$DIMTFAC
 40
1.0
  9
$DIMGAP
 40
0.625
  9
$LUNITS
 70
     2
  9
$LUPREC
 70
     4
  9
$SKETCHINC
 40
1.0
  9
$FILLETRAD
 40
1.0
  9
$AUNITS
 70
     0
  9
$AUPREC
 70
     0
  9
$MENU
  1
.
  9
$ELEVATION
 40
0.0
  9
$PELEVATION
 40
0.0
  9
$THICKNESS
 40
0.0
  9
$LIMCHECK
 70
     0
  9
$BLIPMODE
 70
     0
  9
$CHAMFERA
 40
10.0
  9
$CHAMFERB
 40
10.0
  9
$SKPOLY
 70
     0
  9
$TDCREATE
 40
2452126.530473
  9
$TDUPDATE
 40
2452126.591981
  9
$TDINDWG
 40
0.053395
  9
$TDUSRTIMER
 40
0.053395
  9
$USRTIMER
 70
     1
  9
$ANGBASE
 50
0.0
  9
$ANGDIR
 70
     0
  9
$PDMODE
 70
     0
  9
$PDSIZE
 40
0.0
  9
$PLINEWID
 40
0.0
  9
$COORDS
 70
     2
  9
$SPLFRAME
 70
     0
  9
$SPLINETYPE
 70
     6
  9
$SPLINESEGS
 70
     8
  9
$ATTDIA
 70
     0
  9
$ATTREQ
 70
     1
  9
$HANDLING
 70
     1
  9
$HANDSEED
  5
4C2
  9
$SURFTAB1
 70
     6
  9
$SURFTAB2
 70
     6
  9
$SURFTYPE
 70
     6
  9
$SURFU
 70
     6
  9
$SURFV
 70
     6
  9
$UCSNAME
  2

  9
$UCSORG
 10
0.0
 20
0.0
 30
0.0
  9
$UCSXDIR
 10
1.0
 20
0.0
 30
0.0
  9
$UCSYDIR
 10
0.0
 20
1.0
 30
0.0
  9
$PUCSNAME
  2

  9
$PUCSORG
 10
0.0
 20
0.0
 30
0.0
  9
$PUCSXDIR
 10
1.0
 20
0.0
 30
0.0
  9
$PUCSYDIR
 10
0.0
 20
1.0
 30
0.0
  9
$USERI1
 70
     0
  9
$USERI2
 70
     0
  9
$USERI3
 70
     0
  9
$USERI4
 70
     0
  9
$USERI5
 70
     0
  9
$USERR1
 40
0.0
  9
$USERR2
 40
0.0
  9
$USERR3
 40
0.0
  9
$USERR4
 40
0.0
  9
$USERR5
 40
0.0
  9
$WORLDVIEW
 70
     1
  9
$SHADEDGE
 70
     3
  9
$SHADEDIF
 70
    70
  9
$TILEMODE
 70
     1
  9
$MAXACTVP
 70
    48
  9
$PLIMCHECK
 70
     0
  9
$PEXTMIN
 10
1.000000E+020
 20
1.000000E+020
 30
1.000000E+020
  9
$PEXTMAX
 10
-1.000000E+020
 20
-1.000000E+020
 30
-1.000000E+020
  9
$PLIMMIN
 10
0.0
 20
0.0
  9
$PLIMMAX
 10
420.0
 20
297.0
  9
$UNITMODE
 70
     0
  9
$VISRETAIN
 70
     1
  9
$PLINEGEN
 70
     0
  9
$PSLTSCALE
 70
     1
  0
ENDSEC
  0
SECTION
  2
TABLES
  0
TABLE
  2
VPORT
 70
     2
  0
VPORT
  2
*ACTIVE
 70
     0
 10
0.0
 20
0.0
 11
1.0
 21
1.0
 12
97.374571
 22
74.937083
 13
0.0
 23
0.0
 14
0.5
 24
0.5
 15
1.0
 25
1.0
 16
0.0
 26
0.0
 36
1.0
 17
0.0
 27
0.0
 37
0.0
 40
156.66443
 41
1.353571
 42
50.0
 43
0.0
 44
0.0
 50
0.0
 51
0.0
 71
     0
 72
   100
 73
     1
 74
     1
 75
     1
 76
     1
 77
     0
 78
     0
  0
ENDTAB
  0
TABLE
  2
LTYPE
 70
     3
  0
LTYPE
  2
CONTINUOUS
 70
     0
  3
Solid line
 72
    65
 73
     0
 40
0.0
  0
LTYPE
  2
CENTER
 70
     0
  3
____ _ ____ _ ____ _ ____ _ ____ _ ____ _ ____
 72
    65
 73
     4
 40
2.0
 49
1.25
 49
-0.25
 49
0.25
 49
-0.25
  0
LTYPE
  2
HIDDEN2
 70
     0
  3
Hidden (.5x) _ _ _ _ _ _ _ _ _ _ _ _ _ _ _ _ _
 72
    65
 73
     2
 40
4.7625
 49
3.175
 49
-1.5875
  0
ENDTAB
  0
TABLE
  2
LAYER
 70
     3
  0
LAYER
  2
0
 70
     0
 62
     7
  6
CONTINUOUS
  0
LAYER
  2
1
 70
     0
 62
     1
  6
CENTER
  0
LAYER
  2
2
 70
     0
 62
     2
  6
HIDDEN2
  0
ENDTAB
  0
TABLE
  2
STYLE
 70
     3
  0
STYLE
  2
STANDARD
 70
     0
 40
0.0
 41
1.0
 50
0.0
 71
     0
 42
2.5
  3
txt
  4

  0
STYLE
  2
BIGFONT
 70
     0
 40
10.0
 41
0.8
 50
0.0
 71
     0
 42
10.0
  3
txt.shx
  4
bigfont
  0
STYLE
  2

 70
     1
 40
0.0
 41
1.0
 50
0.0
 71
     0
 42
2.5
  3
ltypeshp.shx
  4

  0
ENDTAB
  0
TABLE
  2
VIEW
 70
     0
  0
ENDTAB
  0
TABLE
  2
UCS
 70
     0
  0
ENDTAB
  0
TABLE
  2
APPID
 70
     1
  0
APPID
  2
ACAD
 70
     0
  0
ENDTAB
  0
TABLE
  2
DIMSTYLE
 70
     1
  0
DIMSTYLE
  2
STANDARD
 70
     0
  3

  4

  5

  6

  7

 40
1.0
 41
0.18
 42
0.0625
 43
0.38
 44
0.18
 45
0.0
 46
0.0
 47
0.0
 48
0.0
140
0.18
141
0.09
142
0.0
143
25.4
144
1.0
145
0.0
146
1.0
147
0.09
 71
     0
 72
     0
 73
     1
 74
     1
 75
     0
 76
     0
 77
     0
 78
     0
170
     0
171
     2
172
     0
173
     0
174
     0
175
     0
176
     0
177
     0
178
     0
  0
ENDTAB
  0
ENDSEC
  0
SECTION
  2
BLOCKS
  0
BLOCK
  8
0
  2
$MODEL_SPACE
 70
     0
 10
0.0
 20
0.0
 30
0.0
  3
$MODEL_SPACE
  1

  0
ENDBLK
  5
1A
  8
0
  0
BLOCK
 67
     1
  8
0
  2
$PAPER_SPACE
 70
     0
 10
0.0
 20
0.0
 30
0.0
  3
$PAPER_SPACE
  1

  0
ENDBLK
  5
17
 67
     1
  8
0
  0
BLOCK
  8
0
  2
A$C00836C8E
 70
     0
 10
0.0
 20
0.0
 30
0.0
  3
A$C00836C8E
  1

  0
ARC
  5
24
  8
0
 10
81.5
 20
18.004234
 30
0.0
 40
1.0
 50
180.0
 51
285.042801
  0
LINE
  5
25
  8
0
 10
81.239334
 20
35.69962
 30
0.0
 11
129.239334
 21
48.65962
 31
0.0
  0
LINE
  5
26
  8
1
 10
8.0
 20
50.5
 30
0.0
 11
8.0
 21
0.0
 31
0.0
  0
LINE
  5
27
  8
0
 10
2.0
 20
13.5
 30
0.0
 11
2.0
 21
17.267081
 31
0.0
  0
LINE
  5
28
  8
0
 10
14.0
 20
13.5
 30
0.0
 11
14.0
 21
17.267081
 31
0.0
  0
LINE
  5
29
  8
0
 10
8.0
 20
13.5
 30
0.0
 11
2.0
 21
13.5
 31
0.0
  0
LINE
  5
2A
  8
0
 10
9.5
 20
3.5
 30
0.0
 11
9.5
 21
12.5
 31
0.0
  0
LINE
  5
2B
  8
0
 10
10.0
 20
13.5
 30
0.0
 11
10.0
 21
4.0
 31
0.0
  0
LINE
  5
2C
  8
0
 10
6.0
 20
13.5
 30
0.0
 11
6.0
 21
4.0
 31
0.0
  0
LINE
  5
2D
  8
0
 10
6.5
 20
3.5
 30
0.0
 11
6.5
 21
12.5
 31
0.0
  0
LINE
  5
2E
  8
0
 10
6.5
 20
3.5
 30
0.0
 11
8.0
 21
3.5
 31
0.0
  0
LINE
  5
2F
  8
0
 10
6.0
 20
4.0
 30
0.0
 11
8.0
 21
4.0
 31
0.0
  0
LINE
  5
30
  8
0
 10
6.0
 20
4.0
 30
0.0
 11
6.5
 21
3.5
 31
0.0
  0
LINE
  5
31
  8
0
 10
10.0
 20
4.0
 30
0.0
 11
8.0
 21
4.0
 31
0.0
  0
LINE
  5
32
  8
0
 10
9.5
 20
3.5
 30
0.0
 11
8.0
 21
3.5
 31
0.0
  0
LINE
  5
33
  8
0
 10
10.0
 20
4.0
 30
0.0
 11
9.5
 21
3.5
 31
0.0
  0
LINE
  5
34
  8
0
 10
8.0
 20
13.5
 30
0.0
 11
14.0
 21
13.5
 31
0.0
  0
LINE
  5
35
  8
0
 10
6.0
 20
12.5
 30
0.0
 11
8.0
 21
12.5
 31
0.0
  0
LINE
  5
36
  8
0
 10
10.0
 20
12.5
 30
0.0
 11
8.0
 21
12.5
 31
0.0
  0
LINE
  5
37
  8
0
 10
16.0
 20
18.5
 30
0.0
 11
16.0
 21
37.5
 31
0.0
  0
LINE
  5
38
  8
0
 10
0.0
 20
18.5
 30
0.0
 11
0.0
 21
37.5
 31
0.0
  0
POLYLINE
  5
39
  8
0
 10
0.267585
 20
38.012942
 30
0.0
 66
     1
 70
     8
  0
VERTEX
  8
0
  5
238
 10
0.267585
 20
38.0129
 30
0.000000
  70
    32
  0
VERTEX
  8
0
  5
239
 10
0.212081
 20
37.9575
 30
0.000000
  70
    32
  0
VERTEX
  8
0
  5
23A
 10
0.162945
 20
37.9016
 30
0.000000
  70
    32
  0
VERTEX
  8
0
  5
23B
 10
0.120218
 20
37.8454
 30
0.000000
  70
    32
  0
VERTEX
  8
0
  5
23C
 10
0.0839342
 20
37.7890
 30
0.000000
  70
    32
  0
VERTEX
  8
0
  5
23D
 10
0.0541232
 20
37.7323
 30
0.000000
  70
    32
  0
VERTEX
  8
0
  5
23E
 10
0.0308095
 20
37.6754
 30
0.000000
  70
    32
  0
VERTEX
  8
0
  5
23F
 10
0.0140121
 20
37.6183
 30
0.000000
  70
    32
  0
VERTEX
  8
0
  5
240
 10
0.00374481
 20
37.5612
 30
0.000000
  70
    32
  0
VERTEX
  8
0
  5
241
 10
1.60367e-005
 20
37.5040
 30
0.000000
  70
    32
  0
VERTEX
  8
0
  5
242
 10
0.00282881
 20
37.4468
 30
0.000000
  70
    32
  0
VERTEX
  8
0
  5
243
 10
0.0121808
 20
37.3897
 30
0.000000
  70
    32
  0
VERTEX
  8
0
  5
244
 10
0.0280644
 20
37.3326
 30
0.000000
  70
    32
  0
VERTEX
  8
0
  5
245
 10
0.0504667
 20
37.2757
 30
0.000000
  70
    32
  0
VERTEX
  8
0
  5
246
 10
0.0793692
 20
37.2190
 30
0.000000
  70
    32
  0
VERTEX
  8
0
  5
247
 10
0.114748
 20
37.1625
 30
0.000000
  70
    32
  0
VERTEX
  8
0
  5
248
 10
0.156575
 20
37.1062
 30
0.000000
  70
    32
  0
VERTEX
  8
0
  5
249
 10
0.204816
 20
37.0503
 30
0.000000
  70
    32
  0
VERTEX
  8
0
  5
24A
 10
0.259430
 20
36.9948
 30
0.000000
  70
    32
  0
VERTEX
  8
0
  5
24B
 10
0.320374
 20
36.9397
 30
0.000000
  70
    32
  0
VERTEX
  8
0
  5
24C
 10
0.387598
 20
36.8850
 30
0.000000
  70
    32
  0
VERTEX
  8
0
  5
24D
 10
0.461046
 20
36.8309
 30
0.000000
  70
    32
  0
VERTEX
  8
0
  5
24E
 10
0.540659
 20
36.7772
 30
0.000000
  70
    32
  0
VERTEX
  8
0
  5
24F
 10
0.626371
 20
36.7242
 30
0.000000
  70
    32
  0
VERTEX
  8
0
  5
250
 10
0.718112
 20
36.6718
 30
0.000000
  70
    32
  0
VERTEX
  8
0
  5
251
 10
0.815808
 20
36.6201
 30
0.000000
  70
    32
  0
VERTEX
  8
0
  5
252
 10
0.919379
 20
36.5691
 30
0.000000
  70
    32
  0
VERTEX
  8
0
  5
253
 10
1.02874
 20
36.5189
 30
0.000000
  70
    32
  0
VERTEX
  8
0
  5
254
 10
1.14380
 20
36.4695
 30
0.000000
  70
    32
  0
VERTEX
  8
0
  5
255
 10
1.26447
 20
36.4209
 30
0.000000
  70
    32
  0
VERTEX
  8
0
  5
256
 10
1.39064
 20
36.3732
 30
0.000000
  70
    32
  0
VERTEX
  8
0
  5
257
 10
1.52222
 20
36.3264
 30
0.000000
  70
    32
  0
VERTEX
  8
0
  5
258
 10
1.65910
 20
36.2806
 30
0.000000
  70
    32
  0
VERTEX
  8
0
  5
259
 10
1.80116
 20
36.2357
 30
0.000000
  70
    32
  0
VERTEX
  8
0
  5
25A
 10
1.94829
 20
36.1919
 30
0.000000
  70
    32
  0
VERTEX
  8
0
  5
25B
 10
2.10036
 20
36.1492
 30
0.000000
  70
    32
  0
VERTEX
  8
0
  5
25C
 10
2.25727
 20
36.1076
 30
0.000000
  70
    32
  0
VERTEX
  8
0
  5
25D
 10
2.41886
 20
36.0671
 30
0.000000
  70
    32
  0
VERTEX
  8
0
  5
25E
 10
2.58502
 20
36.0278
 30
0.000000
  70
    32
  0
VERTEX
  8
0
  5
25F
 10
2.75561
 20
35.9897
 30
0.000000
  70
    32
  0
VERTEX
  8
0
  5
260
 10
2.93049
 20
35.9528
 30
0.000000
  70
    32
  0
VERTEX
  8
0
  5
261
 10
3.10951
 20
35.9172
 30
0.000000
  70
    32
  0
VERTEX
  8
0
  5
262
 10
3.29254
 20
35.8829
 30
0.000000
  70
    32
  0
VERTEX
  8
0
  5
263
 10
3.47941
 20
35.8499
 30
0.000000
  70
    32
  0
VERTEX
  8
0
  5
264
 10
3.66997
 20
35.8183
 30
0.000000
  70
    32
  0
VERTEX
  8
0
  5
265
 10
3.86408
 20
35.7880
 30
0.000000
  70
    32
  0
VERTEX
  8
0
  5
266
 10
4.06157
 20
35.7592
 30
0.000000
  70
    32
  0
VERTEX
  8
0
  5
267
 10
4.26228
 20
35.7317
 30
0.000000
  70
    32
  0
VERTEX
  8
0
  5
268
 10
4.46605
 20
35.7057
 30
0.000000
  70
    32
  0
VERTEX
  8
0
  5
269
 10
4.67271
 20
35.6812
 30
0.000000
  70
    32
  0
VERTEX
  8
0
  5
26A
 10
4.88208
 20
35.6581
 30
0.000000
  70
    32
  0
VERTEX
  8
0
  5
26B
 10
5.09401
 20
35.6366
 30
0.000000
  70
    32
  0
VERTEX
  8
0
  5
26C
 10
5.30831
 20
35.6166
 30
0.000000
  70
    32
  0
VERTEX
  8
0
  5
26D
 10
5.52482
 20
35.5981
 30
0.000000
  70
    32
  0
VERTEX
  8
0
  5
26E
 10
5.74335
 20
35.5812
 30
0.000000
  70
    32
  0
VERTEX
  8
0
  5
26F
 10
5.96372
 20
35.5659
 30
0.000000
  70
    32
  0
VERTEX
  8
0
  5
270
 10
6.18576
 20
35.5521
 30
0.000000
  70
    32
  0
VERTEX
  8
0
  5
271
 10
6.40928
 20
35.5399
 30
0.000000
  70
    32
  0
VERTEX
  8
0
  5
272
 10
6.63410
 20
35.5294
 30
0.000000
  70
    32
  0
VERTEX
  8
0
  5
273
 10
6.86004
 20
35.5204
 30
0.000000
  70
    32
  0
VERTEX
  8
0
  5
274
 10
7.08691
 20
35.5131
 30
0.000000
  70
    32
  0
VERTEX
  8
0
  5
275
 10
7.31453
 20
35.5074
 30
0.000000
  70
    32
  0
VERTEX
  8
0
  5
276
 10
7.54271
 20
35.5033
 30
0.000000
  70
    32
  0
VERTEX
  8
0
  5
277
 10
7.77126
 20
35.5008
 30
0.000000
  70
    32
  0
VERTEX
  8
0
  5
278
 10
8.00000
 20
35.5000
 30
0.000000
  70
    32
  0
VERTEX
  8
0
  5
279
 10
8.22874
 20
35.5008
 30
0.000000
  70
    32
  0
VERTEX
  8
0
  5
27A
 10
8.45729
 20
35.5033
 30
0.000000
  70
    32
  0
VERTEX
  8
0
  5
27B
 10
8.68547
 20
35.5074
 30
0.000000
  70
    32
  0
VERTEX
  8
0
  5
27C
 10
8.91309
 20
35.5131
 30
0.000000
  70
    32
  0
VERTEX
  8
0
  5
27D
 10
9.13996
 20
35.5204
 30
0.000000
  70
    32
  0
VERTEX
  8
0
  5
27E
 10
9.36590
 20
35.5294
 30
0.000000
  70
    32
  0
VERTEX
  8
0
  5
27F
 10
9.59072
 20
35.5399
 30
0.000000
  70
    32
  0
VERTEX
  8
0
  5
280
 10
9.81424
 20
35.5521
 30
0.000000
  70
    32
  0
VERTEX
  8
0
  5
281
 10
10.0363
 20
35.5659
 30
0.000000
  70
    32
  0
VERTEX
  8
0
  5
282
 10
10.2567
 20
35.5812
 30
0.000000
  70
    32
  0
VERTEX
  8
0
  5
283
 10
10.4752
 20
35.5981
 30
0.000000
  70
    32
  0
VERTEX
  8
0
  5
284
 10
10.6917
 20
35.6166
 30
0.000000
  70
    32
  0
VERTEX
  8
0
  5
285
 10
10.9060
 20
35.6366
 30
0.000000
  70
    32
  0
VERTEX
  8
0
  5
286
 10
11.1179
 20
35.6581
 30
0.000000
  70
    32
  0
VERTEX
  8
0
  5
287
 10
11.3273
 20
35.6812
 30
0.000000
  70
    32
  0
VERTEX
  8
0
  5
288
 10
11.5339
 20
35.7057
 30
0.000000
  70
    32
  0
VERTEX
  8
0
  5
289
 10
11.7377
 20
35.7317
 30
0.000000
  70
    32
  0
VERTEX
  8
0
  5
28A
 10
11.9384
 20
35.7592
 30
0.000000
  70
    32
  0
VERTEX
  8
0
  5
28B
 10
12.1359
 20
35.7880
 30
0.000000
  70
    32
  0
VERTEX
  8
0
  5
28C
 10
12.3300
 20
35.8183
 30
0.000000
  70
    32
  0
VERTEX
  8
0
  5
28D
 10
12.5206
 20
35.8499
 30
0.000000
  70
    32
  0
VERTEX
  8
0
  5
28E
 10
12.7075
 20
35.8829
 30
0.000000
  70
    32
  0
VERTEX
  8
0
  5
28F
 10
12.8905
 20
35.9172
 30
0.000000
  70
    32
  0
VERTEX
  8
0
  5
290
 10
13.0695
 20
35.9528
 30
0.000000
  70
    32
  0
VERTEX
  8
0
  5
291
 10
13.2444
 20
35.9897
 30
0.000000
  70
    32
  0
VERTEX
  8
0
  5
292
 10
13.4150
 20
36.0278
 30
0.000000
  70
    32
  0
VERTEX
  8
0
  5
293
 10
13.5811
 20
36.0671
 30
0.000000
  70
    32
  0
VERTEX
  8
0
  5
294
 10
13.7427
 20
36.1076
 30
0.000000
  70
    32
  0
VERTEX
  8
0
  5
295
 10
13.8996
 20
36.1492
 30
0.000000
  70
    32
  0
VERTEX
  8
0
  5
296
 10
14.0517
 20
36.1919
 30
0.000000
  70
    32
  0
VERTEX
  8
0
  5
297
 10
14.1988
 20
36.2357
 30
0.000000
  70
    32
  0
VERTEX
  8
0
  5
298
 10
14.3409
 20
36.2806
 30
0.000000
  70
    32
  0
VERTEX
  8
0
  5
299
 10
14.4778
 20
36.3264
 30
0.000000
  70
    32
  0
VERTEX
  8
0
  5
29A
 10
14.6094
 20
36.3732
 30
0.000000
  70
    32
  0
VERTEX
  8
0
  5
29B
 10
14.7355
 20
36.4209
 30
0.000000
  70
    32
  0
VERTEX
  8
0
  5
29C
 10
14.8562
 20
36.4695
 30
0.000000
  70
    32
  0
VERTEX
  8
0
  5
29D
 10
14.9713
 20
36.5189
 30
0.000000
  70
    32
  0
VERTEX
  8
0
  5
29E
 10
15.0806
 20
36.5691
 30
0.000000
  70
    32
  0
VERTEX
  8
0
  5
29F
 10
15.1842
 20
36.6201
 30
0.000000
  70
    32
  0
VERTEX
  8
0
  5
2A0
 10
15.2819
 20
36.6718
 30
0.000000
  70
    32
  0
VERTEX
  8
0
  5
2A1
 10
15.3736
 20
36.7242
 30
0.000000
  70
    32
  0
VERTEX
  8
0
  5
2A2
 10
15.4593
 20
36.7772
 30
0.000000
  70
    32
  0
VERTEX
  8
0
  5
2A3
 10
15.5390
 20
36.8309
 30
0.000000
  70
    32
  0
VERTEX
  8
0
  5
2A4
 10
15.6124
 20
36.8850
 30
0.000000
  70
    32
  0
VERTEX
  8
0
  5
2A5
 10
15.6796
 20
36.9397
 30
0.000000
  70
    32
  0
VERTEX
  8
0
  5
2A6
 10
15.7406
 20
36.9948
 30
0.000000
  70
    32
  0
VERTEX
  8
0
  5
2A7
 10
15.7952
 20
37.0503
 30
0.000000
  70
    32
  0
VERTEX
  8
0
  5
2A8
 10
15.8434
 20
37.1062
 30
0.000000
  70
    32
  0
VERTEX
  8
0
  5
2A9
 10
15.8853
 20
37.1625
 30
0.000000
  70
    32
  0
VERTEX
  8
0
  5
2AA
 10
15.9206
 20
37.2190
 30
0.000000
  70
    32
  0
VERTEX
  8
0
  5
2AB
 10
15.9495
 20
37.2757
 30
0.000000
  70
    32
  0
VERTEX
  8
0
  5
2AC
 10
15.9719
 20
37.3326
 30
0.000000
  70
    32
  0
VERTEX
  8
0
  5
2AD
 10
15.9878
 20
37.3897
 30
0.000000
  70
    32
  0
VERTEX
  8
0
  5
2AE
 10
15.9972
 20
37.4468
 30
0.000000
  70
    32
  0
VERTEX
  8
0
  5
2AF
 10
16.0000
 20
37.5040
 30
0.000000
  70
    32
  0
VERTEX
  8
0
  5
2B0
 10
15.9963
 20
37.5612
 30
0.000000
  70
    32
  0
VERTEX
  8
0
  5
2B1
 10
15.9860
 20
37.6183
 30
0.000000
  70
    32
  0
VERTEX
  8
0
  5
2B2
 10
15.9692
 20
37.6754
 30
0.000000
  70
    32
  0
VERTEX
  8
0
  5
2B3
 10
15.9459
 20
37.7323
 30
0.000000
  70
    32
  0
VERTEX
  8
0
  5
2B4
 10
15.9161
 20
37.7890
 30
0.000000
  70
    32
  0
VERTEX
  8
0
  5
2B5
 10
15.8798
 20
37.8454
 30
0.000000
  70
    32
  0
VERTEX
  8
0
  5
2B6
 10
15.8371
 20
37.9016
 30
0.000000
  70
    32
  0
VERTEX
  8
0
  5
2B7
 10
15.7879
 20
37.9575
 30
0.000000
  70
    32
  0
VERTEX
  8
0
  5
2B8
 10
15.7324
 20
38.0129
 30
0.000000
  70
    32
  0
SEQEND
  8
0
  5
2B9
  0
ARC
  5
3A
  8
0
 10
8.0
 20
45.0
 30
0.0
 40
8.5
 50
241.927513
 51
298.072487
  0
POLYLINE
  5
3B
  8
0
 10
0.0
 20
18.5
 30
0.0
 66
     1
 70
     8
  0
VERTEX
  8
0
  5
2BA
 10
0.000000
 20
18.5000
 30
0.000000
  70
    32
  0
VERTEX
  8
0
  5
2BB
 10
0.00240945
 20
18.4543
 30
0.000000
  70
    32
  0
VERTEX
  8
0
  5
2BC
 10
0.00963635
 20
18.4085
 30
0.000000
  70
    32
  0
VERTEX
  8
0
  5
2BD
 10
0.0216763
 20
18.3629
 30
0.000000
  70
    32
  0
VERTEX
  8
0
  5
2BE
 10
0.0385222
 20
18.3173
 30
0.000000
  70
    32
  0
VERTEX
  8
0
  5
2BF
 10
0.0601637
 20
18.2718
 30
0.000000
  70
    32
  0
VERTEX
  8
0
  5
2C0
 10
0.0865879
 20
18.2265
 30
0.000000
  70
    32
  0
VERTEX
  8
0
  5
2C1
 10
0.117779
 20
18.1813
 30
0.000000
  70
    32
  0
VERTEX
  8
0
  5
2C2
 10
0.153718
 20
18.1364
 30
0.000000
  70
    32
  0
VERTEX
  8
0
  5
2C3
 10
0.194383
 20
18.0916
 30
0.000000
  70
    32
  0
VERTEX
  8
0
  5
2C4
 10
0.239750
 20
18.0471
 30
0.000000
  70
    32
  0
VERTEX
  8
0
  5
2C5
 10
0.289791
 20
18.0028
 30
0.000000
  70
    32
  0
VERTEX
  8
0
  5
2C6
 10
0.344477
 20
17.9589
 30
0.000000
  70
    32
  0
VERTEX
  8
0
  5
2C7
 10
0.403775
 20
17.9153
 30
0.000000
  70
    32
  0
VERTEX
  8
0
  5
2C8
 10
0.467647
 20
17.8720
 30
0.000000
  70
    32
  0
VERTEX
  8
0
  5
2C9
 10
0.536058
 20
17.8292
 30
0.000000
  70
    32
  0
VERTEX
  8
0
  5
2CA
 10
0.608964
 20
17.7867
 30
0.000000
  70
    32
  0
VERTEX
  8
0
  5
2CB
 10
0.686322
 20
17.7446
 30
0.000000
  70
    32
  0
VERTEX
  8
0
  5
2CC
 10
0.768086
 20
17.7030
 30
0.000000
  70
    32
  0
VERTEX
  8
0
  5
2CD
 10
0.854206
 20
17.6619
 30
0.000000
  70
    32
  0
VERTEX
  8
0
  5
2CE
 10
0.944630
 20
17.6213
 30
0.000000
  70
    32
  0
VERTEX
  8
0
  5
2CF
 10
1.03930
 20
17.5812
 30
0.000000
  70
    32
  0
VERTEX
  8
0
  5
2D0
 10
1.13817
 20
17.5417
 30
0.000000
  70
    32
  0
VERTEX
  8
0
  5
2D1
 10
1.24117
 20
17.5028
 30
0.000000
  70
    32
  0
VERTEX
  8
0
  5
2D2
 10
1.34824
 20
17.4644
 30
0.000000
  70
    32
  0
VERTEX
  8
0
  5
2D3
 10
1.45932
 20
17.4267
 30
0.000000
  70
    32
  0
VERTEX
  8
0
  5
2D4
 10
1.57434
 20
17.3896
 30
0.000000
  70
    32
  0
VERTEX
  8
0
  5
2D5
 10
1.69323
 20
17.3532
 30
0.000000
  70
    32
  0
VERTEX
  8
0
  5
2D6
 10
1.81592
 20
17.3175
 30
0.000000
  70
    32
  0
VERTEX
  8
0
  5
2D7
 10
1.94233
 20
17.2825
 30
0.000000
  70
    32
  0
VERTEX
  8
0
  5
2D8
 10
2.07239
 20
17.2482
 30
0.000000
  70
    32
  0
VERTEX
  8
0
  5
2D9
 10
2.20602
 20
17.2147
 30
0.000000
  70
    32
  0
VERTEX
  8
0
  5
2DA
 10
2.34315
 20
17.1820
 30
0.000000
  70
    32
  0
VERTEX
  8
0
  5
2DB
 10
2.48368
 20
17.1500
 30
0.000000
  70
    32
  0
VERTEX
  8
0
  5
2DC
 10
2.62753
 20
17.1189
 30
0.000000
  70
    32
  0
VERTEX
  8
0
  5
2DD
 10
2.77462
 20
17.0886
 30
0.000000
  70
    32
  0
VERTEX
  8
0
  5
2DE
 10
2.92485
 20
17.0591
 30
0.000000
  70
    32
  0
VERTEX
  8
0
  5
2DF
 10
3.07815
 20
17.0305
 30
0.000000
  70
    32
  0
VERTEX
  8
0
  5
2E0
 10
3.23441
 20
17.0028
 30
0.000000
  70
    32
  0
VERTEX
  8
0
  5
2E1
 10
3.39353
 20
16.9760
 30
0.000000
  70
    32
  0
VERTEX
  8
0
  5
2E2
 10
3.55544
 20
16.9501
 30
0.000000
  70
    32
  0
VERTEX
  8
0
  5
2E3
 10
3.72002
 20
16.9252
 30
0.000000
  70
    32
  0
VERTEX
  8
0
  5
2E4
 10
3.88718
 20
16.9012
 30
0.000000
  70
    32
  0
VERTEX
  8
0
  5
2E5
 10
4.05681
 20
16.8782
 30
0.000000
  70
    32
  0
VERTEX
  8
0
  5
2E6
 10
4.22883
 20
16.8561
 30
0.000000
  70
    32
  0
VERTEX
  8
0
  5
2E7
 10
4.40311
 20
16.8350
 30
0.000000
  70
    32
  0
VERTEX
  8
0
  5
2E8
 10
4.57956
 20
16.8150
 30
0.000000
  70
    32
  0
VERTEX
  8
0
  5
2E9
 10
4.75807
 20
16.7959
 30
0.000000
  70
    32
  0
VERTEX
  8
0
  5
2EA
 10
4.93853
 20
16.7779
 30
0.000000
  70
    32
  0
VERTEX
  8
0
  5
2EB
 10
5.12084
 20
16.7609
 30
0.000000
  70
    32
  0
VERTEX
  8
0
  5
2EC
 10
5.30488
 20
16.7450
 30
0.000000
  70
    32
  0
VERTEX
  8
0
  5
2ED
 10
5.49055
 20
16.7301
 30
0.000000
  70
    32
  0
VERTEX
  8
0
  5
2EE
 10
5.67772
 20
16.7163
 30
0.000000
  70
    32
  0
VERTEX
  8
0
  5
2EF
 10
5.86630
 20
16.7035
 30
0.000000
  70
    32
  0
VERTEX
  8
0
  5
2F0
 10
6.05616
 20
16.6919
 30
0.000000
  70
    32
  0
VERTEX
  8
0
  5
2F1
 10
6.24719
 20
16.6813
 30
0.000000
  70
    32
  0
VERTEX
  8
0
  5
2F2
 10
6.43928
 20
16.6718
 30
0.000000
  70
    32
  0
VERTEX
  8
0
  5
2F3
 10
6.63230
 20
16.6634
 30
0.000000
  70
    32
  0
VERTEX
  8
0
  5
2F4
 10
6.82616
 20
16.6562
 30
0.000000
  70
    32
  0
VERTEX
  8
0
  5
2F5
 10
7.02071
 20
16.6500
 30
0.000000
  70
    32
  0
VERTEX
  8
0
  5
2F6
 10
7.21586
 20
16.6450
 30
0.000000
  70
    32
  0
VERTEX
  8
0
  5
2F7
 10
7.41148
 20
16.6411
 30
0.000000
  70
    32
  0
VERTEX
  8
0
  5
2F8
 10
7.60746
 20
16.6382
 30
0.000000
  70
    32
  0
VERTEX
  8
0
  5
2F9
 10
7.80367
 20
16.6366
 30
0.000000
  70
    32
  0
VERTEX
  8
0
  5
2FA
 10
8.00000
 20
16.6360
 30
0.000000
  70
    32
  0
VERTEX
  8
0
  5
2FB
 10
8.19633
 20
16.6366
 30
0.000000
  70
    32
  0
VERTEX
  8
0
  5
2FC
 10
8.39254
 20
16.6382
 30
0.000000
  70
    32
  0
VERTEX
  8
0
  5
2FD
 10
8.58852
 20
16.6411
 30
0.000000
  70
    32
  0
VERTEX
  8
0
  5
2FE
 10
8.78414
 20
16.6450
 30
0.000000
  70
    32
  0
VERTEX
  8
0
  5
2FF
 10
8.97929
 20
16.6500
 30
0.000000
  70
    32
  0
VERTEX
  8
0
  5
300
 10
9.17384
 20
16.6562
 30
0.000000
  70
    32
  0
VERTEX
  8
0
  5
301
 10
9.36770
 20
16.6634
 30
0.000000
  70
    32
  0
VERTEX
  8
0
  5
302
 10
9.56072
 20
16.6718
 30
0.000000
  70
    32
  0
VERTEX
  8
0
  5
303
 10
9.75281
 20
16.6813
 30
0.000000
  70
    32
  0
VERTEX
  8
0
  5
304
 10
9.94384
 20
16.6919
 30
0.000000
  70
    32
  0
VERTEX
  8
0
  5
305
 10
10.1337
 20
16.7035
 30
0.000000
  70
    32
  0
VERTEX
  8
0
  5
306
 10
10.3223
 20
16.7163
 30
0.000000
  70
    32
  0
VERTEX
  8
0
  5
307
 10
10.5095
 20
16.7301
 30
0.000000
  70
    32
  0
VERTEX
  8
0
  5
308
 10
10.6951
 20
16.7450
 30
0.000000
  70
    32
  0
VERTEX
  8
0
  5
309
 10
10.8792
 20
16.7609
 30
0.000000
  70
    32
  0
VERTEX
  8
0
  5
30A
 10
11.0615
 20
16.7779
 30
0.000000
  70
    32
  0
VERTEX
  8
0
  5
30B
 10
11.2419
 20
16.7959
 30
0.000000
  70
    32
  0
VERTEX
  8
0
  5
30C
 10
11.4204
 20
16.8150
 30
0.000000
  70
    32
  0
VERTEX
  8
0
  5
30D
 10
11.5969
 20
16.8350
 30
0.000000
  70
    32
  0
VERTEX
  8
0
  5
30E
 10
11.7712
 20
16.8561
 30
0.000000
  70
    32
  0
VERTEX
  8
0
  5
30F
 10
11.9432
 20
16.8782
 30
0.000000
  70
    32
  0
VERTEX
  8
0
  5
310
 10
12.1128
 20
16.9012
 30
0.000000
  70
    32
  0
VERTEX
  8
0
  5
311
 10
12.2800
 20
16.9252
 30
0.000000
  70
    32
  0
VERTEX
  8
0
  5
312
 10
12.4446
 20
16.9501
 30
0.000000
  70
    32
  0
VERTEX
  8
0
  5
313
 10
12.6065
 20
16.9760
 30
0.000000
  70
    32
  0
VERTEX
  8
0
  5
314
 10
12.7656
 20
17.0028
 30
0.000000
  70
    32
  0
VERTEX
  8
0
  5
315
 10
12.9219
 20
17.0305
 30
0.000000
  70
    32
  0
VERTEX
  8
0
  5
316
 10
13.0751
 20
17.0591
 30
0.000000
  70
    32
  0
VERTEX
  8
0
  5
317
 10
13.2254
 20
17.0886
 30
0.000000
  70
    32
  0
VERTEX
  8
0
  5
318
 10
13.3725
 20
17.1189
 30
0.000000
  70
    32
  0
VERTEX
  8
0
  5
319
 10
13.5163
 20
17.1500
 30
0.000000
  70
    32
  0
VERTEX
  8
0
  5
31A
 10
13.6569
 20
17.1820
 30
0.000000
  70
    32
  0
VERTEX
  8
0
  5
31B
 10
13.7940
 20
17.2147
 30
0.000000
  70
    32
  0
VERTEX
  8
0
  5
31C
 10
13.9276
 20
17.2482
 30
0.000000
  70
    32
  0
VERTEX
  8
0
  5
31D
 10
14.0577
 20
17.2825
 30
0.000000
  70
    32
  0
VERTEX
  8
0
  5
31E
 10
14.1841
 20
17.3175
 30
0.000000
  70
    32
  0
VERTEX
  8
0
  5
31F
 10
14.3068
 20
17.3532
 30
0.000000
  70
    32
  0
VERTEX
  8
0
  5
320
 10
14.4257
 20
17.3896
 30
0.000000
  70
    32
  0
VERTEX
  8
0
  5
321
 10
14.5407
 20
17.4267
 30
0.000000
  70
    32
  0
VERTEX
  8
0
  5
322
 10
14.6518
 20
17.4644
 30
0.000000
  70
    32
  0
VERTEX
  8
0
  5
323
 10
14.7588
 20
17.5028
 30
0.000000
  70
    32
  0
VERTEX
  8
0
  5
324
 10
14.8618
 20
17.5417
 30
0.000000
  70
    32
  0
VERTEX
  8
0
  5
325
 10
14.9607
 20
17.5812
 30
0.000000
  70
    32
  0
VERTEX
  8
0
  5
326
 10
15.0554
 20
17.6213
 30
0.000000
  70
    32
  0
VERTEX
  8
0
  5
327
 10
15.1458
 20
17.6619
 30
0.000000
  70
    32
  0
VERTEX
  8
0
  5
328
 10
15.2319
 20
17.7030
 30
0.000000
  70
    32
  0
VERTEX
  8
0
  5
329
 10
15.3137
 20
17.7446
 30
0.000000
  70
    32
  0
VERTEX
  8
0
  5
32A
 10
15.3910
 20
17.7867
 30
0.000000
  70
    32
  0
VERTEX
  8
0
  5
32B
 10
15.4639
 20
17.8292
 30
0.000000
  70
    32
  0
VERTEX
  8
0
  5
32C
 10
15.5324
 20
17.8720
 30
0.000000
  70
    32
  0
VERTEX
  8
0
  5
32D
 10
15.5962
 20
17.9153
 30
0.000000
  70
    32
  0
VERTEX
  8
0
  5
32E
 10
15.6555
 20
17.9589
 30
0.000000
  70
    32
  0
VERTEX
  8
0
  5
32F
 10
15.7102
 20
18.0028
 30
0.000000
  70
    32
  0
VERTEX
  8
0
  5
330
 10
15.7603
 20
18.0471
 30
0.000000
  70
    32
  0
VERTEX
  8
0
  5
331
 10
15.8056
 20
18.0916
 30
0.000000
  70
    32
  0
VERTEX
  8
0
  5
332
 10
15.8463
 20
18.1364
 30
0.000000
  70
    32
  0
VERTEX
  8
0
  5
333
 10
15.8822
 20
18.1813
 30
0.000000
  70
    32
  0
VERTEX
  8
0
  5
334
 10
15.9134
 20
18.2265
 30
0.000000
  70
    32
  0
VERTEX
  8
0
  5
335
 10
15.9398
 20
18.2718
 30
0.000000
  70
    32
  0
VERTEX
  8
0
  5
336
 10
15.9615
 20
18.3173
 30
0.000000
  70
    32
  0
VERTEX
  8
0
  5
337
 10
15.9783
 20
18.3629
 30
0.000000
  70
    32
  0
VERTEX
  8
0
  5
338
 10
15.9904
 20
18.4085
 30
0.000000
  70
    32
  0
VERTEX
  8
0
  5
339
 10
15.9976
 20
18.4543
 30
0.000000
  70
    32
  0
VERTEX
  8
0
  5
33A
 10
16.0000
 20
18.5000
 30
0.000000
  70
    32
  0
SEQEND
  8
0
  5
33B
  0
LINE
  5
3C
  8
0
 10
2.029365
 20
36.168846
 30
0.0
 11
2.0
 21
36.0
 31
0.0
  0
LINE
  5
3D
  8
0
 10
13.970635
 20
36.168846
 30
0.0
 11
14.0
 21
36.0
 31
0.0
  0
LINE
  5
3E
  8
0
 10
4.0
 20
47.5
 30
0.0
 11
2.514032
 21
38.955682
 31
0.0
  0
ARC
  5
3F
  8
0
 10
8.0
 20
42.916667
 30
0.0
 40
6.083333
 50
48.88791
 51
131.11209
  0
LINE
  5
40
  8
0
 10
8.0
 20
40.0
 30
0.0
 11
11.5
 21
40.0
 31
0.0
  0
LINE
  5
41
  8
0
 10
8.0
 20
40.0
 30
0.0
 11
4.5
 21
40.0
 31
0.0
  0
LINE
  5
42
  8
0
 10
4.0
 20
39.5
 30
0.0
 11
4.0
 21
37.5
 31
0.0
  0
ARC
  5
43
  8
0
 10
4.5
 20
39.5
 30
0.0
 40
0.5
 50
90.0
 51
180.0
  0
LINE
  5
44
  8
0
 10
12.0
 20
47.5
 30
0.0
 11
13.485968
 21
38.955682
 31
0.0
  0
LINE
  5
45
  8
0
 10
12.0
 20
39.5
 30
0.0
 11
12.0
 21
37.5
 31
0.0
  0
ARC
  5
46
  8
0
 10
11.5
 20
39.5
 30
0.0
 40
0.5
 50
0.0
 51
90.0
  0
LINE
  5
47
  8
0
 10
80.5
 20
34.734191
 30
0.0
 11
80.5
 21
18.004234
 31
0.0
  0
ARC
  5
48
  8
0
 10
81.5
 20
34.734191
 30
0.0
 40
1.0
 50
105.109575
 51
180.0
  0
LINE
  5
49
  8
0
 10
94.5
 20
13.5
 30
0.0
 11
94.5
 21
20.4625
 31
0.0
  0
LINE
  5
4A
  8
0
 10
82.5
 20
13.5
 30
0.0
 11
82.5
 21
17.2375
 31
0.0
  0
LINE
  5
4B
  8
1
 10
88.5
 20
43.0
 30
0.0
 11
88.5
 21
0.0
 31
0.0
  0
LINE
  5
4C
  8
0
 10
90.5
 20
13.5
 30
0.0
 11
90.5
 21
4.0
 31
0.0
  0
LINE
  5
4D
  8
0
 10
90.0
 20
3.5
 30
0.0
 11
90.0
 21
12.5
 31
0.0
  0
LINE
  5
4E
  8
0
 10
87.0
 20
3.5
 30
0.0
 11
87.0
 21
12.5
 31
0.0
  0
LINE
  5
4F
  8
0
 10
86.5
 20
13.5
 30
0.0
 11
86.5
 21
4.0
 31
0.0
  0
LINE
  5
50
  8
0
 10
90.5
 20
4.0
 30
0.0
 11
88.5
 21
4.0
 31
0.0
  0
LINE
  5
51
  8
0
 10
90.0
 20
3.5
 30
0.0
 11
88.5
 21
3.5
 31
0.0
  0
LINE
  5
52
  8
0
 10
87.0
 20
3.5
 30
0.0
 11
88.5
 21
3.5
 31
0.0
  0
LINE
  5
53
  8
0
 10
86.5
 20
4.0
 30
0.0
 11
88.5
 21
4.0
 31
0.0
  0
LINE
  5
54
  8
0
 10
86.5
 20
4.0
 30
0.0
 11
87.0
 21
3.5
 31
0.0
  0
LINE
  5
55
  8
0
 10
90.5
 20
4.0
 30
0.0
 11
90.0
 21
3.5
 31
0.0
  0
LINE
  5
56
  8
0
 10
88.5
 20
13.5
 30
0.0
 11
94.5
 21
13.5
 31
0.0
  0
LINE
  5
57
  8
0
 10
90.5
 20
12.5
 30
0.0
 11
88.5
 21
12.5
 31
0.0
  0
LINE
  5
58
  8
0
 10
88.5
 20
13.5
 30
0.0
 11
82.5
 21
13.5
 31
0.0
  0
LINE
  5
59
  8
0
 10
86.5
 20
12.5
 30
0.0
 11
88.5
 21
12.5
 31
0.0
  0
LINE
  5
5A
  8
0
 10
118.0
 20
37.0
 30
0.0
 11
94.5
 21
30.0
 31
0.0
  0
LINE
  5
5B
  8
0
 10
94.5
 20
30.0
 30
0.0
 11
94.5
 21
39.28
 31
0.0
  0
LINE
  5
5C
  8
0
 10
84.5
 20
36.58
 30
0.0
 11
84.5
 21
39.5
 31
0.0
  0
LINE
  5
5D
  8
0
 10
96.5
 20
21.766734
 30
0.0
 11
96.5
 21
30.595745
 31
0.0
  0
LINE
  5
5E
  8
0
 10
95.759541
 20
20.801001
 30
0.0
 11
81.759541
 21
17.038501
 31
0.0
  0
ARC
  5
5F
  8
0
 10
95.5
 20
21.766734
 30
0.0
 40
1.0
 50
285.042801
 51
0.0
  0
LINE
  5
60
  8
0
 10
85.0
 20
40.0
 30
0.0
 11
92.0
 21
40.0
 31
0.0
  0
ARC
  5
61
  8
0
 10
85.0
 20
39.5
 30
0.0
 40
0.5
 50
90.0
 51
180.0
  0
ARC
  5
62
  8
0
 10
92.0
 20
39.5
 30
0.0
 40
0.5
 50
0.0
 51
90.0
  0
LINE
  5
63
  8
0
 10
92.5
 20
39.5
 30
0.0
 11
92.5
 21
38.74
 31
0.0
  0
LINE
  5
64
  8
0
 10
129.752422
 20
38.80498
 30
0.0
 11
119.554394
 21
36.144624
 31
0.0
  0
ARC
  5
65
  8
0
 10
119.301972
 20
37.112242
 30
0.0
 40
1.0
 50
225.0
 51
284.620874
  0
LINE
  5
66
  8
0
 10
118.594865
 20
36.405135
 30
0.0
 11
118.0
 21
37.0
 31
0.0
  0
ARC
  5
67
  8
0
 10
129.5
 20
47.694191
 30
0.0
 40
1.0
 50
0.0
 51
105.109575
  0
LINE
  5
68
  8
0
 10
130.5
 20
47.694191
 30
0.0
 11
130.5
 21
39.772597
 31
0.0
  0
ARC
  5
69
  8
0
 10
129.5
 20
39.772597
 30
0.0
 40
1.0
 50
284.620874
 51
0.0
  0
ENDBLK
  5
6B
  8
0
  0
ENDSEC
  0
SECTION
  2
ENTITIES
  0
LINE
  5
1C1
  8
1
 10
38.0
 20
131.0
 30
0.0
 11
38.0
 21
30.5
 31
0.0
  0
LINE
  5
1C2
  8
0
 10
38.0
 20
76.0
 30
0.0
 11
30.0
 21
76.0
 31
0.0
  0
LINE
  5
1C3
  8
0
 10
30.0
 20
76.0
 30
0.0
 11
30.0
 21
84.284129
 31
0.0
  0
LINE
  5
1C4
  8
0
 10
46.0
 20
76.0
 30
0.0
 11
46.0
 21
84.284129
 31
0.0
  0
LINE
  5
1C5
  8
0
 10
38.0
 20
76.0
 30
0.0
 11
46.0
 21
76.0
 31
0.0
  0
POLYLINE
  5
1C8
  8
0
 10
27.0
 20
86.0
 30
0.0
 66
     1
 70
     8
  0
VERTEX
  8
0
  5
33C
 10
27.0000
 20
86.0000
 30
0.000000
  70
    32
  0
VERTEX
  8
0
  5
33D
 10
27.0033
 20
85.9386
 30
0.000000
  70
    32
  0
VERTEX
  8
0
  5
33E
 10
27.0132
 20
85.8773
 30
0.000000
  70
    32
  0
VERTEX
  8
0
  5
33F
 10
27.0298
 20
85.8161
 30
0.000000
  70
    32
  0
VERTEX
  8
0
  5
340
 10
27.0530
 20
85.7550
 30
0.000000
  70
    32
  0
VERTEX
  8
0
  5
341
 10
27.0827
 20
85.6940
 30
0.000000
  70
    32
  0
VERTEX
  8
0
  5
342
 10
27.1191
 20
85.6332
 30
0.000000
  70
    32
  0
VERTEX
  8
0
  5
343
 10
27.1619
 20
85.5726
 30
0.000000
  70
    32
  0
VERTEX
  8
0
  5
344
 10
27.2114
 20
85.5123
 30
0.000000
  70
    32
  0
VERTEX
  8
0
  5
345
 10
27.2673
 20
85.4522
 30
0.000000
  70
    32
  0
VERTEX
  8
0
  5
346
 10
27.3297
 20
85.3925
 30
0.000000
  70
    32
  0
VERTEX
  8
0
  5
347
 10
27.3985
 20
85.3332
 30
0.000000
  70
    32
  0
VERTEX
  8
0
  5
348
 10
27.4737
 20
85.2743
 30
0.000000
  70
    32
  0
VERTEX
  8
0
  5
349
 10
27.5552
 20
85.2158
 30
0.000000
  70
    32
  0
VERTEX
  8
0
  5
34A
 10
27.6430
 20
85.1578
 30
0.000000
  70
    32
  0
VERTEX
  8
0
  5
34B
 10
27.7371
 20
85.1003
 30
0.000000
  70
    32
  0
VERTEX
  8
0
  5
34C
 10
27.8373
 20
85.0433
 30
0.000000
  70
    32
  0
VERTEX
  8
0
  5
34D
 10
27.9437
 20
84.9869
 30
0.000000
  70
    32
  0
VERTEX
  8
0
  5
34E
 10
28.0561
 20
84.9311
 30
0.000000
  70
    32
  0
VERTEX
  8
0
  5
34F
 10
28.1745
 20
84.8760
 30
0.000000
  70
    32
  0
VERTEX
  8
0
  5
350
 10
28.2989
 20
84.8215
 30
0.000000
  70
    32
  0
VERTEX
  8
0
  5
351
 10
28.4290
 20
84.7678
 30
0.000000
  70
    32
  0
VERTEX
  8
0
  5
352
 10
28.5650
 20
84.7147
 30
0.000000
  70
    32
  0
VERTEX
  8
0
  5
353
 10
28.7066
 20
84.6625
 30
0.000000
  70
    32
  0
VERTEX
  8
0
  5
354
 10
28.8538
 20
84.6111
 30
0.000000
  70
    32
  0
VERTEX
  8
0
  5
355
 10
29.0066
 20
84.5605
 30
0.000000
  70
    32
  0
VERTEX
  8
0
  5
356
 10
29.1647
 20
84.5107
 30
0.000000
  70
    32
  0
VERTEX
  8
0
  5
357
 10
29.3282
 20
84.4619
 30
0.000000
  70
    32
  0
VERTEX
  8
0
  5
358
 10
29.4969
 20
84.4140
 30
0.000000
  70
    32
  0
VERTEX
  8
0
  5
359
 10
29.6707
 20
84.3671
 30
0.000000
  70
    32
  0
VERTEX
  8
0
  5
35A
 10
29.8495
 20
84.3211
 30
0.000000
  70
    32
  0
VERTEX
  8
0
  5
35B
 10
30.0333
 20
84.2761
 30
0.000000
  70
    32
  0
VERTEX
  8
0
  5
35C
 10
30.2218
 20
84.2322
 30
0.000000
  70
    32
  0
VERTEX
  8
0
  5
35D
 10
30.4151
 20
84.1894
 30
0.000000
  70
    32
  0
VERTEX
  8
0
  5
35E
 10
30.6129
 20
84.1476
 30
0.000000
  70
    32
  0
VERTEX
  8
0
  5
35F
 10
30.8151
 20
84.1070
 30
0.000000
  70
    32
  0
VERTEX
  8
0
  5
360
 10
31.0217
 20
84.0675
 30
0.000000
  70
    32
  0
VERTEX
  8
0
  5
361
 10
31.2325
 20
84.0291
 30
0.000000
  70
    32
  0
VERTEX
  8
0
  5
362
 10
31.4473
 20
83.9920
 30
0.000000
  70
    32
  0
VERTEX
  8
0
  5
363
 10
31.6661
 20
83.9560
 30
0.000000
  70
    32
  0
VERTEX
  8
0
  5
364
 10
31.8887
 20
83.9213
 30
0.000000
  70
    32
  0
VERTEX
  8
0
  5
365
 10
32.1150
 20
83.8879
 30
0.000000
  70
    32
  0
VERTEX
  8
0
  5
366
 10
32.3449
 20
83.8557
 30
0.000000
  70
    32
  0
VERTEX
  8
0
  5
367
 10
32.5781
 20
83.8248
 30
0.000000
  70
    32
  0
VERTEX
  8
0
  5
368
 10
32.8146
 20
83.7952
 30
0.000000
  70
    32
  0
VERTEX
  8
0
  5
369
 10
33.0543
 20
83.7669
 30
0.000000
  70
    32
  0
VERTEX
  8
0
  5
36A
 10
33.2969
 20
83.7400
 30
0.000000
  70
    32
  0
VERTEX
  8
0
  5
36B
 10
33.5423
 20
83.7145
 30
0.000000
  70
    32
  0
VERTEX
  8
0
  5
36C
 10
33.7905
 20
83.6903
 30
0.000000
  70
    32
  0
VERTEX
  8
0
  5
36D
 10
34.0412
 20
83.6675
 30
0.000000
  70
    32
  0
VERTEX
  8
0
  5
36E
 10
34.2942
 20
83.6461
 30
0.000000
  70
    32
  0
VERTEX
  8
0
  5
36F
 10
34.5495
 20
83.6262
 30
0.000000
  70
    32
  0
VERTEX
  8
0
  5
370
 10
34.8069
 20
83.6076
 30
0.000000
  70
    32
  0
VERTEX
  8
0
  5
371
 10
35.0662
 20
83.5906
 30
0.000000
  70
    32
  0
VERTEX
  8
0
  5
372
 10
35.3272
 20
83.5749
 30
0.000000
  70
    32
  0
VERTEX
  8
0
  5
373
 10
35.5899
 20
83.5607
 30
0.000000
  70
    32
  0
VERTEX
  8
0
  5
374
 10
35.8540
 20
83.5480
 30
0.000000
  70
    32
  0
VERTEX
  8
0
  5
375
 10
36.1194
 20
83.5368
 30
0.000000
  70
    32
  0
VERTEX
  8
0
  5
376
 10
36.3860
 20
83.5271
 30
0.000000
  70
    32
  0
VERTEX
  8
0
  5
377
 10
36.6535
 20
83.5188
 30
0.000000
  70
    32
  0
VERTEX
  8
0
  5
378
 10
36.9218
 20
83.5120
 30
0.000000
  70
    32
  0
VERTEX
  8
0
  5
379
 10
37.1908
 20
83.5068
 30
0.000000
  70
    32
  0
VERTEX
  8
0
  5
37A
 10
37.4603
 20
83.5030
 30
0.000000
  70
    32
  0
VERTEX
  8
0
  5
37B
 10
37.7300
 20
83.5007
 30
0.000000
  70
    32
  0
VERTEX
  8
0
  5
37C
 10
38.0000
 20
83.5000
 30
0.000000
  70
    32
  0
VERTEX
  8
0
  5
37D
 10
38.2700
 20
83.5007
 30
0.000000
  70
    32
  0
VERTEX
  8
0
  5
37E
 10
38.5397
 20
83.5030
 30
0.000000
  70
    32
  0
VERTEX
  8
0
  5
37F
 10
38.8092
 20
83.5068
 30
0.000000
  70
    32
  0
VERTEX
  8
0
  5
380
 10
39.0782
 20
83.5120
 30
0.000000
  70
    32
  0
VERTEX
  8
0
  5
381
 10
39.3465
 20
83.5188
 30
0.000000
  70
    32
  0
VERTEX
  8
0
  5
382
 10
39.6140
 20
83.5271
 30
0.000000
  70
    32
  0
VERTEX
  8
0
  5
383
 10
39.8806
 20
83.5368
 30
0.000000
  70
    32
  0
VERTEX
  8
0
  5
384
 10
40.1460
 20
83.5480
 30
0.000000
  70
    32
  0
VERTEX
  8
0
  5
385
 10
40.4101
 20
83.5607
 30
0.000000
  70
    32
  0
VERTEX
  8
0
  5
386
 10
40.6728
 20
83.5749
 30
0.000000
  70
    32
  0
VERTEX
  8
0
  5
387
 10
40.9338
 20
83.5906
 30
0.000000
  70
    32
  0
VERTEX
  8
0
  5
388
 10
41.1931
 20
83.6076
 30
0.000000
  70
    32
  0
VERTEX
  8
0
  5
389
 10
41.4505
 20
83.6262
 30
0.000000
  70
    32
  0
VERTEX
  8
0
  5
38A
 10
41.7058
 20
83.6461
 30
0.000000
  70
    32
  0
VERTEX
  8
0
  5
38B
 10
41.9588
 20
83.6675
 30
0.000000
  70
    32
  0
VERTEX
  8
0
  5
38C
 10
42.2095
 20
83.6903
 30
0.000000
  70
    32
  0
VERTEX
  8
0
  5
38D
 10
42.4577
 20
83.7145
 30
0.000000
  70
    32
  0
VERTEX
  8
0
  5
38E
 10
42.7031
 20
83.7400
 30
0.000000
  70
    32
  0
VERTEX
  8
0
  5
38F
 10
42.9457
 20
83.7669
 30
0.000000
  70
    32
  0
VERTEX
  8
0
  5
390
 10
43.1854
 20
83.7952
 30
0.000000
  70
    32
  0
VERTEX
  8
0
  5
391
 10
43.4219
 20
83.8248
 30
0.000000
  70
    32
  0
VERTEX
  8
0
  5
392
 10
43.6551
 20
83.8557
 30
0.000000
  70
    32
  0
VERTEX
  8
0
  5
393
 10
43.8850
 20
83.8879
 30
0.000000
  70
    32
  0
VERTEX
  8
0
  5
394
 10
44.1113
 20
83.9213
 30
0.000000
  70
    32
  0
VERTEX
  8
0
  5
395
 10
44.3339
 20
83.9560
 30
0.000000
  70
    32
  0
VERTEX
  8
0
  5
396
 10
44.5527
 20
83.9920
 30
0.000000
  70
    32
  0
VERTEX
  8
0
  5
397
 10
44.7675
 20
84.0291
 30
0.000000
  70
    32
  0
VERTEX
  8
0
  5
398
 10
44.9783
 20
84.0675
 30
0.000000
  70
    32
  0
VERTEX
  8
0
  5
399
 10
45.1849
 20
84.1070
 30
0.000000
  70
    32
  0
VERTEX
  8
0
  5
39A
 10
45.3871
 20
84.1476
 30
0.000000
  70
    32
  0
VERTEX
  8
0
  5
39B
 10
45.5849
 20
84.1894
 30
0.000000
  70
    32
  0
VERTEX
  8
0
  5
39C
 10
45.7782
 20
84.2322
 30
0.000000
  70
    32
  0
VERTEX
  8
0
  5
39D
 10
45.9667
 20
84.2761
 30
0.000000
  70
    32
  0
VERTEX
  8
0
  5
39E
 10
46.1505
 20
84.3211
 30
0.000000
  70
    32
  0
VERTEX
  8
0
  5
39F
 10
46.3293
 20
84.3671
 30
0.000000
  70
    32
  0
VERTEX
  8
0
  5
3A0
 10
46.5031
 20
84.4140
 30
0.000000
  70
    32
  0
VERTEX
  8
0
  5
3A1
 10
46.6718
 20
84.4619
 30
0.000000
  70
    32
  0
VERTEX
  8
0
  5
3A2
 10
46.8353
 20
84.5107
 30
0.000000
  70
    32
  0
VERTEX
  8
0
  5
3A3
 10
46.9934
 20
84.5605
 30
0.000000
  70
    32
  0
VERTEX
  8
0
  5
3A4
 10
47.1462
 20
84.6111
 30
0.000000
  70
    32
  0
VERTEX
  8
0
  5
3A5
 10
47.2934
 20
84.6625
 30
0.000000
  70
    32
  0
VERTEX
  8
0
  5
3A6
 10
47.4350
 20
84.7147
 30
0.000000
  70
    32
  0
VERTEX
  8
0
  5
3A7
 10
47.5710
 20
84.7678
 30
0.000000
  70
    32
  0
VERTEX
  8
0
  5
3A8
 10
47.7011
 20
84.8215
 30
0.000000
  70
    32
  0
VERTEX
  8
0
  5
3A9
 10
47.8255
 20
84.8760
 30
0.000000
  70
    32
  0
VERTEX
  8
0
  5
3AA
 10
47.9439
 20
84.9311
 30
0.000000
  70
    32
  0
VERTEX
  8
0
  5
3AB
 10
48.0563
 20
84.9869
 30
0.000000
  70
    32
  0
VERTEX
  8
0
  5
3AC
 10
48.1627
 20
85.0433
 30
0.000000
  70
    32
  0
VERTEX
  8
0
  5
3AD
 10
48.2629
 20
85.1003
 30
0.000000
  70
    32
  0
VERTEX
  8
0
  5
3AE
 10
48.3570
 20
85.1578
 30
0.000000
  70
    32
  0
VERTEX
  8
0
  5
3AF
 10
48.4448
 20
85.2158
 30
0.000000
  70
    32
  0
VERTEX
  8
0
  5
3B0
 10
48.5263
 20
85.2743
 30
0.000000
  70
    32
  0
VERTEX
  8
0
  5
3B1
 10
48.6015
 20
85.3332
 30
0.000000
  70
    32
  0
VERTEX
  8
0
  5
3B2
 10
48.6703
 20
85.3925
 30
0.000000
  70
    32
  0
VERTEX
  8
0
  5
3B3
 10
48.7327
 20
85.4522
 30
0.000000
  70
    32
  0
VERTEX
  8
0
  5
3B4
 10
48.7886
 20
85.5123
 30
0.000000
  70
    32
  0
VERTEX
  8
0
  5
3B5
 10
48.8381
 20
85.5726
 30
0.000000
  70
    32
  0
VERTEX
  8
0
  5
3B6
 10
48.8809
 20
85.6332
 30
0.000000
  70
    32
  0
VERTEX
  8
0
  5
3B7
 10
48.9173
 20
85.6940
 30
0.000000
  70
    32
  0
VERTEX
  8
0
  5
3B8
 10
48.9470
 20
85.7550
 30
0.000000
  70
    32
  0
VERTEX
  8
0
  5
3B9
 10
48.9702
 20
85.8161
 30
0.000000
  70
    32
  0
VERTEX
  8
0
  5
3BA
 10
48.9868
 20
85.8773
 30
0.000000
  70
    32
  0
VERTEX
  8
0
  5
3BB
 10
48.9967
 20
85.9386
 30
0.000000
  70
    32
  0
VERTEX
  8
0
  5
3BC
 10
49.0000
 20
86.0000
 30
0.000000
  70
    32
  0
SEQEND
  8
0
  5
3BD
  0
LINE
  5
1CB
  8
0
 10
49.0
 20
86.0
 30
0.0
 11
49.0
 21
110.0
 31
0.0
  0
LINE
  5
1CC
  8
0
 10
27.0
 20
86.0
 30
0.0
 11
27.0
 21
110.0
 31
0.0
  0
POLYLINE
  5
1CD
  8
0
 10
27.655517
 20
111.360197
 30
0.0
 66
     1
 70
     8
  0
VERTEX
  8
0
  5
3BE
 10
27.6555
 20
111.360
 30
0.000000
  70
    32
  0
VERTEX
  8
0
  5
3BF
 10
27.5481
 20
111.247
 30
0.000000
  70
    32
  0
VERTEX
  8
0
  5
3C0
 10
27.4501
 20
111.132
 30
0.000000
  70
    32
  0
VERTEX
  8
0
  5
3C1
 10
27.3615
 20
111.017
 30
0.000000
  70
    32
  0
VERTEX
  8
0
  5
3C2
 10
27.2825
 20
110.901
 30
0.000000
  70
    32
  0
VERTEX
  8
0
  5
3C3
 10
27.2131
 20
110.783
 30
0.000000
  70
    32
  0
VERTEX
  8
0
  5
3C4
 10
27.1534
 20
110.666
 30
0.000000
  70
    32
  0
VERTEX
  8
0
  5
3C5
 10
27.1034
 20
110.547
 30
0.000000
  70
    32
  0
VERTEX
  8
0
  5
3C6
 10
27.0632
 20
110.428
 30
0.000000
  70
    32
  0
VERTEX
  8
0
  5
3C7
 10
27.0328
 20
110.309
 30
0.000000
  70
    32
  0
VERTEX
  8
0
  5
3C8
 10
27.0123
 20
110.189
 30
0.000000
  70
    32
  0
VERTEX
  8
0
  5
3C9
 10
27.0017
 20
110.069
 30
0.000000
  70
    32
  0
VERTEX
  8
0
  5
3CA
 10
27.0009
 20
109.950
 30
0.000000
  70
    32
  0
VERTEX
  8
0
  5
3CB
 10
27.0100
 20
109.830
 30
0.000000
  70
    32
  0
VERTEX
  8
0
  5
3CC
 10
27.0289
 20
109.710
 30
0.000000
  70
    32
  0
VERTEX
  8
0
  5
3CD
 10
27.0577
 20
109.591
 30
0.000000
  70
    32
  0
VERTEX
  8
0
  5
3CE
 10
27.0964
 20
109.472
 30
0.000000
  70
    32
  0
VERTEX
  8
0
  5
3CF
 10
27.1448
 20
109.353
 30
0.000000
  70
    32
  0
VERTEX
  8
0
  5
3D0
 10
27.2030
 20
109.235
 30
0.000000
  70
    32
  0
VERTEX
  8
0
  5
3D1
 10
27.2708
 20
109.118
 30
0.000000
  70
    32
  0
VERTEX
  8
0
  5
3D2
 10
27.3483
 20
109.001
 30
0.000000
  70
    32
  0
VERTEX
  8
0
  5
3D3
 10
27.4354
 20
108.886
 30
0.000000
  70
    32
  0
VERTEX
  8
0
  5
3D4
 10
27.5319
 20
108.771
 30
0.000000
  70
    32
  0
VERTEX
  8
0
  5
3D5
 10
27.6379
 20
108.658
 30
0.000000
  70
    32
  0
VERTEX
  8
0
  5
3D6
 10
27.7531
 20
108.545
 30
0.000000
  70
    32
  0
VERTEX
  8
0
  5
3D7
 10
27.8776
 20
108.434
 30
0.000000
  70
    32
  0
VERTEX
  8
0
  5
3D8
 10
28.0111
 20
108.325
 30
0.000000
  70
    32
  0
VERTEX
  8
0
  5
3D9
 10
28.1536
 20
108.217
 30
0.000000
  70
    32
  0
VERTEX
  8
0
  5
3DA
 10
28.3050
 20
108.110
 30
0.000000
  70
    32
  0
VERTEX
  8
0
  5
3DB
 10
28.4650
 20
108.005
 30
0.000000
  70
    32
  0
VERTEX
  8
0
  5
3DC
 10
28.6337
 20
107.902
 30
0.000000
  70
    32
  0
VERTEX
  8
0
  5
3DD
 10
28.8107
 20
107.801
 30
0.000000
  70
    32
  0
VERTEX
  8
0
  5
3DE
 10
28.9959
 20
107.702
 30
0.000000
  70
    32
  0
VERTEX
  8
0
  5
3DF
 10
29.1893
 20
107.605
 30
0.000000
  70
    32
  0
VERTEX
  8
0
  5
3E0
 10
29.3906
 20
107.510
 30
0.000000
  70
    32
  0
VERTEX
  8
0
  5
3E1
 10
29.5996
 20
107.418
 30
0.000000
  70
    32
  0
VERTEX
  8
0
  5
3E2
 10
29.8161
 20
107.327
 30
0.000000
  70
    32
  0
VERTEX
  8
0
  5
3E3
 10
30.0400
 20
107.239
 30
0.000000
  70
    32
  0
VERTEX
  8
0
  5
3E4
 10
30.2710
 20
107.154
 30
0.000000
  70
    32
  0
VERTEX
  8
0
  5
3E5
 10
30.5090
 20
107.071
 30
0.000000
  70
    32
  0
VERTEX
  8
0
  5
3E6
 10
30.7537
 20
106.991
 30
0.000000
  70
    32
  0
VERTEX
  8
0
  5
3E7
 10
31.0049
 20
106.913
 30
0.000000
  70
    32
  0
VERTEX
  8
0
  5
3E8
 10
31.2624
 20
106.838
 30
0.000000
  70
    32
  0
VERTEX
  8
0
  5
3E9
 10
31.5259
 20
106.766
 30
0.000000
  70
    32
  0
VERTEX
  8
0
  5
3EA
 10
31.7953
 20
106.697
 30
0.000000
  70
    32
  0
VERTEX
  8
0
  5
3EB
 10
32.0702
 20
106.631
 30
0.000000
  70
    32
  0
VERTEX
  8
0
  5
3EC
 10
32.3504
 20
106.568
 30
0.000000
  70
    32
  0
VERTEX
  8
0
  5
3ED
 10
32.6357
 20
106.508
 30
0.000000
  70
    32
  0
VERTEX
  8
0
  5
3EE
 10
32.9259
 20
106.451
 30
0.000000
  70
    32
  0
VERTEX
  8
0
  5
3EF
 10
33.2206
 20
106.397
 30
0.000000
  70
    32
  0
VERTEX
  8
0
  5
3F0
 10
33.5195
 20
106.347
 30
0.000000
  70
    32
  0
VERTEX
  8
0
  5
3F1
 10
33.8225
 20
106.300
 30
0.000000
  70
    32
  0
VERTEX
  8
0
  5
3F2
 10
34.1293
 20
106.256
 30
0.000000
  70
    32
  0
VERTEX
  8
0
  5
3F3
 10
34.4395
 20
106.215
 30
0.000000
  70
    32
  0
VERTEX
  8
0
  5
3F4
 10
34.7529
 20
106.178
 30
0.000000
  70
    32
  0
VERTEX
  8
0
  5
3F5
 10
35.0693
 20
106.145
 30
0.000000
  70
    32
  0
VERTEX
  8
0
  5
3F6
 10
35.3883
 20
106.114
 30
0.000000
  70
    32
  0
VERTEX
  8
0
  5
3F7
 10
35.7096
 20
106.088
 30
0.000000
  70
    32
  0
VERTEX
  8
0
  5
3F8
 10
36.0329
 20
106.064
 30
0.000000
  70
    32
  0
VERTEX
  8
0
  5
3F9
 10
36.3581
 20
106.045
 30
0.000000
  70
    32
  0
VERTEX
  8
0
  5
3FA
 10
36.6847
 20
106.029
 30
0.000000
  70
    32
  0
VERTEX
  8
0
  5
3FB
 10
37.0125
 20
106.016
 30
0.000000
  70
    32
  0
VERTEX
  8
0
  5
3FC
 10
37.3412
 20
106.007
 30
0.000000
  70
    32
  0
VERTEX
  8
0
  5
3FD
 10
37.6704
 20
106.002
 30
0.000000
  70
    32
  0
VERTEX
  8
0
  5
3FE
 10
38.0000
 20
106.000
 30
0.000000
  70
    32
  0
VERTEX
  8
0
  5
3FF
 10
38.3296
 20
106.002
 30
0.000000
  70
    32
  0
VERTEX
  8
0
  5
400
 10
38.6588
 20
106.007
 30
0.000000
  70
    32
  0
VERTEX
  8
0
  5
401
 10
38.9875
 20
106.016
 30
0.000000
  70
    32
  0
VERTEX
  8
0
  5
402
 10
39.3153
 20
106.029
 30
0.000000
  70
    32
  0
VERTEX
  8
0
  5
403
 10
39.6419
 20
106.045
 30
0.000000
  70
    32
  0
VERTEX
  8
0
  5
404
 10
39.9671
 20
106.064
 30
0.000000
  70
    32
  0
VERTEX
  8
0
  5
405
 10
40.2904
 20
106.088
 30
0.000000
  70
    32
  0
VERTEX
  8
0
  5
406
 10
40.6117
 20
106.114
 30
0.000000
  70
    32
  0
VERTEX
  8
0
  5
407
 10
40.9307
 20
106.145
 30
0.000000
  70
    32
  0
VERTEX
  8
0
  5
408
 10
41.2471
 20
106.178
 30
0.000000
  70
    32
  0
VERTEX
  8
0
  5
409
 10
41.5605
 20
106.215
 30
0.000000
  70
    32
  0
VERTEX
  8
0
  5
40A
 10
41.8707
 20
106.256
 30
0.000000
  70
    32
  0
VERTEX
  8
0
  5
40B
 10
42.1775
 20
106.300
 30
0.000000
  70
    32
  0
VERTEX
  8
0
  5
40C
 10
42.4805
 20
106.347
 30
0.000000
  70
    32
  0
VERTEX
  8
0
  5
40D
 10
42.7794
 20
106.397
 30
0.000000
  70
    32
  0
VERTEX
  8
0
  5
40E
 10
43.0741
 20
106.451
 30
0.000000
  70
    32
  0
VERTEX
  8
0
  5
40F
 10
43.3643
 20
106.508
 30
0.000000
  70
    32
  0
VERTEX
  8
0
  5
410
 10
43.6496
 20
106.568
 30
0.000000
  70
    32
  0
VERTEX
  8
0
  5
411
 10
43.9298
 20
106.631
 30
0.000000
  70
    32
  0
VERTEX
  8
0
  5
412
 10
44.2047
 20
106.697
 30
0.000000
  70
    32
  0
VERTEX
  8
0
  5
413
 10
44.4741
 20
106.766
 30
0.000000
  70
    32
  0
VERTEX
  8
0
  5
414
 10
44.7376
 20
106.838
 30
0.000000
  70
    32
  0
VERTEX
  8
0
  5
415
 10
44.9951
 20
106.913
 30
0.000000
  70
    32
  0
VERTEX
  8
0
  5
416
 10
45.2463
 20
106.991
 30
0.000000
  70
    32
  0
VERTEX
  8
0
  5
417
 10
45.4910
 20
107.071
 30
0.000000
  70
    32
  0
VERTEX
  8
0
  5
418
 10
45.7290
 20
107.154
 30
0.000000
  70
    32
  0
VERTEX
  8
0
  5
419
 10
45.9600
 20
107.239
 30
0.000000
  70
    32
  0
VERTEX
  8
0
  5
41A
 10
46.1839
 20
107.327
 30
0.000000
  70
    32
  0
VERTEX
  8
0
  5
41B
 10
46.4004
 20
107.418
 30
0.000000
  70
    32
  0
VERTEX
  8
0
  5
41C
 10
46.6094
 20
107.510
 30
0.000000
  70
    32
  0
VERTEX
  8
0
  5
41D
 10
46.8107
 20
107.605
 30
0.000000
  70
    32
  0
VERTEX
  8
0
  5
41E
 10
47.0041
 20
107.702
 30
0.000000
  70
    32
  0
VERTEX
  8
0
  5
41F
 10
47.1893
 20
107.801
 30
0.000000
  70
    32
  0
VERTEX
  8
0
  5
420
 10
47.3663
 20
107.902
 30
0.000000
  70
    32
  0
VERTEX
  8
0
  5
421
 10
47.5350
 20
108.005
 30
0.000000
  70
    32
  0
VERTEX
  8
0
  5
422
 10
47.6950
 20
108.110
 30
0.000000
  70
    32
  0
VERTEX
  8
0
  5
423
 10
47.8464
 20
108.217
 30
0.000000
  70
    32
  0
VERTEX
  8
0
  5
424
 10
47.9889
 20
108.325
 30
0.000000
  70
    32
  0
VERTEX
  8
0
  5
425
 10
48.1224
 20
108.434
 30
0.000000
  70
    32
  0
VERTEX
  8
0
  5
426
 10
48.2469
 20
108.545
 30
0.000000
  70
    32
  0
VERTEX
  8
0
  5
427
 10
48.3621
 20
108.658
 30
0.000000
  70
    32
  0
VERTEX
  8
0
  5
428
 10
48.4681
 20
108.771
 30
0.000000
  70
    32
  0
VERTEX
  8
0
  5
429
 10
48.5646
 20
108.886
 30
0.000000
  70
    32
  0
VERTEX
  8
0
  5
42A
 10
48.6517
 20
109.001
 30
0.000000
  70
    32
  0
VERTEX
  8
0
  5
42B
 10
48.7292
 20
109.118
 30
0.000000
  70
    32
  0
VERTEX
  8
0
  5
42C
 10
48.7970
 20
109.235
 30
0.000000
  70
    32
  0
VERTEX
  8
0
  5
42D
 10
48.8552
 20
109.353
 30
0.000000
  70
    32
  0
VERTEX
  8
0
  5
42E
 10
48.9036
 20
109.472
 30
0.000000
  70
    32
  0
VERTEX
  8
0
  5
42F
 10
48.9423
 20
109.591
 30
0.000000
  70
    32
  0
VERTEX
  8
0
  5
430
 10
48.9711
 20
109.710
 30
0.000000
  70
    32
  0
VERTEX
  8
0
  5
431
 10
48.9900
 20
109.830
 30
0.000000
  70
    32
  0
VERTEX
  8
0
  5
432
 10
48.9991
 20
109.950
 30
0.000000
  70
    32
  0
VERTEX
  8
0
  5
433
 10
48.9983
 20
110.069
 30
0.000000
  70
    32
  0
VERTEX
  8
0
  5
434
 10
48.9877
 20
110.189
 30
0.000000
  70
    32
  0
VERTEX
  8
0
  5
435
 10
48.9672
 20
110.309
 30
0.000000
  70
    32
  0
VERTEX
  8
0
  5
436
 10
48.9368
 20
110.428
 30
0.000000
  70
    32
  0
VERTEX
  8
0
  5
437
 10
48.8966
 20
110.547
 30
0.000000
  70
    32
  0
VERTEX
  8
0
  5
438
 10
48.8466
 20
110.666
 30
0.000000
  70
    32
  0
VERTEX
  8
0
  5
439
 10
48.7869
 20
110.783
 30
0.000000
  70
    32
  0
VERTEX
  8
0
  5
43A
 10
48.7175
 20
110.901
 30
0.000000
  70
    32
  0
VERTEX
  8
0
  5
43B
 10
48.6385
 20
111.017
 30
0.000000
  70
    32
  0
VERTEX
  8
0
  5
43C
 10
48.5499
 20
111.132
 30
0.000000
  70
    32
  0
VERTEX
  8
0
  5
43D
 10
48.4519
 20
111.247
 30
0.000000
  70
    32
  0
VERTEX
  8
0
  5
43E
 10
48.3445
 20
111.360
 30
0.000000
  70
    32
  0
SEQEND
  8
0
  5
43F
  0
LINE
  5
1CE
  8
0
 10
33.0
 20
76.0
 30
0.0
 11
33.0
 21
37.0
 31
0.0
  0
LINE
  5
1CF
  8
0
 10
33.0
 20
37.0
 30
0.0
 11
38.0
 21
37.0
 31
0.0
  0
LINE
  5
1D0
  8
0
 10
38.0
 20
36.0
 30
0.0
 11
34.0
 21
36.0
 31
0.0
  0
LINE
  5
1D1
  8
0
 10
34.0
 20
36.0
 30
0.0
 11
33.0
 21
37.0
 31
0.0
  0
LINE
  5
1D2
  8
0
 10
34.0
 20
36.0
 30
0.0
 11
34.0
 21
74.5
 31
0.0
  0
LINE
  5
1D4
  8
0
 10
33.0
 20
74.5
 30
0.0
 11
38.0
 21
74.5
 31
0.0
  0
LINE
  5
1D5
  8
0
 10
42.0
 20
36.0
 30
0.0
 11
42.0
 21
74.5
 31
0.0
  0
LINE
  5
1D6
  8
0
 10
43.0
 20
76.0
 30
0.0
 11
43.0
 21
37.0
 31
0.0
  0
LINE
  5
1D7
  8
0
 10
38.0
 20
36.0
 30
0.0
 11
42.0
 21
36.0
 31
0.0
  0
LINE
  5
1D8
  8
0
 10
43.0
 20
37.0
 30
0.0
 11
38.0
 21
37.0
 31
0.0
  0
LINE
  5
1D9
  8
0
 10
42.0
 20
36.0
 30
0.0
 11
43.0
 21
37.0
 31
0.0
  0
LINE
  5
1DA
  8
0
 10
43.0
 20
74.5
 30
0.0
 11
38.0
 21
74.5
 31
0.0
  0
ARC
  5
1E3
  8
0
 10
38.0
 20
123.085
 30
0.0
 40
6.915
 50
34.482919
 51
145.517081
  0
LINE
  5
1E8
  8
0
 10
45.8
 20
112.820468
 30
0.0
 11
43.7
 21
127.0
 31
0.0
  0
LINE
  5
1E9
  8
0
 10
30.2
 20
112.820468
 30
0.0
 11
32.3
 21
127.0
 31
0.0
  0
LINE
  5
1EB
  8
0
 10
32.5
 20
112.0
 30
0.0
 11
38.0
 21
112.0
 31
0.0
  0
LINE
  5
1EC
  8
0
 10
38.0
 20
112.0
 30
0.0
 11
43.5
 21
112.0
 31
0.0
  0
LINE
  5
1ED
  8
0
 10
44.5
 20
111.0
 30
0.0
 11
44.5
 21
110.0
 31
0.0
  0
LINE
  5
1EE
  8
0
 10
31.5
 20
111.0
 30
0.0
 11
31.5
 21
110.0
 31
0.0
  0
POLYLINE
  5
1EF
  8
0
 10
31.5
 20
110.0
 30
0.0
 66
     1
 70
     8
  0
VERTEX
  8
0
  5
440
 10
31.5000
 20
110.000
 30
0.000000
  70
    32
  0
VERTEX
  8
0
  5
441
 10
31.5020
 20
109.951
 30
0.000000
  70
    32
  0
VERTEX
  8
0
  5
442
 10
31.5078
 20
109.902
 30
0.000000
  70
    32
  0
VERTEX
  8
0
  5
443
 10
31.5176
 20
109.853
 30
0.000000
  70
    32
  0
VERTEX
  8
0
  5
444
 10
31.5313
 20
109.804
 30
0.000000
  70
    32
  0
VERTEX
  8
0
  5
445
 10
31.5489
 20
109.755
 30
0.000000
  70
    32
  0
VERTEX
  8
0
  5
446
 10
31.5704
 20
109.707
 30
0.000000
  70
    32
  0
VERTEX
  8
0
  5
447
 10
31.5957
 20
109.658
 30
0.000000
  70
    32
  0
VERTEX
  8
0
  5
448
 10
31.6249
 20
109.610
 30
0.000000
  70
    32
  0
VERTEX
  8
0
  5
449
 10
31.6579
 20
109.562
 30
0.000000
  70
    32
  0
VERTEX
  8
0
  5
44A
 10
31.6948
 20
109.514
 30
0.000000
  70
    32
  0
VERTEX
  8
0
  5
44B
 10
31.7355
 20
109.467
 30
0.000000
  70
    32
  0
VERTEX
  8
0
  5
44C
 10
31.7799
 20
109.419
 30
0.000000
  70
    32
  0
VERTEX
  8
0
  5
44D
 10
31.8281
 20
109.373
 30
0.000000
  70
    32
  0
VERTEX
  8
0
  5
44E
 10
31.8800
 20
109.326
 30
0.000000
  70
    32
  0
VERTEX
  8
0
  5
44F
 10
31.9355
 20
109.280
 30
0.000000
  70
    32
  0
VERTEX
  8
0
  5
450
 10
31.9948
 20
109.235
 30
0.000000
  70
    32
  0
VERTEX
  8
0
  5
451
 10
32.0576
 20
109.190
 30
0.000000
  70
    32
  0
VERTEX
  8
0
  5
452
 10
32.1241
 20
109.145
 30
0.000000
  70
    32
  0
VERTEX
  8
0
  5
453
 10
32.1940
 20
109.101
 30
0.000000
  70
    32
  0
VERTEX
  8
0
  5
454
 10
32.2675
 20
109.057
 30
0.000000
  70
    32
  0
VERTEX
  8
0
  5
455
 10
32.3444
 20
109.014
 30
0.000000
  70
    32
  0
VERTEX
  8
0
  5
456
 10
32.4248
 20
108.972
 30
0.000000
  70
    32
  0
VERTEX
  8
0
  5
457
 10
32.5085
 20
108.930
 30
0.000000
  70
    32
  0
VERTEX
  8
0
  5
458
 10
32.5954
 20
108.889
 30
0.000000
  70
    32
  0
VERTEX
  8
0
  5
459
 10
32.6857
 20
108.848
 30
0.000000
  70
    32
  0
VERTEX
  8
0
  5
45A
 10
32.7792
 20
108.809
 30
0.000000
  70
    32
  0
VERTEX
  8
0
  5
45B
 10
32.8757
 20
108.770
 30
0.000000
  70
    32
  0
VERTEX
  8
0
  5
45C
 10
32.9754
 20
108.731
 30
0.000000
  70
    32
  0
VERTEX
  8
0
  5
45D
 10
33.0781
 20
108.694
 30
0.000000
  70
    32
  0
VERTEX
  8
0
  5
45E
 10
33.1838
 20
108.657
 30
0.000000
  70
    32
  0
VERTEX
  8
0
  5
45F
 10
33.2924
 20
108.621
 30
0.000000
  70
    32
  0
VERTEX
  8
0
  5
460
 10
33.4038
 20
108.586
 30
0.000000
  70
    32
  0
VERTEX
  8
0
  5
461
 10
33.5180
 20
108.552
 30
0.000000
  70
    32
  0
VERTEX
  8
0
  5
462
 10
33.6349
 20
108.518
 30
0.000000
  70
    32
  0
VERTEX
  8
0
  5
463
 10
33.7544
 20
108.486
 30
0.000000
  70
    32
  0
VERTEX
  8
0
  5
464
 10
33.8764
 20
108.454
 30
0.000000
  70
    32
  0
VERTEX
  8
0
  5
465
 10
34.0010
 20
108.423
 30
0.000000
  70
    32
  0
VERTEX
  8
0
  5
466
 10
34.1280
 20
108.394
 30
0.000000
  70
    32
  0
VERTEX
  8
0
  5
467
 10
34.2572
 20
108.365
 30
0.000000
  70
    32
  0
VERTEX
  8
0
  5
468
 10
34.3888
 20
108.337
 30
0.000000
  70
    32
  0
VERTEX
  8
0
  5
469
 10
34.5225
 20
108.310
 30
0.000000
  70
    32
  0
VERTEX
  8
0
  5
46A
 10
34.6583
 20
108.285
 30
0.000000
  70
    32
  0
VERTEX
  8
0
  5
46B
 10
34.7962
 20
108.260
 30
0.000000
  70
    32
  0
VERTEX
  8
0
  5
46C
 10
34.9359
 20
108.236
 30
0.000000
  70
    32
  0
VERTEX
  8
0
  5
46D
 10
35.0775
 20
108.214
 30
0.000000
  70
    32
  0
VERTEX
  8
0
  5
46E
 10
35.2209
 20
108.192
 30
0.000000
  70
    32
  0
VERTEX
  8
0
  5
46F
 10
35.3659
 20
108.172
 30
0.000000
  70
    32
  0
VERTEX
  8
0
  5
470
 10
35.5126
 20
108.152
 30
0.000000
  70
    32
  0
VERTEX
  8
0
  5
471
 10
35.6607
 20
108.134
 30
0.000000
  70
    32
  0
VERTEX
  8
0
  5
472
 10
35.8102
 20
108.117
 30
0.000000
  70
    32
  0
VERTEX
  8
0
  5
473
 10
35.9611
 20
108.101
 30
0.000000
  70
    32
  0
VERTEX
  8
0
  5
474
 10
36.1131
 20
108.086
 30
0.000000
  70
    32
  0
VERTEX
  8
0
  5
475
 10
36.2664
 20
108.072
 30
0.000000
  70
    32
  0
VERTEX
  8
0
  5
476
 10
36.4206
 20
108.060
 30
0.000000
  70
    32
  0
VERTEX
  8
0
  5
477
 10
36.5758
 20
108.049
 30
0.000000
  70
    32
  0
VERTEX
  8
0
  5
478
 10
36.7319
 20
108.038
 30
0.000000
  70
    32
  0
VERTEX
  8
0
  5
479
 10
36.8887
 20
108.029
 30
0.000000
  70
    32
  0
VERTEX
  8
0
  5
47A
 10
37.0463
 20
108.022
 30
0.000000
  70
    32
  0
VERTEX
  8
0
  5
47B
 10
37.2043
 20
108.015
 30
0.000000
  70
    32
  0
VERTEX
  8
0
  5
47C
 10
37.3629
 20
108.010
 30
0.000000
  70
    32
  0
VERTEX
  8
0
  5
47D
 10
37.5218
 20
108.005
 30
0.000000
  70
    32
  0
VERTEX
  8
0
  5
47E
 10
37.6811
 20
108.002
 30
0.000000
  70
    32
  0
VERTEX
  8
0
  5
47F
 10
37.8405
 20
108.001
 30
0.000000
  70
    32
  0
VERTEX
  8
0
  5
480
 10
38.0000
 20
108.000
 30
0.000000
  70
    32
  0
VERTEX
  8
0
  5
481
 10
38.1595
 20
108.001
 30
0.000000
  70
    32
  0
VERTEX
  8
0
  5
482
 10
38.3189
 20
108.002
 30
0.000000
  70
    32
  0
VERTEX
  8
0
  5
483
 10
38.4782
 20
108.005
 30
0.000000
  70
    32
  0
VERTEX
  8
0
  5
484
 10
38.6371
 20
108.010
 30
0.000000
  70
    32
  0
VERTEX
  8
0
  5
485
 10
38.7957
 20
108.015
 30
0.000000
  70
    32
  0
VERTEX
  8
0
  5
486
 10
38.9537
 20
108.022
 30
0.000000
  70
    32
  0
VERTEX
  8
0
  5
487
 10
39.1113
 20
108.029
 30
0.000000
  70
    32
  0
VERTEX
  8
0
  5
488
 10
39.2681
 20
108.038
 30
0.000000
  70
    32
  0
VERTEX
  8
0
  5
489
 10
39.4242
 20
108.049
 30
0.000000
  70
    32
  0
VERTEX
  8
0
  5
48A
 10
39.5794
 20
108.060
 30
0.000000
  70
    32
  0
VERTEX
  8
0
  5
48B
 10
39.7336
 20
108.072
 30
0.000000
  70
    32
  0
VERTEX
  8
0
  5
48C
 10
39.8869
 20
108.086
 30
0.000000
  70
    32
  0
VERTEX
  8
0
  5
48D
 10
40.0389
 20
108.101
 30
0.000000
  70
    32
  0
VERTEX
  8
0
  5
48E
 10
40.1898
 20
108.117
 30
0.000000
  70
    32
  0
VERTEX
  8
0
  5
48F
 10
40.3393
 20
108.134
 30
0.000000
  70
    32
  0
VERTEX
  8
0
  5
490
 10
40.4874
 20
108.152
 30
0.000000
  70
    32
  0
VERTEX
  8
0
  5
491
 10
40.6341
 20
108.172
 30
0.000000
  70
    32
  0
VERTEX
  8
0
  5
492
 10
40.7791
 20
108.192
 30
0.000000
  70
    32
  0
VERTEX
  8
0
  5
493
 10
40.9225
 20
108.214
 30
0.000000
  70
    32
  0
VERTEX
  8
0
  5
494
 10
41.0641
 20
108.236
 30
0.000000
  70
    32
  0
VERTEX
  8
0
  5
495
 10
41.2038
 20
108.260
 30
0.000000
  70
    32
  0
VERTEX
  8
0
  5
496
 10
41.3417
 20
108.285
 30
0.000000
  70
    32
  0
VERTEX
  8
0
  5
497
 10
41.4775
 20
108.310
 30
0.000000
  70
    32
  0
VERTEX
  8
0
  5
498
 10
41.6112
 20
108.337
 30
0.000000
  70
    32
  0
VERTEX
  8
0
  5
499
 10
41.7428
 20
108.365
 30
0.000000
  70
    32
  0
VERTEX
  8
0
  5
49A
 10
41.8720
 20
108.394
 30
0.000000
  70
    32
  0
VERTEX
  8
0
  5
49B
 10
41.9990
 20
108.423
 30
0.000000
  70
    32
  0
VERTEX
  8
0
  5
49C
 10
42.1236
 20
108.454
 30
0.000000
  70
    32
  0
VERTEX
  8
0
  5
49D
 10
42.2456
 20
108.486
 30
0.000000
  70
    32
  0
VERTEX
  8
0
  5
49E
 10
42.3651
 20
108.518
 30
0.000000
  70
    32
  0
VERTEX
  8
0
  5
49F
 10
42.4820
 20
108.552
 30
0.000000
  70
    32
  0
VERTEX
  8
0
  5
4A0
 10
42.5962
 20
108.586
 30
0.000000
  70
    32
  0
VERTEX
  8
0
  5
4A1
 10
42.7076
 20
108.621
 30
0.000000
  70
    32
  0
VERTEX
  8
0
  5
4A2
 10
42.8162
 20
108.657
 30
0.000000
  70
    32
  0
VERTEX
  8
0
  5
4A3
 10
42.9219
 20
108.694
 30
0.000000
  70
    32
  0
VERTEX
  8
0
  5
4A4
 10
43.0246
 20
108.731
 30
0.000000
  70
    32
  0
VERTEX
  8
0
  5
4A5
 10
43.1243
 20
108.770
 30
0.000000
  70
    32
  0
VERTEX
  8
0
  5
4A6
 10
43.2208
 20
108.809
 30
0.000000
  70
    32
  0
VERTEX
  8
0
  5
4A7
 10
43.3143
 20
108.848
 30
0.000000
  70
    32
  0
VERTEX
  8
0
  5
4A8
 10
43.4046
 20
108.889
 30
0.000000
  70
    32
  0
VERTEX
  8
0
  5
4A9
 10
43.4915
 20
108.930
 30
0.000000
  70
    32
  0
VERTEX
  8
0
  5
4AA
 10
43.5752
 20
108.972
 30
0.000000
  70
    32
  0
VERTEX
  8
0
  5
4AB
 10
43.6556
 20
109.014
 30
0.000000
  70
    32
  0
VERTEX
  8
0
  5
4AC
 10
43.7325
 20
109.057
 30
0.000000
  70
    32
  0
VERTEX
  8
0
  5
4AD
 10
43.8060
 20
109.101
 30
0.000000
  70
    32
  0
VERTEX
  8
0
  5
4AE
 10
43.8759
 20
109.145
 30
0.000000
  70
    32
  0
VERTEX
  8
0
  5
4AF
 10
43.9424
 20
109.190
 30
0.000000
  70
    32
  0
VERTEX
  8
0
  5
4B0
 10
44.0052
 20
109.235
 30
0.000000
  70
    32
  0
VERTEX
  8
0
  5
4B1
 10
44.0645
 20
109.280
 30
0.000000
  70
    32
  0
VERTEX
  8
0
  5
4B2
 10
44.1200
 20
109.326
 30
0.000000
  70
    32
  0
VERTEX
  8
0
  5
4B3
 10
44.1719
 20
109.373
 30
0.000000
  70
    32
  0
VERTEX
  8
0
  5
4B4
 10
44.2201
 20
109.419
 30
0.000000
  70
    32
  0
VERTEX
  8
0
  5
4B5
 10
44.2645
 20
109.467
 30
0.000000
  70
    32
  0
VERTEX
  8
0
  5
4B6
 10
44.3052
 20
109.514
 30
0.000000
  70
    32
  0
VERTEX
  8
0
  5
4B7
 10
44.3421
 20
109.562
 30
0.000000
  70
    32
  0
VERTEX
  8
0
  5
4B8
 10
44.3751
 20
109.610
 30
0.000000
  70
    32
  0
VERTEX
  8
0
  5
4B9
 10
44.4043
 20
109.658
 30
0.000000
  70
    32
  0
VERTEX
  8
0
  5
4BA
 10
44.4296
 20
109.707
 30
0.000000
  70
    32
  0
VERTEX
  8
0
  5
4BB
 10
44.4511
 20
109.755
 30
0.000000
  70
    32
  0
VERTEX
  8
0
  5
4BC
 10
44.4687
 20
109.804
 30
0.000000
  70
    32
  0
VERTEX
  8
0
  5
4BD
 10
44.4824
 20
109.853
 30
0.000000
  70
    32
  0
VERTEX
  8
0
  5
4BE
 10
44.4922
 20
109.902
 30
0.000000
  70
    32
  0
VERTEX
  8
0
  5
4BF
 10
44.4980
 20
109.951
 30
0.000000
  70
    32
  0
VERTEX
  8
0
  5
4C0
 10
44.5000
 20
110.000
 30
0.000000
  70
    32
  0
SEQEND
  8
0
  5
4C1
  0
ARC
  5
1F0
  8
0
 10
32.5
 20
111.0
 30
0.0
 40
1.0
 50
90.0
 51
180.0
  0
ARC
  5
1F1
  8
0
 10
43.5
 20
111.0
 30
0.0
 40
1.0
 50
0.0
 51
90.0
  0
LINE
  5
1F2
  8
1
 10
100.0
 20
31.0
 30
0.0
 11
100.0
 21
118.0
 31
0.0
  0
LINE
  5
1F3
  8
0
 10
100.0
 20
76.0
 30
0.0
 11
92.0
 21
76.0
 31
0.0
  0
LINE
  5
1F4
  8
0
 10
95.0
 20
74.5
 30
0.0
 11
100.0
 21
74.5
 31
0.0
  0
LINE
  5
1F5
  8
0
 10
95.0
 20
37.0
 30
0.0
 11
100.0
 21
37.0
 31
0.0
  0
LINE
  5
1F6
  8
0
 10
100.0
 20
36.0
 30
0.0
 11
96.0
 21
36.0
 31
0.0
  0
LINE
  5
1F7
  8
0
 10
95.0
 20
76.0
 30
0.0
 11
95.0
 21
37.0
 31
0.0
  0
LINE
  5
1F8
  8
0
 10
96.0
 20
36.0
 30
0.0
 11
96.0
 21
74.5
 31
0.0
  0
LINE
  5
1F9
  8
0
 10
96.0
 20
36.0
 30
0.0
 11
95.0
 21
37.0
 31
0.0
  0
LINE
  5
1FA
  8
0
 10
104.0
 20
36.0
 30
0.0
 11
104.0
 21
74.5
 31
0.0
  0
LINE
  5
1FB
  8
0
 10
105.0
 20
76.0
 30
0.0
 11
105.0
 21
37.0
 31
0.0
  0
LINE
  5
1FC
  8
0
 10
100.0
 20
36.0
 30
0.0
 11
104.0
 21
36.0
 31
0.0
  0
LINE
  5
1FD
  8
0
 10
105.0
 20
37.0
 30
0.0
 11
100.0
 21
37.0
 31
0.0
  0
LINE
  5
1FE
  8
0
 10
104.0
 20
36.0
 30
0.0
 11
105.0
 21
37.0
 31
0.0
  0
LINE
  5
1FF
  8
0
 10
100.0
 20
76.0
 30
0.0
 11
108.0
 21
76.0
 31
0.0
  0
LINE
  5
200
  8
0
 10
105.0
 20
74.5
 30
0.0
 11
100.0
 21
74.5
 31
0.0
  0
LINE
  5
201
  8
0
 10
92.0
 20
76.0
 30
0.0
 11
92.0
 21
84.25
 31
0.0
  0
LINE
  5
202
  8
0
 10
108.0
 20
76.0
 30
0.0
 11
108.0
 21
88.25
 31
0.0
  0
LINE
  5
209
  8
0
 10
89.0
 20
84.780776
 30
0.0
 11
89.0
 21
105.233942
 31
0.0
  0
LINE
  5
20A
  8
0
 10
89.739638
 20
106.199453
 30
0.0
 11
176.739638
 21
129.660127
 31
0.0
  0
LINE
  5
20B
  8
0
 10
90.242536
 20
83.810634
 30
0.0
 11
110.242536
 21
88.810634
 31
0.0
  0
LINE
  5
20C
  8
0
 10
111.0
 20
89.780776
 30
0.0
 11
111.0
 21
94.333333
 31
0.0
  0
LINE
  5
20D
  8
0
 10
110.0
 20
94.0
 30
0.0
 11
113.0
 21
95.0
 31
0.0
  0
LINE
  5
20E
  8
0
 10
113.0
 20
95.0
 30
0.0
 11
113.0
 21
99.055556
 31
0.0
  0
LINE
  5
20F
  8
0
 10
110.0
 20
94.0
 30
0.0
 11
110.0
 21
98.027778
 31
0.0
  0
LINE
  5
210
  8
0
 10
178.0
 20
128.694616
 30
0.0
 11
178.0
 21
117.76149
 31
0.0
  0
LINE
  5
211
  8
0
 10
177.265929
 20
116.797498
 30
0.0
 11
164.061307
 21
113.154843
 31
0.0
  0
LINE
  5
212
  8
0
 10
163.088271
 20
113.411729
 30
0.0
 11
161.441087
 21
115.058913
 31
0.0
  0
LINE
  5
213
  8
0
 10
107.0
 20
111.0
 30
0.0
 11
107.0
 21
97.0
 31
0.0
  0
LINE
  5
214
  8
0
 10
107.0
 20
97.0
 30
0.0
 11
160.40988
 21
115.297829
 31
0.0
  0
ARC
  5
215
  8
0
 10
90.0
 20
84.780776
 30
0.0
 40
1.0
 50
180.0
 51
284.036243
  0
ARC
  5
216
  8
0
 10
110.0
 20
89.780776
 30
0.0
 40
1.0
 50
284.036243
 51
0.0
  0
ARC
  5
217
  8
0
 10
90.0
 20
105.233942
 30
0.0
 40
1.0
 50
105.091573
 51
180.0
  0
ARC
  5
218
  8
0
 10
177.0
 20
128.694616
 30
0.0
 40
1.0
 50
0.0
 51
105.091573
  0
ARC
  5
219
  8
0
 10
177.0
 20
117.76149
 30
0.0
 40
1.0
 50
285.422161
 51
0.0
  0
ARC
  5
21A
  8
0
 10
160.73398
 20
114.351806
 30
0.0
 40
1.0
 50
45.0
 51
108.91108
  0
ARC
  5
21B
  8
0
 10
163.795378
 20
114.118836
 30
0.0
 40
1.0
 50
225.0
 51
285.422161
  0
LINE
  5
21C
  8
0
 10
100.0
 20
112.0
 30
0.0
 11
105.5
 21
112.0
 31
0.0
  0
LINE
  5
21D
  8
0
 10
106.5
 20
111.0
 30
0.0
 11
106.5
 21
110.719101
 31
0.0
  0
LINE
  5
21E
  8
0
 10
100.0
 20
112.0
 30
0.0
 11
94.5
 21
112.0
 31
0.0
  0
LINE
  5
21F
  8
0
 10
93.5
 20
111.0
 30
0.0
 11
93.5
 21
107.213483
 31
0.0
  0
ARC
  5
220
  8
0
 10
105.5
 20
111.0
 30
0.0
 40
1.0
 50
0.0
 51
90.0
  0
ARC
  5
221
  8
0
 10
94.5
 20
111.0
 30
0.0
 40
1.0
 50
90.0
 51
180.0
  0
ENDSEC
  0
EOF
