  0
SECTION
  2
HEADER
  9
$ACADVER
  1
AC1009
  9
$INSBASE
 10
0.0
 20
0.0
 30
0.0
  9
$EXTMIN
 10
35.5
 20
58.5
 30
0.0
  9
$EXTMAX
 10
173.5
 20
116.0
 30
0.0
  9
$LIMMIN
 10
0.0
 20
0.0
  9
$LIMMAX
 10
200.0
 20
150.0
  9
$ORTHOMODE
 70
     0
  9
$REGENMODE
 70
     1
  9
$FILLMODE
 70
     1
  9
$QTEXTMODE
 70
     0
  9
$MIRRTEXT
 70
     1
  9
$DRAGMODE
 70
     2
  9
$LTSCALE
 40
1.0
  9
$OSMODE
 70
     0
  9
$ATTMODE
 70
     1
  9
$TEXTSIZE
 40
2.5
  9
$TRACEWID
 40
1.0
  9
$TEXTSTYLE
  7
STANDARD
  9
$CLAYER
  8
2
  9
$CELTYPE
  6
BYLAYER
  9
$CECOLOR
 62
   256
  9
$DIMSCALE
 40
1.0
  9
$DIMASZ
 40
2.5
  9
$DIMEXO
 40
0.625
  9
$DIMDLI
 40
3.75
  9
$DIMRND
 40
0.0
  9
$DIMDLE
 40
0.0
  9
$DIMEXE
 40
1.25
  9
$DIMTP
 40
0.0
  9
$DIMTM
 40
0.0
  9
$DIMTXT
 40
2.5
  9
$DIMCEN
 40
2.5
  9
$DIMTSZ
 40
0.0
  9
$DIMTOL
 70
     0
  9
$DIMLIM
 70
     0
  9
$DIMTIH
 70
     0
  9
$DIMTOH
 70
     0
  9
$DIMSE1
 70
     0
  9
$DIMSE2
 70
     0
  9
$DIMTAD
 70
     1
  9
$DIMZIN
 70
     8
  9
$DIMBLK
  1

  9
$DIMASO
 70
     1
  9
$DIMSHO
 70
     1
  9
$DIMPOST
  1

  9
$DIMAPOST
  1

  9
$DIMALT
 70
     0
  9
$DIMALTD
 70
     4
  9
$DIMALTF
 40
0.0394
  9
$DIMLFAC
 40
1.0
  9
$DIMTOFL
 70
     1
  9
$DIMTVP
 40
0.0
  9
$DIMTIX
 70
     0
  9
$DIMSOXD
 70
     0
  9
$DIMSAH
 70
     0
  9
$DIMBLK1
  1

  9
$DIMBLK2
  1

  9
$DIMSTYLE
  2
STANDARD
  9
$DIMCLRD
 70
     0
  9
$DIMCLRE
 70
     0
  9
$DIMCLRT
 70
     0
  9
$DIMTFAC
 40
1.0
  9
$DIMGAP
 40
0.625
  9
$LUNITS
 70
     2
  9
$LUPREC
 70
     4
  9
$SKETCHINC
 40
1.0
  9
$FILLETRAD
 40
1.0
  9
$AUNITS
 70
     0
  9
$AUPREC
 70
     0
  9
$MENU
  1
.
  9
$ELEVATION
 40
0.0
  9
$PELEVATION
 40
0.0
  9
$THICKNESS
 40
0.0
  9
$LIMCHECK
 70
     0
  9
$BLIPMODE
 70
     0
  9
$CHAMFERA
 40
10.0
  9
$CHAMFERB
 40
10.0
  9
$SKPOLY
 70
     0
  9
$TDCREATE
 40
2452125.683723
  9
$TDUPDATE
 40
2452126.625173
  9
$TDINDWG
 40
0.022133
  9
$TDUSRTIMER
 40
0.022133
  9
$USRTIMER
 70
     1
  9
$ANGBASE
 50
0.0
  9
$ANGDIR
 70
     0
  9
$PDMODE
 70
     0
  9
$PDSIZE
 40
0.0
  9
$PLINEWID
 40
0.0
  9
$COORDS
 70
     2
  9
$SPLFRAME
 70
     0
  9
$SPLINETYPE
 70
     6
  9
$SPLINESEGS
 70
     8
  9
$ATTDIA
 70
     0
  9
$ATTREQ
 70
     1
  9
$HANDLING
 70
     1
  9
$HANDSEED
  5
3D0
  9
$SURFTAB1
 70
     6
  9
$SURFTAB2
 70
     6
  9
$SURFTYPE
 70
     6
  9
$SURFU
 70
     6
  9
$SURFV
 70
     6
  9
$UCSNAME
  2

  9
$UCSORG
 10
0.0
 20
0.0
 30
0.0
  9
$UCSXDIR
 10
1.0
 20
0.0
 30
0.0
  9
$UCSYDIR
 10
0.0
 20
1.0
 30
0.0
  9
$PUCSNAME
  2

  9
$PUCSORG
 10
0.0
 20
0.0
 30
0.0
  9
$PUCSXDIR
 10
1.0
 20
0.0
 30
0.0
  9
$PUCSYDIR
 10
0.0
 20
1.0
 30
0.0
  9
$USERI1
 70
     0
  9
$USERI2
 70
     0
  9
$USERI3
 70
     0
  9
$USERI4
 70
     0
  9
$USERI5
 70
     0
  9
$USERR1
 40
0.0
  9
$USERR2
 40
0.0
  9
$USERR3
 40
0.0
  9
$USERR4
 40
0.0
  9
$USERR5
 40
0.0
  9
$WORLDVIEW
 70
     1
  9
$SHADEDGE
 70
     3
  9
$SHADEDIF
 70
    70
  9
$TILEMODE
 70
     1
  9
$MAXACTVP
 70
    48
  9
$PLIMCHECK
 70
     0
  9
$PEXTMIN
 10
1.000000E+020
 20
1.000000E+020
 30
1.000000E+020
  9
$PEXTMAX
 10
-1.000000E+020
 20
-1.000000E+020
 30
-1.000000E+020
  9
$PLIMMIN
 10
0.0
 20
0.0
  9
$PLIMMAX
 10
420.0
 20
297.0
  9
$UNITMODE
 70
     0
  9
$VISRETAIN
 70
     1
  9
$PLINEGEN
 70
     0
  9
$PSLTSCALE
 70
     1
  0
ENDSEC
  0
SECTION
  2
TABLES
  0
TABLE
  2
VPORT
 70
     2
  0
VPORT
  2
*ACTIVE
 70
     0
 10
0.0
 20
0.0
 11
1.0
 21
1.0
 12
101.517857
 22
75.0
 13
0.0
 23
0.0
 14
0.5
 24
0.5
 15
1.0
 25
1.0
 16
0.0
 26
0.0
 36
1.0
 17
0.0
 27
0.0
 37
0.0
 40
150.0
 41
1.353571
 42
50.0
 43
0.0
 44
0.0
 50
0.0
 51
0.0
 71
     0
 72
   100
 73
     1
 74
     1
 75
     1
 76
     0
 77
     0
 78
     0
  0
ENDTAB
  0
TABLE
  2
LTYPE
 70
     3
  0
LTYPE
  2
CONTINUOUS
 70
     0
  3
Solid line
 72
    65
 73
     0
 40
0.0
  0
LTYPE
  2
CENTER
 70
     0
  3
____ _ ____ _ ____ _ ____ _ ____ _ ____ _ ____
 72
    65
 73
     4
 40
2.0
 49
1.25
 49
-0.25
 49
0.25
 49
-0.25
  0
LTYPE
  2
HIDDEN2
 70
     0
  3
Hidden (.5x) _ _ _ _ _ _ _ _ _ _ _ _ _ _ _ _ _
 72
    65
 73
     2
 40
4.7625
 49
3.175
 49
-1.5875
  0
ENDTAB
  0
TABLE
  2
LAYER
 70
     3
  0
LAYER
  2
0
 70
     0
 62
     7
  6
CONTINUOUS
  0
LAYER
  2
1
 70
     0
 62
     1
  6
CENTER
  0
LAYER
  2
2
 70
     0
 62
     2
  6
HIDDEN2
  0
ENDTAB
  0
TABLE
  2
STYLE
 70
     3
  0
STYLE
  2
STANDARD
 70
     0
 40
0.0
 41
1.0
 50
0.0
 71
     0
 42
2.5
  3
txt
  4

  0
STYLE
  2
BIGFONT
 70
     0
 40
10.0
 41
0.8
 50
0.0
 71
     0
 42
10.0
  3
txt.shx
  4
bigfont
  0
STYLE
  2

 70
     1
 40
0.0
 41
1.0
 50
0.0
 71
     0
 42
2.5
  3
ltypeshp.shx
  4

  0
ENDTAB
  0
TABLE
  2
VIEW
 70
     0
  0
ENDTAB
  0
TABLE
  2
UCS
 70
     0
  0
ENDTAB
  0
TABLE
  2
APPID
 70
     1
  0
APPID
  2
ACAD
 70
     0
  0
ENDTAB
  0
TABLE
  2
DIMSTYLE
 70
     1
  0
DIMSTYLE
  2
STANDARD
 70
     0
  3

  4

  5

  6

  7

 40
1.0
 41
0.18
 42
0.0625
 43
0.38
 44
0.18
 45
0.0
 46
0.0
 47
0.0
 48
0.0
140
0.18
141
0.09
142
0.0
143
25.4
144
1.0
145
0.0
146
1.0
147
0.09
 71
     0
 72
     0
 73
     1
 74
     1
 75
     0
 76
     0
 77
     0
 78
     0
170
     0
171
     2
172
     0
173
     0
174
     0
175
     0
176
     0
177
     0
178
     0
  0
ENDTAB
  0
ENDSEC
  0
SECTION
  2
BLOCKS
  0
BLOCK
  8
0
  2
$MODEL_SPACE
 70
     0
 10
0.0
 20
0.0
 30
0.0
  3
$MODEL_SPACE
  1

  0
ENDBLK
  5
1A
  8
0
  0
BLOCK
 67
     1
  8
0
  2
$PAPER_SPACE
 70
     0
 10
0.0
 20
0.0
 30
0.0
  3
$PAPER_SPACE
  1

  0
ENDBLK
  5
17
 67
     1
  8
0
  0
BLOCK
  8
0
  2
A$C0C13436D
 70
     0
 10
0.0
 20
0.0
 30
0.0
  3
A$C0C13436D
  1

  0
ARC
  5
24
  8
0
 10
55.0
 20
38.004234
 30
0.0
 40
1.0
 50
180.0
 51
285.042801
  0
LINE
  5
25
  8
0
 10
54.739334
 20
55.69962
 30
0.0
 11
102.739334
 21
68.65962
 31
0.0
  0
LINE
  5
26
  8
1
 10
8.0
 20
70.5
 30
0.0
 11
8.0
 21
0.0
 31
0.0
  0
LINE
  5
27
  8
0
 10
14.0
 20
33.5
 30
0.0
 11
14.0
 21
37.267081
 31
0.0
  0
LINE
  5
28
  8
0
 10
2.0
 20
33.5
 30
0.0
 11
2.0
 21
37.267081
 31
0.0
  0
LINE
  5
29
  8
0
 10
5.0
 20
33.5
 30
0.0
 11
5.0
 21
4.0
 31
0.0
  0
LINE
  5
2A
  8
0
 10
5.5
 20
3.5
 30
0.0
 11
5.5
 21
32.5
 31
0.0
  0
LINE
  5
2B
  8
0
 10
10.5
 20
3.5
 30
0.0
 11
10.5
 21
32.5
 31
0.0
  0
LINE
  5
2C
  8
0
 10
11.0
 20
33.5
 30
0.0
 11
11.0
 21
4.0
 31
0.0
  0
LINE
  5
2D
  8
0
 10
10.5
 20
3.5
 30
0.0
 11
8.0
 21
3.5
 31
0.0
  0
LINE
  5
2E
  8
0
 10
11.0
 20
4.0
 30
0.0
 11
8.0
 21
4.0
 31
0.0
  0
LINE
  5
2F
  8
0
 10
5.5
 20
3.5
 30
0.0
 11
8.0
 21
3.5
 31
0.0
  0
LINE
  5
30
  8
0
 10
5.0
 20
4.0
 30
0.0
 11
8.0
 21
4.0
 31
0.0
  0
LINE
  5
31
  8
0
 10
5.0
 20
4.0
 30
0.0
 11
5.5
 21
3.5
 31
0.0
  0
LINE
  5
32
  8
0
 10
11.0
 20
4.0
 30
0.0
 11
10.5
 21
3.5
 31
0.0
  0
LINE
  5
33
  8
0
 10
11.0
 20
32.5
 30
0.0
 11
8.0
 21
32.5
 31
0.0
  0
LINE
  5
34
  8
0
 10
8.0
 20
33.5
 30
0.0
 11
14.0
 21
33.5
 31
0.0
  0
LINE
  5
35
  8
0
 10
8.0
 20
33.5
 30
0.0
 11
2.0
 21
33.5
 31
0.0
  0
LINE
  5
36
  8
0
 10
5.0
 20
32.5
 30
0.0
 11
8.0
 21
32.5
 31
0.0
  0
LINE
  5
37
  8
0
 10
16.0
 20
38.5
 30
0.0
 11
16.0
 21
57.5
 31
0.0
  0
ARC
  5
38
  8
0
 10
8.0
 20
65.0
 30
0.0
 40
8.5
 50
241.927513
 51
298.072487
  0
POLYLINE
  5
39
  8
0
 10
0.267585
 20
58.012942
 30
0.0
 66
     1
 70
     8
  0
VERTEX
  8
0
  5
146
 10
0.267585
 20
58.0129
 30
0.000000
  70
    32
  0
VERTEX
  8
0
  5
147
 10
0.212081
 20
57.9575
 30
0.000000
  70
    32
  0
VERTEX
  8
0
  5
148
 10
0.162945
 20
57.9016
 30
0.000000
  70
    32
  0
VERTEX
  8
0
  5
149
 10
0.120218
 20
57.8454
 30
0.000000
  70
    32
  0
VERTEX
  8
0
  5
14A
 10
0.0839342
 20
57.7890
 30
0.000000
  70
    32
  0
VERTEX
  8
0
  5
14B
 10
0.0541232
 20
57.7323
 30
0.000000
  70
    32
  0
VERTEX
  8
0
  5
14C
 10
0.0308095
 20
57.6754
 30
0.000000
  70
    32
  0
VERTEX
  8
0
  5
14D
 10
0.0140121
 20
57.6183
 30
0.000000
  70
    32
  0
VERTEX
  8
0
  5
14E
 10
0.00374481
 20
57.5612
 30
0.000000
  70
    32
  0
VERTEX
  8
0
  5
14F
 10
1.60367e-005
 20
57.5040
 30
0.000000
  70
    32
  0
VERTEX
  8
0
  5
150
 10
0.00282881
 20
57.4468
 30
0.000000
  70
    32
  0
VERTEX
  8
0
  5
151
 10
0.0121808
 20
57.3897
 30
0.000000
  70
    32
  0
VERTEX
  8
0
  5
152
 10
0.0280644
 20
57.3326
 30
0.000000
  70
    32
  0
VERTEX
  8
0
  5
153
 10
0.0504667
 20
57.2757
 30
0.000000
  70
    32
  0
VERTEX
  8
0
  5
154
 10
0.0793692
 20
57.2190
 30
0.000000
  70
    32
  0
VERTEX
  8
0
  5
155
 10
0.114748
 20
57.1625
 30
0.000000
  70
    32
  0
VERTEX
  8
0
  5
156
 10
0.156575
 20
57.1062
 30
0.000000
  70
    32
  0
VERTEX
  8
0
  5
157
 10
0.204816
 20
57.0503
 30
0.000000
  70
    32
  0
VERTEX
  8
0
  5
158
 10
0.259430
 20
56.9948
 30
0.000000
  70
    32
  0
VERTEX
  8
0
  5
159
 10
0.320374
 20
56.9397
 30
0.000000
  70
    32
  0
VERTEX
  8
0
  5
15A
 10
0.387598
 20
56.8850
 30
0.000000
  70
    32
  0
VERTEX
  8
0
  5
15B
 10
0.461046
 20
56.8309
 30
0.000000
  70
    32
  0
VERTEX
  8
0
  5
15C
 10
0.540659
 20
56.7772
 30
0.000000
  70
    32
  0
VERTEX
  8
0
  5
15D
 10
0.626371
 20
56.7242
 30
0.000000
  70
    32
  0
VERTEX
  8
0
  5
15E
 10
0.718112
 20
56.6718
 30
0.000000
  70
    32
  0
VERTEX
  8
0
  5
15F
 10
0.815808
 20
56.6201
 30
0.000000
  70
    32
  0
VERTEX
  8
0
  5
160
 10
0.919379
 20
56.5691
 30
0.000000
  70
    32
  0
VERTEX
  8
0
  5
161
 10
1.02874
 20
56.5189
 30
0.000000
  70
    32
  0
VERTEX
  8
0
  5
162
 10
1.14380
 20
56.4695
 30
0.000000
  70
    32
  0
VERTEX
  8
0
  5
163
 10
1.26447
 20
56.4209
 30
0.000000
  70
    32
  0
VERTEX
  8
0
  5
164
 10
1.39064
 20
56.3732
 30
0.000000
  70
    32
  0
VERTEX
  8
0
  5
165
 10
1.52222
 20
56.3264
 30
0.000000
  70
    32
  0
VERTEX
  8
0
  5
166
 10
1.65910
 20
56.2806
 30
0.000000
  70
    32
  0
VERTEX
  8
0
  5
167
 10
1.80116
 20
56.2357
 30
0.000000
  70
    32
  0
VERTEX
  8
0
  5
168
 10
1.94829
 20
56.1919
 30
0.000000
  70
    32
  0
VERTEX
  8
0
  5
169
 10
2.10036
 20
56.1492
 30
0.000000
  70
    32
  0
VERTEX
  8
0
  5
16A
 10
2.25727
 20
56.1076
 30
0.000000
  70
    32
  0
VERTEX
  8
0
  5
16B
 10
2.41886
 20
56.0671
 30
0.000000
  70
    32
  0
VERTEX
  8
0
  5
16C
 10
2.58502
 20
56.0278
 30
0.000000
  70
    32
  0
VERTEX
  8
0
  5
16D
 10
2.75561
 20
55.9897
 30
0.000000
  70
    32
  0
VERTEX
  8
0
  5
16E
 10
2.93049
 20
55.9528
 30
0.000000
  70
    32
  0
VERTEX
  8
0
  5
16F
 10
3.10951
 20
55.9172
 30
0.000000
  70
    32
  0
VERTEX
  8
0
  5
170
 10
3.29254
 20
55.8829
 30
0.000000
  70
    32
  0
VERTEX
  8
0
  5
171
 10
3.47941
 20
55.8499
 30
0.000000
  70
    32
  0
VERTEX
  8
0
  5
172
 10
3.66997
 20
55.8183
 30
0.000000
  70
    32
  0
VERTEX
  8
0
  5
173
 10
3.86408
 20
55.7880
 30
0.000000
  70
    32
  0
VERTEX
  8
0
  5
174
 10
4.06157
 20
55.7592
 30
0.000000
  70
    32
  0
VERTEX
  8
0
  5
175
 10
4.26228
 20
55.7317
 30
0.000000
  70
    32
  0
VERTEX
  8
0
  5
176
 10
4.46605
 20
55.7057
 30
0.000000
  70
    32
  0
VERTEX
  8
0
  5
177
 10
4.67271
 20
55.6812
 30
0.000000
  70
    32
  0
VERTEX
  8
0
  5
178
 10
4.88208
 20
55.6581
 30
0.000000
  70
    32
  0
VERTEX
  8
0
  5
179
 10
5.09401
 20
55.6366
 30
0.000000
  70
    32
  0
VERTEX
  8
0
  5
17A
 10
5.30831
 20
55.6166
 30
0.000000
  70
    32
  0
VERTEX
  8
0
  5
17B
 10
5.52482
 20
55.5981
 30
0.000000
  70
    32
  0
VERTEX
  8
0
  5
17C
 10
5.74335
 20
55.5812
 30
0.000000
  70
    32
  0
VERTEX
  8
0
  5
17D
 10
5.96372
 20
55.5659
 30
0.000000
  70
    32
  0
VERTEX
  8
0
  5
17E
 10
6.18576
 20
55.5521
 30
0.000000
  70
    32
  0
VERTEX
  8
0
  5
17F
 10
6.40928
 20
55.5399
 30
0.000000
  70
    32
  0
VERTEX
  8
0
  5
180
 10
6.63410
 20
55.5294
 30
0.000000
  70
    32
  0
VERTEX
  8
0
  5
181
 10
6.86004
 20
55.5204
 30
0.000000
  70
    32
  0
VERTEX
  8
0
  5
182
 10
7.08691
 20
55.5131
 30
0.000000
  70
    32
  0
VERTEX
  8
0
  5
183
 10
7.31453
 20
55.5074
 30
0.000000
  70
    32
  0
VERTEX
  8
0
  5
184
 10
7.54271
 20
55.5033
 30
0.000000
  70
    32
  0
VERTEX
  8
0
  5
185
 10
7.77126
 20
55.5008
 30
0.000000
  70
    32
  0
VERTEX
  8
0
  5
186
 10
8.00000
 20
55.5000
 30
0.000000
  70
    32
  0
VERTEX
  8
0
  5
187
 10
8.22874
 20
55.5008
 30
0.000000
  70
    32
  0
VERTEX
  8
0
  5
188
 10
8.45729
 20
55.5033
 30
0.000000
  70
    32
  0
VERTEX
  8
0
  5
189
 10
8.68547
 20
55.5074
 30
0.000000
  70
    32
  0
VERTEX
  8
0
  5
18A
 10
8.91309
 20
55.5131
 30
0.000000
  70
    32
  0
VERTEX
  8
0
  5
18B
 10
9.13996
 20
55.5204
 30
0.000000
  70
    32
  0
VERTEX
  8
0
  5
18C
 10
9.36590
 20
55.5294
 30
0.000000
  70
    32
  0
VERTEX
  8
0
  5
18D
 10
9.59072
 20
55.5399
 30
0.000000
  70
    32
  0
VERTEX
  8
0
  5
18E
 10
9.81424
 20
55.5521
 30
0.000000
  70
    32
  0
VERTEX
  8
0
  5
18F
 10
10.0363
 20
55.5659
 30
0.000000
  70
    32
  0
VERTEX
  8
0
  5
190
 10
10.2567
 20
55.5812
 30
0.000000
  70
    32
  0
VERTEX
  8
0
  5
191
 10
10.4752
 20
55.5981
 30
0.000000
  70
    32
  0
VERTEX
  8
0
  5
192
 10
10.6917
 20
55.6166
 30
0.000000
  70
    32
  0
VERTEX
  8
0
  5
193
 10
10.9060
 20
55.6366
 30
0.000000
  70
    32
  0
VERTEX
  8
0
  5
194
 10
11.1179
 20
55.6581
 30
0.000000
  70
    32
  0
VERTEX
  8
0
  5
195
 10
11.3273
 20
55.6812
 30
0.000000
  70
    32
  0
VERTEX
  8
0
  5
196
 10
11.5339
 20
55.7057
 30
0.000000
  70
    32
  0
VERTEX
  8
0
  5
197
 10
11.7377
 20
55.7317
 30
0.000000
  70
    32
  0
VERTEX
  8
0
  5
198
 10
11.9384
 20
55.7592
 30
0.000000
  70
    32
  0
VERTEX
  8
0
  5
199
 10
12.1359
 20
55.7880
 30
0.000000
  70
    32
  0
VERTEX
  8
0
  5
19A
 10
12.3300
 20
55.8183
 30
0.000000
  70
    32
  0
VERTEX
  8
0
  5
19B
 10
12.5206
 20
55.8499
 30
0.000000
  70
    32
  0
VERTEX
  8
0
  5
19C
 10
12.7075
 20
55.8829
 30
0.000000
  70
    32
  0
VERTEX
  8
0
  5
19D
 10
12.8905
 20
55.9172
 30
0.000000
  70
    32
  0
VERTEX
  8
0
  5
19E
 10
13.0695
 20
55.9528
 30
0.000000
  70
    32
  0
VERTEX
  8
0
  5
19F
 10
13.2444
 20
55.9897
 30
0.000000
  70
    32
  0
VERTEX
  8
0
  5
1A0
 10
13.4150
 20
56.0278
 30
0.000000
  70
    32
  0
VERTEX
  8
0
  5
1A1
 10
13.5811
 20
56.0671
 30
0.000000
  70
    32
  0
VERTEX
  8
0
  5
1A2
 10
13.7427
 20
56.1076
 30
0.000000
  70
    32
  0
VERTEX
  8
0
  5
1A3
 10
13.8996
 20
56.1492
 30
0.000000
  70
    32
  0
VERTEX
  8
0
  5
1A4
 10
14.0517
 20
56.1919
 30
0.000000
  70
    32
  0
VERTEX
  8
0
  5
1A5
 10
14.1988
 20
56.2357
 30
0.000000
  70
    32
  0
VERTEX
  8
0
  5
1A6
 10
14.3409
 20
56.2806
 30
0.000000
  70
    32
  0
VERTEX
  8
0
  5
1A7
 10
14.4778
 20
56.3264
 30
0.000000
  70
    32
  0
VERTEX
  8
0
  5
1A8
 10
14.6094
 20
56.3732
 30
0.000000
  70
    32
  0
VERTEX
  8
0
  5
1A9
 10
14.7355
 20
56.4209
 30
0.000000
  70
    32
  0
VERTEX
  8
0
  5
1AA
 10
14.8562
 20
56.4695
 30
0.000000
  70
    32
  0
VERTEX
  8
0
  5
1AB
 10
14.9713
 20
56.5189
 30
0.000000
  70
    32
  0
VERTEX
  8
0
  5
1AC
 10
15.0806
 20
56.5691
 30
0.000000
  70
    32
  0
VERTEX
  8
0
  5
1AD
 10
15.1842
 20
56.6201
 30
0.000000
  70
    32
  0
VERTEX
  8
0
  5
1AE
 10
15.2819
 20
56.6718
 30
0.000000
  70
    32
  0
VERTEX
  8
0
  5
1AF
 10
15.3736
 20
56.7242
 30
0.000000
  70
    32
  0
VERTEX
  8
0
  5
1B0
 10
15.4593
 20
56.7772
 30
0.000000
  70
    32
  0
VERTEX
  8
0
  5
1B1
 10
15.5390
 20
56.8309
 30
0.000000
  70
    32
  0
VERTEX
  8
0
  5
1B2
 10
15.6124
 20
56.8850
 30
0.000000
  70
    32
  0
VERTEX
  8
0
  5
1B3
 10
15.6796
 20
56.9397
 30
0.000000
  70
    32
  0
VERTEX
  8
0
  5
1B4
 10
15.7406
 20
56.9948
 30
0.000000
  70
    32
  0
VERTEX
  8
0
  5
1B5
 10
15.7952
 20
57.0503
 30
0.000000
  70
    32
  0
VERTEX
  8
0
  5
1B6
 10
15.8434
 20
57.1062
 30
0.000000
  70
    32
  0
VERTEX
  8
0
  5
1B7
 10
15.8853
 20
57.1625
 30
0.000000
  70
    32
  0
VERTEX
  8
0
  5
1B8
 10
15.9206
 20
57.2190
 30
0.000000
  70
    32
  0
VERTEX
  8
0
  5
1B9
 10
15.9495
 20
57.2757
 30
0.000000
  70
    32
  0
VERTEX
  8
0
  5
1BA
 10
15.9719
 20
57.3326
 30
0.000000
  70
    32
  0
VERTEX
  8
0
  5
1BB
 10
15.9878
 20
57.3897
 30
0.000000
  70
    32
  0
VERTEX
  8
0
  5
1BC
 10
15.9972
 20
57.4468
 30
0.000000
  70
    32
  0
VERTEX
  8
0
  5
1BD
 10
16.0000
 20
57.5040
 30
0.000000
  70
    32
  0
VERTEX
  8
0
  5
1BE
 10
15.9963
 20
57.5612
 30
0.000000
  70
    32
  0
VERTEX
  8
0
  5
1BF
 10
15.9860
 20
57.6183
 30
0.000000
  70
    32
  0
VERTEX
  8
0
  5
1C0
 10
15.9692
 20
57.6754
 30
0.000000
  70
    32
  0
VERTEX
  8
0
  5
1C1
 10
15.9459
 20
57.7323
 30
0.000000
  70
    32
  0
VERTEX
  8
0
  5
1C2
 10
15.9161
 20
57.7890
 30
0.000000
  70
    32
  0
VERTEX
  8
0
  5
1C3
 10
15.8798
 20
57.8454
 30
0.000000
  70
    32
  0
VERTEX
  8
0
  5
1C4
 10
15.8371
 20
57.9016
 30
0.000000
  70
    32
  0
VERTEX
  8
0
  5
1C5
 10
15.7879
 20
57.9575
 30
0.000000
  70
    32
  0
VERTEX
  8
0
  5
1C6
 10
15.7324
 20
58.0129
 30
0.000000
  70
    32
  0
SEQEND
  8
0
  5
1C7
  0
LINE
  5
3A
  8
0
 10
0.0
 20
38.5
 30
0.0
 11
0.0
 21
57.5
 31
0.0
  0
POLYLINE
  5
3B
  8
0
 10
0.0
 20
38.5
 30
0.0
 66
     1
 70
     8
  0
VERTEX
  8
0
  5
1C8
 10
0.000000
 20
38.5000
 30
0.000000
  70
    32
  0
VERTEX
  8
0
  5
1C9
 10
0.00240945
 20
38.4543
 30
0.000000
  70
    32
  0
VERTEX
  8
0
  5
1CA
 10
0.00963635
 20
38.4085
 30
0.000000
  70
    32
  0
VERTEX
  8
0
  5
1CB
 10
0.0216763
 20
38.3629
 30
0.000000
  70
    32
  0
VERTEX
  8
0
  5
1CC
 10
0.0385222
 20
38.3173
 30
0.000000
  70
    32
  0
VERTEX
  8
0
  5
1CD
 10
0.0601637
 20
38.2718
 30
0.000000
  70
    32
  0
VERTEX
  8
0
  5
1CE
 10
0.0865879
 20
38.2265
 30
0.000000
  70
    32
  0
VERTEX
  8
0
  5
1CF
 10
0.117779
 20
38.1813
 30
0.000000
  70
    32
  0
VERTEX
  8
0
  5
1D0
 10
0.153718
 20
38.1364
 30
0.000000
  70
    32
  0
VERTEX
  8
0
  5
1D1
 10
0.194383
 20
38.0916
 30
0.000000
  70
    32
  0
VERTEX
  8
0
  5
1D2
 10
0.239750
 20
38.0471
 30
0.000000
  70
    32
  0
VERTEX
  8
0
  5
1D3
 10
0.289791
 20
38.0028
 30
0.000000
  70
    32
  0
VERTEX
  8
0
  5
1D4
 10
0.344477
 20
37.9589
 30
0.000000
  70
    32
  0
VERTEX
  8
0
  5
1D5
 10
0.403775
 20
37.9153
 30
0.000000
  70
    32
  0
VERTEX
  8
0
  5
1D6
 10
0.467647
 20
37.8720
 30
0.000000
  70
    32
  0
VERTEX
  8
0
  5
1D7
 10
0.536058
 20
37.8292
 30
0.000000
  70
    32
  0
VERTEX
  8
0
  5
1D8
 10
0.608964
 20
37.7867
 30
0.000000
  70
    32
  0
VERTEX
  8
0
  5
1D9
 10
0.686322
 20
37.7446
 30
0.000000
  70
    32
  0
VERTEX
  8
0
  5
1DA
 10
0.768086
 20
37.7030
 30
0.000000
  70
    32
  0
VERTEX
  8
0
  5
1DB
 10
0.854206
 20
37.6619
 30
0.000000
  70
    32
  0
VERTEX
  8
0
  5
1DC
 10
0.944630
 20
37.6213
 30
0.000000
  70
    32
  0
VERTEX
  8
0
  5
1DD
 10
1.03930
 20
37.5812
 30
0.000000
  70
    32
  0
VERTEX
  8
0
  5
1DE
 10
1.13817
 20
37.5417
 30
0.000000
  70
    32
  0
VERTEX
  8
0
  5
1DF
 10
1.24117
 20
37.5028
 30
0.000000
  70
    32
  0
VERTEX
  8
0
  5
1E0
 10
1.34824
 20
37.4644
 30
0.000000
  70
    32
  0
VERTEX
  8
0
  5
1E1
 10
1.45932
 20
37.4267
 30
0.000000
  70
    32
  0
VERTEX
  8
0
  5
1E2
 10
1.57434
 20
37.3896
 30
0.000000
  70
    32
  0
VERTEX
  8
0
  5
1E3
 10
1.69323
 20
37.3532
 30
0.000000
  70
    32
  0
VERTEX
  8
0
  5
1E4
 10
1.81592
 20
37.3175
 30
0.000000
  70
    32
  0
VERTEX
  8
0
  5
1E5
 10
1.94233
 20
37.2825
 30
0.000000
  70
    32
  0
VERTEX
  8
0
  5
1E6
 10
2.07239
 20
37.2482
 30
0.000000
  70
    32
  0
VERTEX
  8
0
  5
1E7
 10
2.20602
 20
37.2147
 30
0.000000
  70
    32
  0
VERTEX
  8
0
  5
1E8
 10
2.34315
 20
37.1820
 30
0.000000
  70
    32
  0
VERTEX
  8
0
  5
1E9
 10
2.48368
 20
37.1500
 30
0.000000
  70
    32
  0
VERTEX
  8
0
  5
1EA
 10
2.62753
 20
37.1189
 30
0.000000
  70
    32
  0
VERTEX
  8
0
  5
1EB
 10
2.77462
 20
37.0886
 30
0.000000
  70
    32
  0
VERTEX
  8
0
  5
1EC
 10
2.92485
 20
37.0591
 30
0.000000
  70
    32
  0
VERTEX
  8
0
  5
1ED
 10
3.07815
 20
37.0305
 30
0.000000
  70
    32
  0
VERTEX
  8
0
  5
1EE
 10
3.23441
 20
37.0028
 30
0.000000
  70
    32
  0
VERTEX
  8
0
  5
1EF
 10
3.39353
 20
36.9760
 30
0.000000
  70
    32
  0
VERTEX
  8
0
  5
1F0
 10
3.55544
 20
36.9501
 30
0.000000
  70
    32
  0
VERTEX
  8
0
  5
1F1
 10
3.72002
 20
36.9252
 30
0.000000
  70
    32
  0
VERTEX
  8
0
  5
1F2
 10
3.88718
 20
36.9012
 30
0.000000
  70
    32
  0
VERTEX
  8
0
  5
1F3
 10
4.05681
 20
36.8782
 30
0.000000
  70
    32
  0
VERTEX
  8
0
  5
1F4
 10
4.22883
 20
36.8561
 30
0.000000
  70
    32
  0
VERTEX
  8
0
  5
1F5
 10
4.40311
 20
36.8350
 30
0.000000
  70
    32
  0
VERTEX
  8
0
  5
1F6
 10
4.57956
 20
36.8150
 30
0.000000
  70
    32
  0
VERTEX
  8
0
  5
1F7
 10
4.75807
 20
36.7959
 30
0.000000
  70
    32
  0
VERTEX
  8
0
  5
1F8
 10
4.93853
 20
36.7779
 30
0.000000
  70
    32
  0
VERTEX
  8
0
  5
1F9
 10
5.12084
 20
36.7609
 30
0.000000
  70
    32
  0
VERTEX
  8
0
  5
1FA
 10
5.30488
 20
36.7450
 30
0.000000
  70
    32
  0
VERTEX
  8
0
  5
1FB
 10
5.49055
 20
36.7301
 30
0.000000
  70
    32
  0
VERTEX
  8
0
  5
1FC
 10
5.67772
 20
36.7163
 30
0.000000
  70
    32
  0
VERTEX
  8
0
  5
1FD
 10
5.86630
 20
36.7035
 30
0.000000
  70
    32
  0
VERTEX
  8
0
  5
1FE
 10
6.05616
 20
36.6919
 30
0.000000
  70
    32
  0
VERTEX
  8
0
  5
1FF
 10
6.24719
 20
36.6813
 30
0.000000
  70
    32
  0
VERTEX
  8
0
  5
200
 10
6.43928
 20
36.6718
 30
0.000000
  70
    32
  0
VERTEX
  8
0
  5
201
 10
6.63230
 20
36.6634
 30
0.000000
  70
    32
  0
VERTEX
  8
0
  5
202
 10
6.82616
 20
36.6562
 30
0.000000
  70
    32
  0
VERTEX
  8
0
  5
203
 10
7.02071
 20
36.6500
 30
0.000000
  70
    32
  0
VERTEX
  8
0
  5
204
 10
7.21586
 20
36.6450
 30
0.000000
  70
    32
  0
VERTEX
  8
0
  5
205
 10
7.41148
 20
36.6411
 30
0.000000
  70
    32
  0
VERTEX
  8
0
  5
206
 10
7.60746
 20
36.6382
 30
0.000000
  70
    32
  0
VERTEX
  8
0
  5
207
 10
7.80367
 20
36.6366
 30
0.000000
  70
    32
  0
VERTEX
  8
0
  5
208
 10
8.00000
 20
36.6360
 30
0.000000
  70
    32
  0
VERTEX
  8
0
  5
209
 10
8.19633
 20
36.6366
 30
0.000000
  70
    32
  0
VERTEX
  8
0
  5
20A
 10
8.39254
 20
36.6382
 30
0.000000
  70
    32
  0
VERTEX
  8
0
  5
20B
 10
8.58852
 20
36.6411
 30
0.000000
  70
    32
  0
VERTEX
  8
0
  5
20C
 10
8.78414
 20
36.6450
 30
0.000000
  70
    32
  0
VERTEX
  8
0
  5
20D
 10
8.97929
 20
36.6500
 30
0.000000
  70
    32
  0
VERTEX
  8
0
  5
20E
 10
9.17384
 20
36.6562
 30
0.000000
  70
    32
  0
VERTEX
  8
0
  5
20F
 10
9.36770
 20
36.6634
 30
0.000000
  70
    32
  0
VERTEX
  8
0
  5
210
 10
9.56072
 20
36.6718
 30
0.000000
  70
    32
  0
VERTEX
  8
0
  5
211
 10
9.75281
 20
36.6813
 30
0.000000
  70
    32
  0
VERTEX
  8
0
  5
212
 10
9.94384
 20
36.6919
 30
0.000000
  70
    32
  0
VERTEX
  8
0
  5
213
 10
10.1337
 20
36.7035
 30
0.000000
  70
    32
  0
VERTEX
  8
0
  5
214
 10
10.3223
 20
36.7163
 30
0.000000
  70
    32
  0
VERTEX
  8
0
  5
215
 10
10.5095
 20
36.7301
 30
0.000000
  70
    32
  0
VERTEX
  8
0
  5
216
 10
10.6951
 20
36.7450
 30
0.000000
  70
    32
  0
VERTEX
  8
0
  5
217
 10
10.8792
 20
36.7609
 30
0.000000
  70
    32
  0
VERTEX
  8
0
  5
218
 10
11.0615
 20
36.7779
 30
0.000000
  70
    32
  0
VERTEX
  8
0
  5
219
 10
11.2419
 20
36.7959
 30
0.000000
  70
    32
  0
VERTEX
  8
0
  5
21A
 10
11.4204
 20
36.8150
 30
0.000000
  70
    32
  0
VERTEX
  8
0
  5
21B
 10
11.5969
 20
36.8350
 30
0.000000
  70
    32
  0
VERTEX
  8
0
  5
21C
 10
11.7712
 20
36.8561
 30
0.000000
  70
    32
  0
VERTEX
  8
0
  5
21D
 10
11.9432
 20
36.8782
 30
0.000000
  70
    32
  0
VERTEX
  8
0
  5
21E
 10
12.1128
 20
36.9012
 30
0.000000
  70
    32
  0
VERTEX
  8
0
  5
21F
 10
12.2800
 20
36.9252
 30
0.000000
  70
    32
  0
VERTEX
  8
0
  5
220
 10
12.4446
 20
36.9501
 30
0.000000
  70
    32
  0
VERTEX
  8
0
  5
221
 10
12.6065
 20
36.9760
 30
0.000000
  70
    32
  0
VERTEX
  8
0
  5
222
 10
12.7656
 20
37.0028
 30
0.000000
  70
    32
  0
VERTEX
  8
0
  5
223
 10
12.9219
 20
37.0305
 30
0.000000
  70
    32
  0
VERTEX
  8
0
  5
224
 10
13.0751
 20
37.0591
 30
0.000000
  70
    32
  0
VERTEX
  8
0
  5
225
 10
13.2254
 20
37.0886
 30
0.000000
  70
    32
  0
VERTEX
  8
0
  5
226
 10
13.3725
 20
37.1189
 30
0.000000
  70
    32
  0
VERTEX
  8
0
  5
227
 10
13.5163
 20
37.1500
 30
0.000000
  70
    32
  0
VERTEX
  8
0
  5
228
 10
13.6569
 20
37.1820
 30
0.000000
  70
    32
  0
VERTEX
  8
0
  5
229
 10
13.7940
 20
37.2147
 30
0.000000
  70
    32
  0
VERTEX
  8
0
  5
22A
 10
13.9276
 20
37.2482
 30
0.000000
  70
    32
  0
VERTEX
  8
0
  5
22B
 10
14.0577
 20
37.2825
 30
0.000000
  70
    32
  0
VERTEX
  8
0
  5
22C
 10
14.1841
 20
37.3175
 30
0.000000
  70
    32
  0
VERTEX
  8
0
  5
22D
 10
14.3068
 20
37.3532
 30
0.000000
  70
    32
  0
VERTEX
  8
0
  5
22E
 10
14.4257
 20
37.3896
 30
0.000000
  70
    32
  0
VERTEX
  8
0
  5
22F
 10
14.5407
 20
37.4267
 30
0.000000
  70
    32
  0
VERTEX
  8
0
  5
230
 10
14.6518
 20
37.4644
 30
0.000000
  70
    32
  0
VERTEX
  8
0
  5
231
 10
14.7588
 20
37.5028
 30
0.000000
  70
    32
  0
VERTEX
  8
0
  5
232
 10
14.8618
 20
37.5417
 30
0.000000
  70
    32
  0
VERTEX
  8
0
  5
233
 10
14.9607
 20
37.5812
 30
0.000000
  70
    32
  0
VERTEX
  8
0
  5
234
 10
15.0554
 20
37.6213
 30
0.000000
  70
    32
  0
VERTEX
  8
0
  5
235
 10
15.1458
 20
37.6619
 30
0.000000
  70
    32
  0
VERTEX
  8
0
  5
236
 10
15.2319
 20
37.7030
 30
0.000000
  70
    32
  0
VERTEX
  8
0
  5
237
 10
15.3137
 20
37.7446
 30
0.000000
  70
    32
  0
VERTEX
  8
0
  5
238
 10
15.3910
 20
37.7867
 30
0.000000
  70
    32
  0
VERTEX
  8
0
  5
239
 10
15.4639
 20
37.8292
 30
0.000000
  70
    32
  0
VERTEX
  8
0
  5
23A
 10
15.5324
 20
37.8720
 30
0.000000
  70
    32
  0
VERTEX
  8
0
  5
23B
 10
15.5962
 20
37.9153
 30
0.000000
  70
    32
  0
VERTEX
  8
0
  5
23C
 10
15.6555
 20
37.9589
 30
0.000000
  70
    32
  0
VERTEX
  8
0
  5
23D
 10
15.7102
 20
38.0028
 30
0.000000
  70
    32
  0
VERTEX
  8
0
  5
23E
 10
15.7603
 20
38.0471
 30
0.000000
  70
    32
  0
VERTEX
  8
0
  5
23F
 10
15.8056
 20
38.0916
 30
0.000000
  70
    32
  0
VERTEX
  8
0
  5
240
 10
15.8463
 20
38.1364
 30
0.000000
  70
    32
  0
VERTEX
  8
0
  5
241
 10
15.8822
 20
38.1813
 30
0.000000
  70
    32
  0
VERTEX
  8
0
  5
242
 10
15.9134
 20
38.2265
 30
0.000000
  70
    32
  0
VERTEX
  8
0
  5
243
 10
15.9398
 20
38.2718
 30
0.000000
  70
    32
  0
VERTEX
  8
0
  5
244
 10
15.9615
 20
38.3173
 30
0.000000
  70
    32
  0
VERTEX
  8
0
  5
245
 10
15.9783
 20
38.3629
 30
0.000000
  70
    32
  0
VERTEX
  8
0
  5
246
 10
15.9904
 20
38.4085
 30
0.000000
  70
    32
  0
VERTEX
  8
0
  5
247
 10
15.9976
 20
38.4543
 30
0.000000
  70
    32
  0
VERTEX
  8
0
  5
248
 10
16.0000
 20
38.5000
 30
0.000000
  70
    32
  0
SEQEND
  8
0
  5
249
  0
LINE
  5
3C
  8
0
 10
2.029365
 20
56.168846
 30
0.0
 11
2.0
 21
56.0
 31
0.0
  0
LINE
  5
3D
  8
0
 10
13.970635
 20
56.168846
 30
0.0
 11
14.0
 21
56.0
 31
0.0
  0
LINE
  5
3E
  8
0
 10
8.0
 20
60.0
 30
0.0
 11
11.5
 21
60.0
 31
0.0
  0
ARC
  5
3F
  8
0
 10
8.0
 20
62.916667
 30
0.0
 40
6.083333
 50
48.88791
 51
131.11209
  0
LINE
  5
40
  8
0
 10
4.0
 20
67.5
 30
0.0
 11
2.514032
 21
58.955682
 31
0.0
  0
ARC
  5
41
  8
0
 10
4.5
 20
59.5
 30
0.0
 40
0.5
 50
90.0
 51
180.0
  0
LINE
  5
42
  8
0
 10
4.0
 20
59.5
 30
0.0
 11
4.0
 21
57.5
 31
0.0
  0
LINE
  5
43
  8
0
 10
8.0
 20
60.0
 30
0.0
 11
4.5
 21
60.0
 31
0.0
  0
LINE
  5
44
  8
0
 10
12.0
 20
67.5
 30
0.0
 11
13.485968
 21
58.955682
 31
0.0
  0
ARC
  5
45
  8
0
 10
11.5
 20
59.5
 30
0.0
 40
0.5
 50
0.0
 51
90.0
  0
LINE
  5
46
  8
0
 10
12.0
 20
59.5
 30
0.0
 11
12.0
 21
57.5
 31
0.0
  0
LINE
  5
47
  8
0
 10
54.0
 20
54.734191
 30
0.0
 11
54.0
 21
38.004234
 31
0.0
  0
ARC
  5
48
  8
0
 10
55.0
 20
54.734191
 30
0.0
 40
1.0
 50
105.109575
 51
180.0
  0
LINE
  5
49
  8
1
 10
62.0
 20
63.0
 30
0.0
 11
62.0
 21
0.0
 31
0.0
  0
LINE
  5
4A
  8
0
 10
68.0
 20
33.5
 30
0.0
 11
68.0
 21
40.4625
 31
0.0
  0
LINE
  5
4B
  8
0
 10
56.0
 20
33.5
 30
0.0
 11
56.0
 21
37.2375
 31
0.0
  0
LINE
  5
4C
  8
0
 10
59.0
 20
33.5
 30
0.0
 11
59.0
 21
4.0
 31
0.0
  0
LINE
  5
4D
  8
0
 10
59.5
 20
3.5
 30
0.0
 11
59.5
 21
32.5
 31
0.0
  0
LINE
  5
4E
  8
0
 10
64.5
 20
3.5
 30
0.0
 11
64.5
 21
32.5
 31
0.0
  0
LINE
  5
4F
  8
0
 10
65.0
 20
33.5
 30
0.0
 11
65.0
 21
4.0
 31
0.0
  0
LINE
  5
50
  8
0
 10
64.5
 20
3.5
 30
0.0
 11
62.0
 21
3.5
 31
0.0
  0
LINE
  5
51
  8
0
 10
65.0
 20
4.0
 30
0.0
 11
62.0
 21
4.0
 31
0.0
  0
LINE
  5
52
  8
0
 10
59.5
 20
3.5
 30
0.0
 11
62.0
 21
3.5
 31
0.0
  0
LINE
  5
53
  8
0
 10
59.0
 20
4.0
 30
0.0
 11
62.0
 21
4.0
 31
0.0
  0
LINE
  5
54
  8
0
 10
59.0
 20
4.0
 30
0.0
 11
59.5
 21
3.5
 31
0.0
  0
LINE
  5
55
  8
0
 10
65.0
 20
4.0
 30
0.0
 11
64.5
 21
3.5
 31
0.0
  0
LINE
  5
56
  8
0
 10
65.0
 20
32.5
 30
0.0
 11
62.0
 21
32.5
 31
0.0
  0
LINE
  5
57
  8
0
 10
62.0
 20
33.5
 30
0.0
 11
68.0
 21
33.5
 31
0.0
  0
LINE
  5
58
  8
0
 10
62.0
 20
33.5
 30
0.0
 11
56.0
 21
33.5
 31
0.0
  0
LINE
  5
59
  8
0
 10
59.0
 20
32.5
 30
0.0
 11
62.0
 21
32.5
 31
0.0
  0
LINE
  5
5A
  8
0
 10
91.5
 20
57.0
 30
0.0
 11
68.0
 21
50.0
 31
0.0
  0
LINE
  5
5B
  8
0
 10
68.0
 20
50.0
 30
0.0
 11
68.0
 21
59.28
 31
0.0
  0
LINE
  5
5C
  8
0
 10
58.0
 20
56.58
 30
0.0
 11
58.0
 21
59.5
 31
0.0
  0
LINE
  5
5D
  8
0
 10
70.0
 20
41.766734
 30
0.0
 11
70.0
 21
50.595745
 31
0.0
  0
LINE
  5
5E
  8
0
 10
69.25954
 20
40.801001
 30
0.0
 11
55.25954
 21
37.038501
 31
0.0
  0
ARC
  5
5F
  8
0
 10
69.0
 20
41.766734
 30
0.0
 40
1.0
 50
285.042801
 51
0.0
  0
LINE
  5
60
  8
0
 10
58.5
 20
60.0
 30
0.0
 11
65.5
 21
60.0
 31
0.0
  0
ARC
  5
61
  8
0
 10
58.5
 20
59.5
 30
0.0
 40
0.5
 50
90.0
 51
180.0
  0
ARC
  5
62
  8
0
 10
65.5
 20
59.5
 30
0.0
 40
0.5
 50
0.0
 51
90.0
  0
LINE
  5
63
  8
0
 10
66.0
 20
59.5
 30
0.0
 11
66.0
 21
58.74
 31
0.0
  0
LINE
  5
64
  8
0
 10
103.252422
 20
58.80498
 30
0.0
 11
93.054394
 21
56.144624
 31
0.0
  0
ARC
  5
65
  8
0
 10
92.801972
 20
57.112242
 30
0.0
 40
1.0
 50
225.0
 51
284.620874
  0
LINE
  5
66
  8
0
 10
92.094865
 20
56.405135
 30
0.0
 11
91.5
 21
57.0
 31
0.0
  0
ARC
  5
67
  8
0
 10
103.0
 20
67.694191
 30
0.0
 40
1.0
 50
0.0
 51
105.109575
  0
LINE
  5
68
  8
0
 10
104.0
 20
67.694191
 30
0.0
 11
104.0
 21
59.772597
 31
0.0
  0
ARC
  5
69
  8
0
 10
103.0
 20
59.772597
 30
0.0
 40
1.0
 50
284.620874
 51
0.0
  0
ENDBLK
  5
6B
  8
0
  0
ENDSEC
  0
SECTION
  2
ENTITIES
  0
LINE
  5
B4
  8
1
 10
45.5
 20
116.0
 30
0.0
 11
45.5
 21
58.5
 31
0.0
  0
LINE
  5
B6
  8
0
 10
45.5
 20
63.0
 30
0.0
 11
38.0
 21
63.0
 31
0.0
  0
LINE
  5
B7
  8
0
 10
38.0
 20
63.0
 30
0.0
 11
38.0
 21
70.015687
 31
0.0
  0
LINE
  5
BA
  8
0
 10
45.5
 20
63.0
 30
0.0
 11
53.0
 21
63.0
 31
0.0
  0
LINE
  5
BC
  8
0
 10
53.0
 20
63.0
 30
0.0
 11
53.0
 21
70.015687
 31
0.0
  0
POLYLINE
  5
BD
  8
0
 10
35.5
 20
72.0
 30
0.0
 66
     1
 70
     8
  0
VERTEX
  8
0
  5
24A
 10
35.5000
 20
72.0000
 30
0.000000
  70
    32
  0
VERTEX
  8
0
  5
24B
 10
35.5030
 20
71.9264
 30
0.000000
  70
    32
  0
VERTEX
  8
0
  5
24C
 10
35.5120
 20
71.8528
 30
0.000000
  70
    32
  0
VERTEX
  8
0
  5
24D
 10
35.5271
 20
71.7793
 30
0.000000
  70
    32
  0
VERTEX
  8
0
  5
24E
 10
35.5482
 20
71.7059
 30
0.000000
  70
    32
  0
VERTEX
  8
0
  5
24F
 10
35.5752
 20
71.6328
 30
0.000000
  70
    32
  0
VERTEX
  8
0
  5
250
 10
35.6082
 20
71.5598
 30
0.000000
  70
    32
  0
VERTEX
  8
0
  5
251
 10
35.6472
 20
71.4871
 30
0.000000
  70
    32
  0
VERTEX
  8
0
  5
252
 10
35.6921
 20
71.4147
 30
0.000000
  70
    32
  0
VERTEX
  8
0
  5
253
 10
35.7430
 20
71.3427
 30
0.000000
  70
    32
  0
VERTEX
  8
0
  5
254
 10
35.7997
 20
71.2711
 30
0.000000
  70
    32
  0
VERTEX
  8
0
  5
255
 10
35.8622
 20
71.1999
 30
0.000000
  70
    32
  0
VERTEX
  8
0
  5
256
 10
35.9306
 20
71.1291
 30
0.000000
  70
    32
  0
VERTEX
  8
0
  5
257
 10
36.0047
 20
71.0590
 30
0.000000
  70
    32
  0
VERTEX
  8
0
  5
258
 10
36.0846
 20
70.9893
 30
0.000000
  70
    32
  0
VERTEX
  8
0
  5
259
 10
36.1701
 20
70.9203
 30
0.000000
  70
    32
  0
VERTEX
  8
0
  5
25A
 10
36.2612
 20
70.8519
 30
0.000000
  70
    32
  0
VERTEX
  8
0
  5
25B
 10
36.3579
 20
70.7843
 30
0.000000
  70
    32
  0
VERTEX
  8
0
  5
25C
 10
36.4601
 20
70.7173
 30
0.000000
  70
    32
  0
VERTEX
  8
0
  5
25D
 10
36.5678
 20
70.6512
 30
0.000000
  70
    32
  0
VERTEX
  8
0
  5
25E
 10
36.6808
 20
70.5858
 30
0.000000
  70
    32
  0
VERTEX
  8
0
  5
25F
 10
36.7991
 20
70.5213
 30
0.000000
  70
    32
  0
VERTEX
  8
0
  5
260
 10
36.9227
 20
70.4577
 30
0.000000
  70
    32
  0
VERTEX
  8
0
  5
261
 10
37.0515
 20
70.3950
 30
0.000000
  70
    32
  0
VERTEX
  8
0
  5
262
 10
37.1853
 20
70.3333
 30
0.000000
  70
    32
  0
VERTEX
  8
0
  5
263
 10
37.3242
 20
70.2726
 30
0.000000
  70
    32
  0
VERTEX
  8
0
  5
264
 10
37.4679
 20
70.2129
 30
0.000000
  70
    32
  0
VERTEX
  8
0
  5
265
 10
37.6165
 20
70.1543
 30
0.000000
  70
    32
  0
VERTEX
  8
0
  5
266
 10
37.7699
 20
70.0968
 30
0.000000
  70
    32
  0
VERTEX
  8
0
  5
267
 10
37.9279
 20
70.0405
 30
0.000000
  70
    32
  0
VERTEX
  8
0
  5
268
 10
38.0905
 20
69.9853
 30
0.000000
  70
    32
  0
VERTEX
  8
0
  5
269
 10
38.2575
 20
69.9314
 30
0.000000
  70
    32
  0
VERTEX
  8
0
  5
26A
 10
38.4289
 20
69.8787
 30
0.000000
  70
    32
  0
VERTEX
  8
0
  5
26B
 10
38.6046
 20
69.8273
 30
0.000000
  70
    32
  0
VERTEX
  8
0
  5
26C
 10
38.7844
 20
69.7771
 30
0.000000
  70
    32
  0
VERTEX
  8
0
  5
26D
 10
38.9683
 20
69.7284
 30
0.000000
  70
    32
  0
VERTEX
  8
0
  5
26E
 10
39.1561
 20
69.6810
 30
0.000000
  70
    32
  0
VERTEX
  8
0
  5
26F
 10
39.3477
 20
69.6350
 30
0.000000
  70
    32
  0
VERTEX
  8
0
  5
270
 10
39.5430
 20
69.5904
 30
0.000000
  70
    32
  0
VERTEX
  8
0
  5
271
 10
39.7419
 20
69.5472
 30
0.000000
  70
    32
  0
VERTEX
  8
0
  5
272
 10
39.9443
 20
69.5056
 30
0.000000
  70
    32
  0
VERTEX
  8
0
  5
273
 10
40.1500
 20
69.4654
 30
0.000000
  70
    32
  0
VERTEX
  8
0
  5
274
 10
40.3590
 20
69.4268
 30
0.000000
  70
    32
  0
VERTEX
  8
0
  5
275
 10
40.5710
 20
69.3897
 30
0.000000
  70
    32
  0
VERTEX
  8
0
  5
276
 10
40.7860
 20
69.3542
 30
0.000000
  70
    32
  0
VERTEX
  8
0
  5
277
 10
41.0039
 20
69.3203
 30
0.000000
  70
    32
  0
VERTEX
  8
0
  5
278
 10
41.2244
 20
69.2880
 30
0.000000
  70
    32
  0
VERTEX
  8
0
  5
279
 10
41.4476
 20
69.2574
 30
0.000000
  70
    32
  0
VERTEX
  8
0
  5
27A
 10
41.6732
 20
69.2284
 30
0.000000
  70
    32
  0
VERTEX
  8
0
  5
27B
 10
41.9010
 20
69.2010
 30
0.000000
  70
    32
  0
VERTEX
  8
0
  5
27C
 10
42.1311
 20
69.1754
 30
0.000000
  70
    32
  0
VERTEX
  8
0
  5
27D
 10
42.3632
 20
69.1514
 30
0.000000
  70
    32
  0
VERTEX
  8
0
  5
27E
 10
42.5972
 20
69.1292
 30
0.000000
  70
    32
  0
VERTEX
  8
0
  5
27F
 10
42.8329
 20
69.1087
 30
0.000000
  70
    32
  0
VERTEX
  8
0
  5
280
 10
43.0702
 20
69.0899
 30
0.000000
  70
    32
  0
VERTEX
  8
0
  5
281
 10
43.3090
 20
69.0729
 30
0.000000
  70
    32
  0
VERTEX
  8
0
  5
282
 10
43.5491
 20
69.0576
 30
0.000000
  70
    32
  0
VERTEX
  8
0
  5
283
 10
43.7904
 20
69.0442
 30
0.000000
  70
    32
  0
VERTEX
  8
0
  5
284
 10
44.0327
 20
69.0325
 30
0.000000
  70
    32
  0
VERTEX
  8
0
  5
285
 10
44.2759
 20
69.0226
 30
0.000000
  70
    32
  0
VERTEX
  8
0
  5
286
 10
44.5198
 20
69.0144
 30
0.000000
  70
    32
  0
VERTEX
  8
0
  5
287
 10
44.7644
 20
69.0081
 30
0.000000
  70
    32
  0
VERTEX
  8
0
  5
288
 10
45.0093
 20
69.0036
 30
0.000000
  70
    32
  0
VERTEX
  8
0
  5
289
 10
45.2546
 20
69.0009
 30
0.000000
  70
    32
  0
VERTEX
  8
0
  5
28A
 10
45.5000
 20
69.0000
 30
0.000000
  70
    32
  0
VERTEX
  8
0
  5
28B
 10
45.7454
 20
69.0009
 30
0.000000
  70
    32
  0
VERTEX
  8
0
  5
28C
 10
45.9907
 20
69.0036
 30
0.000000
  70
    32
  0
VERTEX
  8
0
  5
28D
 10
46.2356
 20
69.0081
 30
0.000000
  70
    32
  0
VERTEX
  8
0
  5
28E
 10
46.4802
 20
69.0144
 30
0.000000
  70
    32
  0
VERTEX
  8
0
  5
28F
 10
46.7241
 20
69.0226
 30
0.000000
  70
    32
  0
VERTEX
  8
0
  5
290
 10
46.9673
 20
69.0325
 30
0.000000
  70
    32
  0
VERTEX
  8
0
  5
291
 10
47.2096
 20
69.0442
 30
0.000000
  70
    32
  0
VERTEX
  8
0
  5
292
 10
47.4509
 20
69.0576
 30
0.000000
  70
    32
  0
VERTEX
  8
0
  5
293
 10
47.6910
 20
69.0729
 30
0.000000
  70
    32
  0
VERTEX
  8
0
  5
294
 10
47.9298
 20
69.0899
 30
0.000000
  70
    32
  0
VERTEX
  8
0
  5
295
 10
48.1671
 20
69.1087
 30
0.000000
  70
    32
  0
VERTEX
  8
0
  5
296
 10
48.4028
 20
69.1292
 30
0.000000
  70
    32
  0
VERTEX
  8
0
  5
297
 10
48.6368
 20
69.1514
 30
0.000000
  70
    32
  0
VERTEX
  8
0
  5
298
 10
48.8689
 20
69.1754
 30
0.000000
  70
    32
  0
VERTEX
  8
0
  5
299
 10
49.0990
 20
69.2010
 30
0.000000
  70
    32
  0
VERTEX
  8
0
  5
29A
 10
49.3268
 20
69.2284
 30
0.000000
  70
    32
  0
VERTEX
  8
0
  5
29B
 10
49.5524
 20
69.2574
 30
0.000000
  70
    32
  0
VERTEX
  8
0
  5
29C
 10
49.7756
 20
69.2880
 30
0.000000
  70
    32
  0
VERTEX
  8
0
  5
29D
 10
49.9961
 20
69.3203
 30
0.000000
  70
    32
  0
VERTEX
  8
0
  5
29E
 10
50.2140
 20
69.3542
 30
0.000000
  70
    32
  0
VERTEX
  8
0
  5
29F
 10
50.4290
 20
69.3897
 30
0.000000
  70
    32
  0
VERTEX
  8
0
  5
2A0
 10
50.6410
 20
69.4268
 30
0.000000
  70
    32
  0
VERTEX
  8
0
  5
2A1
 10
50.8500
 20
69.4654
 30
0.000000
  70
    32
  0
VERTEX
  8
0
  5
2A2
 10
51.0557
 20
69.5056
 30
0.000000
  70
    32
  0
VERTEX
  8
0
  5
2A3
 10
51.2581
 20
69.5472
 30
0.000000
  70
    32
  0
VERTEX
  8
0
  5
2A4
 10
51.4570
 20
69.5904
 30
0.000000
  70
    32
  0
VERTEX
  8
0
  5
2A5
 10
51.6523
 20
69.6350
 30
0.000000
  70
    32
  0
VERTEX
  8
0
  5
2A6
 10
51.8439
 20
69.6810
 30
0.000000
  70
    32
  0
VERTEX
  8
0
  5
2A7
 10
52.0317
 20
69.7284
 30
0.000000
  70
    32
  0
VERTEX
  8
0
  5
2A8
 10
52.2156
 20
69.7771
 30
0.000000
  70
    32
  0
VERTEX
  8
0
  5
2A9
 10
52.3954
 20
69.8273
 30
0.000000
  70
    32
  0
VERTEX
  8
0
  5
2AA
 10
52.5711
 20
69.8787
 30
0.000000
  70
    32
  0
VERTEX
  8
0
  5
2AB
 10
52.7425
 20
69.9314
 30
0.000000
  70
    32
  0
VERTEX
  8
0
  5
2AC
 10
52.9095
 20
69.9853
 30
0.000000
  70
    32
  0
VERTEX
  8
0
  5
2AD
 10
53.0721
 20
70.0405
 30
0.000000
  70
    32
  0
VERTEX
  8
0
  5
2AE
 10
53.2301
 20
70.0968
 30
0.000000
  70
    32
  0
VERTEX
  8
0
  5
2AF
 10
53.3835
 20
70.1543
 30
0.000000
  70
    32
  0
VERTEX
  8
0
  5
2B0
 10
53.5321
 20
70.2129
 30
0.000000
  70
    32
  0
VERTEX
  8
0
  5
2B1
 10
53.6758
 20
70.2726
 30
0.000000
  70
    32
  0
VERTEX
  8
0
  5
2B2
 10
53.8147
 20
70.3333
 30
0.000000
  70
    32
  0
VERTEX
  8
0
  5
2B3
 10
53.9485
 20
70.3950
 30
0.000000
  70
    32
  0
VERTEX
  8
0
  5
2B4
 10
54.0773
 20
70.4577
 30
0.000000
  70
    32
  0
VERTEX
  8
0
  5
2B5
 10
54.2009
 20
70.5213
 30
0.000000
  70
    32
  0
VERTEX
  8
0
  5
2B6
 10
54.3192
 20
70.5858
 30
0.000000
  70
    32
  0
VERTEX
  8
0
  5
2B7
 10
54.4322
 20
70.6512
 30
0.000000
  70
    32
  0
VERTEX
  8
0
  5
2B8
 10
54.5399
 20
70.7173
 30
0.000000
  70
    32
  0
VERTEX
  8
0
  5
2B9
 10
54.6421
 20
70.7843
 30
0.000000
  70
    32
  0
VERTEX
  8
0
  5
2BA
 10
54.7388
 20
70.8519
 30
0.000000
  70
    32
  0
VERTEX
  8
0
  5
2BB
 10
54.8299
 20
70.9203
 30
0.000000
  70
    32
  0
VERTEX
  8
0
  5
2BC
 10
54.9154
 20
70.9893
 30
0.000000
  70
    32
  0
VERTEX
  8
0
  5
2BD
 10
54.9953
 20
71.0590
 30
0.000000
  70
    32
  0
VERTEX
  8
0
  5
2BE
 10
55.0694
 20
71.1291
 30
0.000000
  70
    32
  0
VERTEX
  8
0
  5
2BF
 10
55.1378
 20
71.1999
 30
0.000000
  70
    32
  0
VERTEX
  8
0
  5
2C0
 10
55.2003
 20
71.2711
 30
0.000000
  70
    32
  0
VERTEX
  8
0
  5
2C1
 10
55.2570
 20
71.3427
 30
0.000000
  70
    32
  0
VERTEX
  8
0
  5
2C2
 10
55.3079
 20
71.4147
 30
0.000000
  70
    32
  0
VERTEX
  8
0
  5
2C3
 10
55.3528
 20
71.4871
 30
0.000000
  70
    32
  0
VERTEX
  8
0
  5
2C4
 10
55.3918
 20
71.5598
 30
0.000000
  70
    32
  0
VERTEX
  8
0
  5
2C5
 10
55.4248
 20
71.6328
 30
0.000000
  70
    32
  0
VERTEX
  8
0
  5
2C6
 10
55.4518
 20
71.7059
 30
0.000000
  70
    32
  0
VERTEX
  8
0
  5
2C7
 10
55.4729
 20
71.7793
 30
0.000000
  70
    32
  0
VERTEX
  8
0
  5
2C8
 10
55.4880
 20
71.8528
 30
0.000000
  70
    32
  0
VERTEX
  8
0
  5
2C9
 10
55.4970
 20
71.9264
 30
0.000000
  70
    32
  0
VERTEX
  8
0
  5
2CA
 10
55.5000
 20
72.0000
 30
0.000000
  70
    32
  0
SEQEND
  8
0
  5
2CB
  0
LINE
  5
BE
  8
0
 10
55.5
 20
72.0
 30
0.0
 11
55.5
 21
95.0
 31
0.0
  0
LINE
  5
C0
  8
0
 10
35.5
 20
95.0
 30
0.0
 11
35.5
 21
72.0
 31
0.0
  0
ARC
  5
C8
  8
0
 10
45.5
 20
105.918182
 30
0.0
 40
6.781818
 50
42.501011
 51
137.498989
  0
LINE
  5
CD
  8
0
 10
35.5
 20
95.0
 30
0.0
 11
35.5
 21
95.5
 31
0.0
  0
LINE
  5
CE
  8
0
 10
55.5
 20
95.0
 30
0.0
 11
55.5
 21
95.5
 31
0.0
  0
POLYLINE
  5
D0
  8
0
 10
35.844649
 20
96.150682
 30
0.0
 66
     1
 70
     8
  0
VERTEX
  8
0
  5
2CC
 10
35.8446
 20
96.1507
 30
0.000000
  70
    32
  0
VERTEX
  8
0
  5
2CD
 10
35.7740
 20
96.0812
 30
0.000000
  70
    32
  0
VERTEX
  8
0
  5
2CE
 10
35.7114
 20
96.0113
 30
0.000000
  70
    32
  0
VERTEX
  8
0
  5
2CF
 10
35.6568
 20
95.9410
 30
0.000000
  70
    32
  0
VERTEX
  8
0
  5
2D0
 10
35.6103
 20
95.8703
 30
0.000000
  70
    32
  0
VERTEX
  8
0
  5
2D1
 10
35.5719
 20
95.7993
 30
0.000000
  70
    32
  0
VERTEX
  8
0
  5
2D2
 10
35.5417
 20
95.7281
 30
0.000000
  70
    32
  0
VERTEX
  8
0
  5
2D3
 10
35.5196
 20
95.6566
 30
0.000000
  70
    32
  0
VERTEX
  8
0
  5
2D4
 10
35.5058
 20
95.5851
 30
0.000000
  70
    32
  0
VERTEX
  8
0
  5
2D5
 10
35.5001
 20
95.5135
 30
0.000000
  70
    32
  0
VERTEX
  8
0
  5
2D6
 10
35.5027
 20
95.4418
 30
0.000000
  70
    32
  0
VERTEX
  8
0
  5
2D7
 10
35.5135
 20
95.3702
 30
0.000000
  70
    32
  0
VERTEX
  8
0
  5
2D8
 10
35.5325
 20
95.2987
 30
0.000000
  70
    32
  0
VERTEX
  8
0
  5
2D9
 10
35.5596
 20
95.2274
 30
0.000000
  70
    32
  0
VERTEX
  8
0
  5
2DA
 10
35.5949
 20
95.1563
 30
0.000000
  70
    32
  0
VERTEX
  8
0
  5
2DB
 10
35.6384
 20
95.0855
 30
0.000000
  70
    32
  0
VERTEX
  8
0
  5
2DC
 10
35.6900
 20
95.0150
 30
0.000000
  70
    32
  0
VERTEX
  8
0
  5
2DD
 10
35.7496
 20
94.9450
 30
0.000000
  70
    32
  0
VERTEX
  8
0
  5
2DE
 10
35.8172
 20
94.8753
 30
0.000000
  70
    32
  0
VERTEX
  8
0
  5
2DF
 10
35.8928
 20
94.8062
 30
0.000000
  70
    32
  0
VERTEX
  8
0
  5
2E0
 10
35.9762
 20
94.7377
 30
0.000000
  70
    32
  0
VERTEX
  8
0
  5
2E1
 10
36.0675
 20
94.6698
 30
0.000000
  70
    32
  0
VERTEX
  8
0
  5
2E2
 10
36.1665
 20
94.6026
 30
0.000000
  70
    32
  0
VERTEX
  8
0
  5
2E3
 10
36.2732
 20
94.5361
 30
0.000000
  70
    32
  0
VERTEX
  8
0
  5
2E4
 10
36.3875
 20
94.4704
 30
0.000000
  70
    32
  0
VERTEX
  8
0
  5
2E5
 10
36.5092
 20
94.4055
 30
0.000000
  70
    32
  0
VERTEX
  8
0
  5
2E6
 10
36.6384
 20
94.3416
 30
0.000000
  70
    32
  0
VERTEX
  8
0
  5
2E7
 10
36.7748
 20
94.2786
 30
0.000000
  70
    32
  0
VERTEX
  8
0
  5
2E8
 10
36.9184
 20
94.2166
 30
0.000000
  70
    32
  0
VERTEX
  8
0
  5
2E9
 10
37.0690
 20
94.1556
 30
0.000000
  70
    32
  0
VERTEX
  8
0
  5
2EA
 10
37.2265
 20
94.0958
 30
0.000000
  70
    32
  0
VERTEX
  8
0
  5
2EB
 10
37.3909
 20
94.0371
 30
0.000000
  70
    32
  0
VERTEX
  8
0
  5
2EC
 10
37.5619
 20
93.9796
 30
0.000000
  70
    32
  0
VERTEX
  8
0
  5
2ED
 10
37.7394
 20
93.9233
 30
0.000000
  70
    32
  0
VERTEX
  8
0
  5
2EE
 10
37.9233
 20
93.8684
 30
0.000000
  70
    32
  0
VERTEX
  8
0
  5
2EF
 10
38.1134
 20
93.8148
 30
0.000000
  70
    32
  0
VERTEX
  8
0
  5
2F0
 10
38.3096
 20
93.7626
 30
0.000000
  70
    32
  0
VERTEX
  8
0
  5
2F1
 10
38.5117
 20
93.7118
 30
0.000000
  70
    32
  0
VERTEX
  8
0
  5
2F2
 10
38.7195
 20
93.6625
 30
0.000000
  70
    32
  0
VERTEX
  8
0
  5
2F3
 10
38.9329
 20
93.6146
 30
0.000000
  70
    32
  0
VERTEX
  8
0
  5
2F4
 10
39.1517
 20
93.5684
 30
0.000000
  70
    32
  0
VERTEX
  8
0
  5
2F5
 10
39.3757
 20
93.5237
 30
0.000000
  70
    32
  0
VERTEX
  8
0
  5
2F6
 10
39.6047
 20
93.4806
 30
0.000000
  70
    32
  0
VERTEX
  8
0
  5
2F7
 10
39.8386
 20
93.4392
 30
0.000000
  70
    32
  0
VERTEX
  8
0
  5
2F8
 10
40.0771
 20
93.3995
 30
0.000000
  70
    32
  0
VERTEX
  8
0
  5
2F9
 10
40.3201
 20
93.3615
 30
0.000000
  70
    32
  0
VERTEX
  8
0
  5
2FA
 10
40.5673
 20
93.3253
 30
0.000000
  70
    32
  0
VERTEX
  8
0
  5
2FB
 10
40.8186
 20
93.2909
 30
0.000000
  70
    32
  0
VERTEX
  8
0
  5
2FC
 10
41.0737
 20
93.2582
 30
0.000000
  70
    32
  0
VERTEX
  8
0
  5
2FD
 10
41.3325
 20
93.2274
 30
0.000000
  70
    32
  0
VERTEX
  8
0
  5
2FE
 10
41.5947
 20
93.1985
 30
0.000000
  70
    32
  0
VERTEX
  8
0
  5
2FF
 10
41.8601
 20
93.1715
 30
0.000000
  70
    32
  0
VERTEX
  8
0
  5
300
 10
42.1284
 20
93.1464
 30
0.000000
  70
    32
  0
VERTEX
  8
0
  5
301
 10
42.3996
 20
93.1232
 30
0.000000
  70
    32
  0
VERTEX
  8
0
  5
302
 10
42.6733
 20
93.1020
 30
0.000000
  70
    32
  0
VERTEX
  8
0
  5
303
 10
42.9493
 20
93.0827
 30
0.000000
  70
    32
  0
VERTEX
  8
0
  5
304
 10
43.2274
 20
93.0654
 30
0.000000
  70
    32
  0
VERTEX
  8
0
  5
305
 10
43.5074
 20
93.0501
 30
0.000000
  70
    32
  0
VERTEX
  8
0
  5
306
 10
43.7890
 20
93.0369
 30
0.000000
  70
    32
  0
VERTEX
  8
0
  5
307
 10
44.0720
 20
93.0256
 30
0.000000
  70
    32
  0
VERTEX
  8
0
  5
308
 10
44.3562
 20
93.0164
 30
0.000000
  70
    32
  0
VERTEX
  8
0
  5
309
 10
44.6413
 20
93.0092
 30
0.000000
  70
    32
  0
VERTEX
  8
0
  5
30A
 10
44.9272
 20
93.0041
 30
0.000000
  70
    32
  0
VERTEX
  8
0
  5
30B
 10
45.2135
 20
93.0010
 30
0.000000
  70
    32
  0
VERTEX
  8
0
  5
30C
 10
45.5000
 20
93.0000
 30
0.000000
  70
    32
  0
VERTEX
  8
0
  5
30D
 10
45.7865
 20
93.0010
 30
0.000000
  70
    32
  0
VERTEX
  8
0
  5
30E
 10
46.0728
 20
93.0041
 30
0.000000
  70
    32
  0
VERTEX
  8
0
  5
30F
 10
46.3587
 20
93.0092
 30
0.000000
  70
    32
  0
VERTEX
  8
0
  5
310
 10
46.6438
 20
93.0164
 30
0.000000
  70
    32
  0
VERTEX
  8
0
  5
311
 10
46.9280
 20
93.0256
 30
0.000000
  70
    32
  0
VERTEX
  8
0
  5
312
 10
47.2110
 20
93.0369
 30
0.000000
  70
    32
  0
VERTEX
  8
0
  5
313
 10
47.4926
 20
93.0501
 30
0.000000
  70
    32
  0
VERTEX
  8
0
  5
314
 10
47.7726
 20
93.0654
 30
0.000000
  70
    32
  0
VERTEX
  8
0
  5
315
 10
48.0507
 20
93.0827
 30
0.000000
  70
    32
  0
VERTEX
  8
0
  5
316
 10
48.3267
 20
93.1020
 30
0.000000
  70
    32
  0
VERTEX
  8
0
  5
317
 10
48.6004
 20
93.1232
 30
0.000000
  70
    32
  0
VERTEX
  8
0
  5
318
 10
48.8716
 20
93.1464
 30
0.000000
  70
    32
  0
VERTEX
  8
0
  5
319
 10
49.1399
 20
93.1715
 30
0.000000
  70
    32
  0
VERTEX
  8
0
  5
31A
 10
49.4053
 20
93.1985
 30
0.000000
  70
    32
  0
VERTEX
  8
0
  5
31B
 10
49.6675
 20
93.2274
 30
0.000000
  70
    32
  0
VERTEX
  8
0
  5
31C
 10
49.9263
 20
93.2582
 30
0.000000
  70
    32
  0
VERTEX
  8
0
  5
31D
 10
50.1814
 20
93.2909
 30
0.000000
  70
    32
  0
VERTEX
  8
0
  5
31E
 10
50.4327
 20
93.3253
 30
0.000000
  70
    32
  0
VERTEX
  8
0
  5
31F
 10
50.6799
 20
93.3615
 30
0.000000
  70
    32
  0
VERTEX
  8
0
  5
320
 10
50.9229
 20
93.3995
 30
0.000000
  70
    32
  0
VERTEX
  8
0
  5
321
 10
51.1614
 20
93.4392
 30
0.000000
  70
    32
  0
VERTEX
  8
0
  5
322
 10
51.3953
 20
93.4806
 30
0.000000
  70
    32
  0
VERTEX
  8
0
  5
323
 10
51.6243
 20
93.5237
 30
0.000000
  70
    32
  0
VERTEX
  8
0
  5
324
 10
51.8483
 20
93.5684
 30
0.000000
  70
    32
  0
VERTEX
  8
0
  5
325
 10
52.0671
 20
93.6146
 30
0.000000
  70
    32
  0
VERTEX
  8
0
  5
326
 10
52.2805
 20
93.6625
 30
0.000000
  70
    32
  0
VERTEX
  8
0
  5
327
 10
52.4883
 20
93.7118
 30
0.000000
  70
    32
  0
VERTEX
  8
0
  5
328
 10
52.6904
 20
93.7626
 30
0.000000
  70
    32
  0
VERTEX
  8
0
  5
329
 10
52.8866
 20
93.8148
 30
0.000000
  70
    32
  0
VERTEX
  8
0
  5
32A
 10
53.0767
 20
93.8684
 30
0.000000
  70
    32
  0
VERTEX
  8
0
  5
32B
 10
53.2606
 20
93.9233
 30
0.000000
  70
    32
  0
VERTEX
  8
0
  5
32C
 10
53.4381
 20
93.9796
 30
0.000000
  70
    32
  0
VERTEX
  8
0
  5
32D
 10
53.6091
 20
94.0371
 30
0.000000
  70
    32
  0
VERTEX
  8
0
  5
32E
 10
53.7735
 20
94.0958
 30
0.000000
  70
    32
  0
VERTEX
  8
0
  5
32F
 10
53.9310
 20
94.1556
 30
0.000000
  70
    32
  0
VERTEX
  8
0
  5
330
 10
54.0816
 20
94.2166
 30
0.000000
  70
    32
  0
VERTEX
  8
0
  5
331
 10
54.2252
 20
94.2786
 30
0.000000
  70
    32
  0
VERTEX
  8
0
  5
332
 10
54.3616
 20
94.3416
 30
0.000000
  70
    32
  0
VERTEX
  8
0
  5
333
 10
54.4908
 20
94.4055
 30
0.000000
  70
    32
  0
VERTEX
  8
0
  5
334
 10
54.6125
 20
94.4704
 30
0.000000
  70
    32
  0
VERTEX
  8
0
  5
335
 10
54.7268
 20
94.5361
 30
0.000000
  70
    32
  0
VERTEX
  8
0
  5
336
 10
54.8335
 20
94.6026
 30
0.000000
  70
    32
  0
VERTEX
  8
0
  5
337
 10
54.9325
 20
94.6698
 30
0.000000
  70
    32
  0
VERTEX
  8
0
  5
338
 10
55.0238
 20
94.7377
 30
0.000000
  70
    32
  0
VERTEX
  8
0
  5
339
 10
55.1072
 20
94.8062
 30
0.000000
  70
    32
  0
VERTEX
  8
0
  5
33A
 10
55.1828
 20
94.8753
 30
0.000000
  70
    32
  0
VERTEX
  8
0
  5
33B
 10
55.2504
 20
94.9450
 30
0.000000
  70
    32
  0
VERTEX
  8
0
  5
33C
 10
55.3100
 20
95.0150
 30
0.000000
  70
    32
  0
VERTEX
  8
0
  5
33D
 10
55.3616
 20
95.0855
 30
0.000000
  70
    32
  0
VERTEX
  8
0
  5
33E
 10
55.4051
 20
95.1563
 30
0.000000
  70
    32
  0
VERTEX
  8
0
  5
33F
 10
55.4404
 20
95.2274
 30
0.000000
  70
    32
  0
VERTEX
  8
0
  5
340
 10
55.4675
 20
95.2987
 30
0.000000
  70
    32
  0
VERTEX
  8
0
  5
341
 10
55.4865
 20
95.3702
 30
0.000000
  70
    32
  0
VERTEX
  8
0
  5
342
 10
55.4973
 20
95.4418
 30
0.000000
  70
    32
  0
VERTEX
  8
0
  5
343
 10
55.4999
 20
95.5135
 30
0.000000
  70
    32
  0
VERTEX
  8
0
  5
344
 10
55.4942
 20
95.5851
 30
0.000000
  70
    32
  0
VERTEX
  8
0
  5
345
 10
55.4804
 20
95.6566
 30
0.000000
  70
    32
  0
VERTEX
  8
0
  5
346
 10
55.4583
 20
95.7281
 30
0.000000
  70
    32
  0
VERTEX
  8
0
  5
347
 10
55.4281
 20
95.7993
 30
0.000000
  70
    32
  0
VERTEX
  8
0
  5
348
 10
55.3897
 20
95.8703
 30
0.000000
  70
    32
  0
VERTEX
  8
0
  5
349
 10
55.3432
 20
95.9410
 30
0.000000
  70
    32
  0
VERTEX
  8
0
  5
34A
 10
55.2886
 20
96.0113
 30
0.000000
  70
    32
  0
VERTEX
  8
0
  5
34B
 10
55.2260
 20
96.0812
 30
0.000000
  70
    32
  0
VERTEX
  8
0
  5
34C
 10
55.1554
 20
96.1507
 30
0.000000
  70
    32
  0
SEQEND
  8
0
  5
34D
  0
LINE
  5
D6
  8
0
 10
50.5
 20
110.5
 30
0.0
 11
52.3
 21
97.33303
 31
0.0
  0
LINE
  5
D7
  8
0
 10
40.5
 20
110.5
 30
0.0
 11
38.7
 21
97.33303
 31
0.0
  0
LINE
  5
D9
  8
0
 10
50.0
 20
99.0
 30
0.0
 11
41.0
 21
99.0
 31
0.0
  0
LINE
  5
DA
  8
0
 10
40.0
 20
98.0
 30
0.0
 11
40.0
 21
95.5
 31
0.0
  0
LINE
  5
DC
  8
0
 10
51.0
 20
95.5
 30
0.0
 11
51.0
 21
98.0
 31
0.0
  0
POLYLINE
  5
DE
  8
0
 10
40.0
 20
95.5
 30
0.0
 66
     1
 70
     8
  0
VERTEX
  8
0
  5
34E
 10
40.0000
 20
95.5000
 30
0.000000
  70
    32
  0
VERTEX
  8
0
  5
34F
 10
40.0017
 20
95.4632
 30
0.000000
  70
    32
  0
VERTEX
  8
0
  5
350
 10
40.0066
 20
95.4264
 30
0.000000
  70
    32
  0
VERTEX
  8
0
  5
351
 10
40.0149
 20
95.3897
 30
0.000000
  70
    32
  0
VERTEX
  8
0
  5
352
 10
40.0265
 20
95.3530
 30
0.000000
  70
    32
  0
VERTEX
  8
0
  5
353
 10
40.0414
 20
95.3164
 30
0.000000
  70
    32
  0
VERTEX
  8
0
  5
354
 10
40.0595
 20
95.2799
 30
0.000000
  70
    32
  0
VERTEX
  8
0
  5
355
 10
40.0810
 20
95.2436
 30
0.000000
  70
    32
  0
VERTEX
  8
0
  5
356
 10
40.1057
 20
95.2074
 30
0.000000
  70
    32
  0
VERTEX
  8
0
  5
357
 10
40.1336
 20
95.1713
 30
0.000000
  70
    32
  0
VERTEX
  8
0
  5
358
 10
40.1648
 20
95.1355
 30
0.000000
  70
    32
  0
VERTEX
  8
0
  5
359
 10
40.1992
 20
95.0999
 30
0.000000
  70
    32
  0
VERTEX
  8
0
  5
35A
 10
40.2368
 20
95.0646
 30
0.000000
  70
    32
  0
VERTEX
  8
0
  5
35B
 10
40.2776
 20
95.0295
 30
0.000000
  70
    32
  0
VERTEX
  8
0
  5
35C
 10
40.3215
 20
94.9947
 30
0.000000
  70
    32
  0
VERTEX
  8
0
  5
35D
 10
40.3685
 20
94.9602
 30
0.000000
  70
    32
  0
VERTEX
  8
0
  5
35E
 10
40.4187
 20
94.9260
 30
0.000000
  70
    32
  0
VERTEX
  8
0
  5
35F
 10
40.4718
 20
94.8921
 30
0.000000
  70
    32
  0
VERTEX
  8
0
  5
360
 10
40.5281
 20
94.8587
 30
0.000000
  70
    32
  0
VERTEX
  8
0
  5
361
 10
40.5873
 20
94.8256
 30
0.000000
  70
    32
  0
VERTEX
  8
0
  5
362
 10
40.6494
 20
94.7929
 30
0.000000
  70
    32
  0
VERTEX
  8
0
  5
363
 10
40.7145
 20
94.7607
 30
0.000000
  70
    32
  0
VERTEX
  8
0
  5
364
 10
40.7825
 20
94.7288
 30
0.000000
  70
    32
  0
VERTEX
  8
0
  5
365
 10
40.8533
 20
94.6975
 30
0.000000
  70
    32
  0
VERTEX
  8
0
  5
366
 10
40.9269
 20
94.6666
 30
0.000000
  70
    32
  0
VERTEX
  8
0
  5
367
 10
41.0033
 20
94.6363
 30
0.000000
  70
    32
  0
VERTEX
  8
0
  5
368
 10
41.0824
 20
94.6065
 30
0.000000
  70
    32
  0
VERTEX
  8
0
  5
369
 10
41.1641
 20
94.5772
 30
0.000000
  70
    32
  0
VERTEX
  8
0
  5
36A
 10
41.2484
 20
94.5484
 30
0.000000
  70
    32
  0
VERTEX
  8
0
  5
36B
 10
41.3354
 20
94.5202
 30
0.000000
  70
    32
  0
VERTEX
  8
0
  5
36C
 10
41.4248
 20
94.4927
 30
0.000000
  70
    32
  0
VERTEX
  8
0
  5
36D
 10
41.5166
 20
94.4657
 30
0.000000
  70
    32
  0
VERTEX
  8
0
  5
36E
 10
41.6109
 20
94.4393
 30
0.000000
  70
    32
  0
VERTEX
  8
0
  5
36F
 10
41.7075
 20
94.4136
 30
0.000000
  70
    32
  0
VERTEX
  8
0
  5
370
 10
41.8064
 20
94.3886
 30
0.000000
  70
    32
  0
VERTEX
  8
0
  5
371
 10
41.9075
 20
94.3642
 30
0.000000
  70
    32
  0
VERTEX
  8
0
  5
372
 10
42.0108
 20
94.3405
 30
0.000000
  70
    32
  0
VERTEX
  8
0
  5
373
 10
42.1162
 20
94.3175
 30
0.000000
  70
    32
  0
VERTEX
  8
0
  5
374
 10
42.2237
 20
94.2952
 30
0.000000
  70
    32
  0
VERTEX
  8
0
  5
375
 10
42.3331
 20
94.2736
 30
0.000000
  70
    32
  0
VERTEX
  8
0
  5
376
 10
42.4444
 20
94.2528
 30
0.000000
  70
    32
  0
VERTEX
  8
0
  5
377
 10
42.5575
 20
94.2327
 30
0.000000
  70
    32
  0
VERTEX
  8
0
  5
378
 10
42.6724
 20
94.2134
 30
0.000000
  70
    32
  0
VERTEX
  8
0
  5
379
 10
42.7891
 20
94.1949
 30
0.000000
  70
    32
  0
VERTEX
  8
0
  5
37A
 10
42.9073
 20
94.1771
 30
0.000000
  70
    32
  0
VERTEX
  8
0
  5
37B
 10
43.0271
 20
94.1602
 30
0.000000
  70
    32
  0
VERTEX
  8
0
  5
37C
 10
43.1484
 20
94.1440
 30
0.000000
  70
    32
  0
VERTEX
  8
0
  5
37D
 10
43.2712
 20
94.1287
 30
0.000000
  70
    32
  0
VERTEX
  8
0
  5
37E
 10
43.3952
 20
94.1142
 30
0.000000
  70
    32
  0
VERTEX
  8
0
  5
37F
 10
43.5206
 20
94.1005
 30
0.000000
  70
    32
  0
VERTEX
  8
0
  5
380
 10
43.6471
 20
94.0877
 30
0.000000
  70
    32
  0
VERTEX
  8
0
  5
381
 10
43.7748
 20
94.0757
 30
0.000000
  70
    32
  0
VERTEX
  8
0
  5
382
 10
43.9034
 20
94.0646
 30
0.000000
  70
    32
  0
VERTEX
  8
0
  5
383
 10
44.0331
 20
94.0543
 30
0.000000
  70
    32
  0
VERTEX
  8
0
  5
384
 10
44.1636
 20
94.0450
 30
0.000000
  70
    32
  0
VERTEX
  8
0
  5
385
 10
44.2949
 20
94.0364
 30
0.000000
  70
    32
  0
VERTEX
  8
0
  5
386
 10
44.4270
 20
94.0288
 30
0.000000
  70
    32
  0
VERTEX
  8
0
  5
387
 10
44.5597
 20
94.0221
 30
0.000000
  70
    32
  0
VERTEX
  8
0
  5
388
 10
44.6930
 20
94.0162
 30
0.000000
  70
    32
  0
VERTEX
  8
0
  5
389
 10
44.8267
 20
94.0113
 30
0.000000
  70
    32
  0
VERTEX
  8
0
  5
38A
 10
44.9609
 20
94.0072
 30
0.000000
  70
    32
  0
VERTEX
  8
0
  5
38B
 10
45.0954
 20
94.0041
 30
0.000000
  70
    32
  0
VERTEX
  8
0
  5
38C
 10
45.2301
 20
94.0018
 30
0.000000
  70
    32
  0
VERTEX
  8
0
  5
38D
 10
45.3650
 20
94.0005
 30
0.000000
  70
    32
  0
VERTEX
  8
0
  5
38E
 10
45.5000
 20
94.0000
 30
0.000000
  70
    32
  0
VERTEX
  8
0
  5
38F
 10
45.6350
 20
94.0005
 30
0.000000
  70
    32
  0
VERTEX
  8
0
  5
390
 10
45.7699
 20
94.0018
 30
0.000000
  70
    32
  0
VERTEX
  8
0
  5
391
 10
45.9046
 20
94.0041
 30
0.000000
  70
    32
  0
VERTEX
  8
0
  5
392
 10
46.0391
 20
94.0072
 30
0.000000
  70
    32
  0
VERTEX
  8
0
  5
393
 10
46.1733
 20
94.0113
 30
0.000000
  70
    32
  0
VERTEX
  8
0
  5
394
 10
46.3070
 20
94.0162
 30
0.000000
  70
    32
  0
VERTEX
  8
0
  5
395
 10
46.4403
 20
94.0221
 30
0.000000
  70
    32
  0
VERTEX
  8
0
  5
396
 10
46.5730
 20
94.0288
 30
0.000000
  70
    32
  0
VERTEX
  8
0
  5
397
 10
46.7051
 20
94.0364
 30
0.000000
  70
    32
  0
VERTEX
  8
0
  5
398
 10
46.8364
 20
94.0450
 30
0.000000
  70
    32
  0
VERTEX
  8
0
  5
399
 10
46.9669
 20
94.0543
 30
0.000000
  70
    32
  0
VERTEX
  8
0
  5
39A
 10
47.0966
 20
94.0646
 30
0.000000
  70
    32
  0
VERTEX
  8
0
  5
39B
 10
47.2252
 20
94.0757
 30
0.000000
  70
    32
  0
VERTEX
  8
0
  5
39C
 10
47.3529
 20
94.0877
 30
0.000000
  70
    32
  0
VERTEX
  8
0
  5
39D
 10
47.4794
 20
94.1005
 30
0.000000
  70
    32
  0
VERTEX
  8
0
  5
39E
 10
47.6048
 20
94.1142
 30
0.000000
  70
    32
  0
VERTEX
  8
0
  5
39F
 10
47.7288
 20
94.1287
 30
0.000000
  70
    32
  0
VERTEX
  8
0
  5
3A0
 10
47.8516
 20
94.1440
 30
0.000000
  70
    32
  0
VERTEX
  8
0
  5
3A1
 10
47.9729
 20
94.1602
 30
0.000000
  70
    32
  0
VERTEX
  8
0
  5
3A2
 10
48.0927
 20
94.1771
 30
0.000000
  70
    32
  0
VERTEX
  8
0
  5
3A3
 10
48.2109
 20
94.1949
 30
0.000000
  70
    32
  0
VERTEX
  8
0
  5
3A4
 10
48.3276
 20
94.2134
 30
0.000000
  70
    32
  0
VERTEX
  8
0
  5
3A5
 10
48.4425
 20
94.2327
 30
0.000000
  70
    32
  0
VERTEX
  8
0
  5
3A6
 10
48.5556
 20
94.2528
 30
0.000000
  70
    32
  0
VERTEX
  8
0
  5
3A7
 10
48.6669
 20
94.2736
 30
0.000000
  70
    32
  0
VERTEX
  8
0
  5
3A8
 10
48.7763
 20
94.2952
 30
0.000000
  70
    32
  0
VERTEX
  8
0
  5
3A9
 10
48.8838
 20
94.3175
 30
0.000000
  70
    32
  0
VERTEX
  8
0
  5
3AA
 10
48.9892
 20
94.3405
 30
0.000000
  70
    32
  0
VERTEX
  8
0
  5
3AB
 10
49.0925
 20
94.3642
 30
0.000000
  70
    32
  0
VERTEX
  8
0
  5
3AC
 10
49.1936
 20
94.3886
 30
0.000000
  70
    32
  0
VERTEX
  8
0
  5
3AD
 10
49.2925
 20
94.4136
 30
0.000000
  70
    32
  0
VERTEX
  8
0
  5
3AE
 10
49.3891
 20
94.4393
 30
0.000000
  70
    32
  0
VERTEX
  8
0
  5
3AF
 10
49.4834
 20
94.4657
 30
0.000000
  70
    32
  0
VERTEX
  8
0
  5
3B0
 10
49.5752
 20
94.4927
 30
0.000000
  70
    32
  0
VERTEX
  8
0
  5
3B1
 10
49.6646
 20
94.5202
 30
0.000000
  70
    32
  0
VERTEX
  8
0
  5
3B2
 10
49.7516
 20
94.5484
 30
0.000000
  70
    32
  0
VERTEX
  8
0
  5
3B3
 10
49.8359
 20
94.5772
 30
0.000000
  70
    32
  0
VERTEX
  8
0
  5
3B4
 10
49.9176
 20
94.6065
 30
0.000000
  70
    32
  0
VERTEX
  8
0
  5
3B5
 10
49.9967
 20
94.6363
 30
0.000000
  70
    32
  0
VERTEX
  8
0
  5
3B6
 10
50.0731
 20
94.6666
 30
0.000000
  70
    32
  0
VERTEX
  8
0
  5
3B7
 10
50.1467
 20
94.6975
 30
0.000000
  70
    32
  0
VERTEX
  8
0
  5
3B8
 10
50.2175
 20
94.7288
 30
0.000000
  70
    32
  0
VERTEX
  8
0
  5
3B9
 10
50.2855
 20
94.7607
 30
0.000000
  70
    32
  0
VERTEX
  8
0
  5
3BA
 10
50.3506
 20
94.7929
 30
0.000000
  70
    32
  0
VERTEX
  8
0
  5
3BB
 10
50.4127
 20
94.8256
 30
0.000000
  70
    32
  0
VERTEX
  8
0
  5
3BC
 10
50.4719
 20
94.8587
 30
0.000000
  70
    32
  0
VERTEX
  8
0
  5
3BD
 10
50.5282
 20
94.8921
 30
0.000000
  70
    32
  0
VERTEX
  8
0
  5
3BE
 10
50.5813
 20
94.9260
 30
0.000000
  70
    32
  0
VERTEX
  8
0
  5
3BF
 10
50.6315
 20
94.9602
 30
0.000000
  70
    32
  0
VERTEX
  8
0
  5
3C0
 10
50.6785
 20
94.9947
 30
0.000000
  70
    32
  0
VERTEX
  8
0
  5
3C1
 10
50.7224
 20
95.0295
 30
0.000000
  70
    32
  0
VERTEX
  8
0
  5
3C2
 10
50.7632
 20
95.0646
 30
0.000000
  70
    32
  0
VERTEX
  8
0
  5
3C3
 10
50.8008
 20
95.0999
 30
0.000000
  70
    32
  0
VERTEX
  8
0
  5
3C4
 10
50.8352
 20
95.1355
 30
0.000000
  70
    32
  0
VERTEX
  8
0
  5
3C5
 10
50.8664
 20
95.1713
 30
0.000000
  70
    32
  0
VERTEX
  8
0
  5
3C6
 10
50.8943
 20
95.2074
 30
0.000000
  70
    32
  0
VERTEX
  8
0
  5
3C7
 10
50.9190
 20
95.2436
 30
0.000000
  70
    32
  0
VERTEX
  8
0
  5
3C8
 10
50.9405
 20
95.2799
 30
0.000000
  70
    32
  0
VERTEX
  8
0
  5
3C9
 10
50.9586
 20
95.3164
 30
0.000000
  70
    32
  0
VERTEX
  8
0
  5
3CA
 10
50.9735
 20
95.3530
 30
0.000000
  70
    32
  0
VERTEX
  8
0
  5
3CB
 10
50.9851
 20
95.3897
 30
0.000000
  70
    32
  0
VERTEX
  8
0
  5
3CC
 10
50.9934
 20
95.4264
 30
0.000000
  70
    32
  0
VERTEX
  8
0
  5
3CD
 10
50.9983
 20
95.4632
 30
0.000000
  70
    32
  0
VERTEX
  8
0
  5
3CE
 10
51.0000
 20
95.5000
 30
0.000000
  70
    32
  0
SEQEND
  8
0
  5
3CF
  0
ARC
  5
DF
  8
0
 10
41.0
 20
98.0
 30
0.0
 40
1.0
 50
90.0
 51
180.0
  0
ARC
  5
E0
  8
0
 10
50.0
 20
98.0
 30
0.0
 40
1.0
 50
0.0
 51
90.0
  0
LINE
  5
ED
  8
1
 10
108.5
 20
102.5
 30
0.0
 11
108.5
 21
58.5
 31
0.0
  0
LINE
  5
F8
  8
0
 10
108.5
 20
63.0
 30
0.0
 11
116.0
 21
63.0
 31
0.0
  0
LINE
  5
FA
  8
0
 10
108.5
 20
63.0
 30
0.0
 11
101.0
 21
63.0
 31
0.0
  0
LINE
  5
FC
  8
0
 10
101.0
 20
63.0
 30
0.0
 11
101.0
 21
69.625
 31
0.0
  0
LINE
  5
FD
  8
0
 10
116.0
 20
63.0
 30
0.0
 11
116.0
 21
73.375
 31
0.0
  0
LINE
  5
101
  8
0
 10
98.5
 20
70.280776
 30
0.0
 11
98.5
 21
92.228745
 31
0.0
  0
LINE
  5
102
  8
0
 10
99.245951
 20
93.195936
 30
0.0
 11
172.245951
 21
112.370603
 31
0.0
  0
LINE
  5
104
  8
0
 10
114.0
 20
98.0
 30
0.0
 11
114.0
 21
97.071333
 31
0.0
  0
LINE
  5
105
  8
0
 10
108.5
 20
99.0
 30
0.0
 11
104.0
 21
99.0
 31
0.0
  0
LINE
  5
106
  8
0
 10
103.0
 20
98.0
 30
0.0
 11
103.0
 21
94.182
 31
0.0
  0
LINE
  5
107
  8
0
 10
108.5
 20
99.0
 30
0.0
 11
113.0
 21
99.0
 31
0.0
  0
ARC
  5
108
  8
0
 10
104.0
 20
98.0
 30
0.0
 40
1.0
 50
90.0
 51
180.0
  0
ARC
  5
109
  8
0
 10
113.0
 20
98.0
 30
0.0
 40
1.0
 50
0.0
 51
90.0
  0
LINE
  5
10B
  8
0
 10
173.5
 20
111.403412
 30
0.0
 11
173.5
 21
100.476871
 31
0.0
  0
LINE
  5
10C
  8
0
 10
172.74725
 20
99.507919
 30
0.0
 11
159.551726
 21
96.140785
 31
0.0
  0
LINE
  5
10D
  8
0
 10
158.59737
 20
96.40263
 30
0.0
 11
157.0
 21
98.0
 31
0.0
  0
LINE
  5
10E
  8
0
 10
157.0
 20
98.0
 30
0.0
 11
116.5
 21
84.0
 31
0.0
  0
LINE
  5
10F
  8
0
 10
116.5
 20
84.0
 30
0.0
 11
116.5
 21
97.728
 31
0.0
  0
LINE
  5
110
  8
0
 10
118.5
 20
74.780776
 30
0.0
 11
118.5
 21
84.691358
 31
0.0
  0
LINE
  5
111
  8
0
 10
117.742536
 20
73.810634
 30
0.0
 11
99.742536
 21
69.310634
 31
0.0
  0
ARC
  5
112
  8
0
 10
99.5
 20
92.228745
 30
0.0
 40
1.0
 50
104.717237
 51
180.0
  0
ARC
  5
113
  8
0
 10
99.5
 20
70.280776
 30
0.0
 40
1.0
 50
180.0
 51
284.036243
  0
ARC
  5
114
  8
0
 10
117.5
 20
74.780776
 30
0.0
 40
1.0
 50
284.036243
 51
0.0
  0
ARC
  5
115
  8
0
 10
172.5
 20
111.403412
 30
0.0
 40
1.0
 50
0.0
 51
104.717237
  0
ARC
  5
116
  8
0
 10
172.5
 20
100.476871
 30
0.0
 40
1.0
 50
284.314827
 51
0.0
  0
ARC
  5
117
  8
0
 10
159.304476
 20
97.109737
 30
0.0
 40
1.0
 50
225.0
 51
284.314827
  0
LINE
  5
122
  8
2
 10
42.0
 20
63.0
 30
0.0
 11
42.0
 21
75.0
 31
0.0
  0
LINE
  5
123
  8
2
 10
42.0
 20
75.0
 30
0.0
 11
49.0
 21
75.0
 31
0.0
  0
LINE
  5
124
  8
2
 10
49.0
 20
75.0
 30
0.0
 11
49.0
 21
63.0
 31
0.0
  0
LINE
  5
125
  8
2
 10
48.0
 20
63.0
 30
0.0
 11
48.0
 21
79.5
 31
0.0
  0
LINE
  5
126
  8
2
 10
48.0
 20
79.5
 30
0.0
 11
43.0
 21
79.5
 31
0.0
  0
LINE
  5
127
  8
2
 10
43.0
 20
79.5
 30
0.0
 11
43.0
 21
63.0
 31
0.0
  0
LINE
  5
128
  8
2
 10
49.0
 20
75.0
 30
0.0
 11
48.0
 21
76.0
 31
0.0
  0
LINE
  5
129
  8
2
 10
48.0
 20
76.0
 30
0.0
 11
43.0
 21
76.0
 31
0.0
  0
LINE
  5
12A
  8
2
 10
43.0
 20
76.0
 30
0.0
 11
42.0
 21
75.0
 31
0.0
  0
LINE
  5
12B
  8
2
 10
48.0
 20
79.5
 30
0.0
 11
45.5
 21
81.5
 31
0.0
  0
LINE
  5
12C
  8
2
 10
45.5
 20
81.5
 30
0.0
 11
43.0
 21
79.5
 31
0.0
  0
LINE
  5
12D
  8
2
 10
106.0
 20
77.0
 30
0.0
 11
105.0
 21
76.0
 31
0.0
  0
LINE
  5
12E
  8
2
 10
112.0
 20
76.0
 30
0.0
 11
111.0
 21
77.0
 31
0.0
  0
LINE
  5
12F
  8
2
 10
106.0
 20
80.5
 30
0.0
 11
106.0
 21
63.5
 31
0.0
  0
LINE
  5
130
  8
2
 10
111.0
 20
63.5
 30
0.0
 11
111.0
 21
80.5
 31
0.0
  0
LINE
  5
131
  8
2
 10
112.0
 20
76.0
 30
0.0
 11
112.0
 21
63.5
 31
0.0
  0
LINE
  5
132
  8
2
 10
105.0
 20
63.5
 30
0.0
 11
105.0
 21
76.0
 31
0.0
  0
LINE
  5
133
  8
2
 10
105.0
 20
76.0
 30
0.0
 11
112.0
 21
76.0
 31
0.0
  0
LINE
  5
134
  8
2
 10
108.5
 20
82.5
 30
0.0
 11
106.0
 21
80.5
 31
0.0
  0
LINE
  5
135
  8
2
 10
111.0
 20
77.0
 30
0.0
 11
106.0
 21
77.0
 31
0.0
  0
LINE
  5
136
  8
2
 10
111.0
 20
80.5
 30
0.0
 11
106.0
 21
80.5
 31
0.0
  0
LINE
  5
137
  8
2
 10
111.0
 20
80.5
 30
0.0
 11
108.5
 21
82.5
 31
0.0
  0
ENDSEC
  0
EOF
