  0
SECTION
  2
HEADER
  9
$ACADVER
  1
AC1009
  9
$INSBASE
 10
0.0
 20
0.0
 30
0.0
  9
$EXTMIN
 10
45.0
 20
64.0
 30
0.0
  9
$EXTMAX
 10
149.238335
 20
105.0
 30
0.0
  9
$LIMMIN
 10
0.0
 20
0.0
  9
$LIMMAX
 10
200.0
 20
140.0
  9
$ORTHOMODE
 70
     0
  9
$REGENMODE
 70
     1
  9
$FILLMODE
 70
     1
  9
$QTEXTMODE
 70
     0
  9
$MIRRTEXT
 70
     1
  9
$DRAGMODE
 70
     1
  9
$LTSCALE
 40
20.0
  9
$OSMODE
 70
     0
  9
$ATTMODE
 70
     1
  9
$TEXTSIZE
 40
10.0
  9
$TRACEWID
 40
0.05
  9
$TEXTSTYLE
  7
BIGFONT
  9
$CLAYER
  8
2
  9
$CELTYPE
  6
BYLAYER
  9
$CECOLOR
 62
   256
  9
$DIMSCALE
 40
2.0
  9
$DIMASZ
 40
3.0
  9
$DIMEXO
 40
2.0
  9
$DIMDLI
 40
0.38
  9
$DIMRND
 40
0.0
  9
$DIMDLE
 40
0.0
  9
$DIMEXE
 40
2.0
  9
$DIMTP
 40
0.0
  9
$DIMTM
 40
0.0
  9
$DIMTXT
 40
3.2
  9
$DIMCEN
 40
0.09
  9
$DIMTSZ
 40
0.0
  9
$DIMTOL
 70
     0
  9
$DIMLIM
 70
     0
  9
$DIMTIH
 70
     0
  9
$DIMTOH
 70
     0
  9
$DIMSE1
 70
     0
  9
$DIMSE2
 70
     0
  9
$DIMTAD
 70
     1
  9
$DIMZIN
 70
     0
  9
$DIMBLK
  1

  9
$DIMASO
 70
     0
  9
$DIMSHO
 70
     0
  9
$DIMPOST
  1

  9
$DIMAPOST
  1

  9
$DIMALT
 70
     0
  9
$DIMALTD
 70
     2
  9
$DIMALTF
 40
25.4
  9
$DIMLFAC
 40
1.0
  9
$DIMTOFL
 70
     0
  9
$DIMTVP
 40
1.6
  9
$DIMTIX
 70
     1
  9
$DIMSOXD
 70
     0
  9
$DIMSAH
 70
     0
  9
$DIMBLK1
  1

  9
$DIMBLK2
  1

  9
$DIMSTYLE
  2
STANDARD
  9
$DIMCLRD
 70
     0
  9
$DIMCLRE
 70
     0
  9
$DIMCLRT
 70
     0
  9
$DIMTFAC
 40
1.0
  9
$DIMGAP
 40
0.09
  9
$LUNITS
 70
     2
  9
$LUPREC
 70
     4
  9
$SKETCHINC
 40
0.1
  9
$FILLETRAD
 40
1.0
  9
$AUNITS
 70
     0
  9
$AUPREC
 70
     0
  9
$MENU
  1
ACAD
  9
$ELEVATION
 40
0.0
  9
$PELEVATION
 40
0.0
  9
$THICKNESS
 40
0.0
  9
$LIMCHECK
 70
     0
  9
$BLIPMODE
 70
     0
  9
$CHAMFERA
 40
0.0
  9
$CHAMFERB
 40
0.0
  9
$SKPOLY
 70
     0
  9
$TDCREATE
 40
2450867.009375
  9
$TDUPDATE
 40
2452126.623542
  9
$TDINDWG
 40
0.029791
  9
$TDUSRTIMER
 40
0.029791
  9
$USRTIMER
 70
     1
  9
$ANGBASE
 50
0.0
  9
$ANGDIR
 70
     0
  9
$PDMODE
 70
     0
  9
$PDSIZE
 40
0.0
  9
$PLINEWID
 40
0.0
  9
$COORDS
 70
     2
  9
$SPLFRAME
 70
     0
  9
$SPLINETYPE
 70
     6
  9
$SPLINESEGS
 70
     8
  9
$ATTDIA
 70
     0
  9
$ATTREQ
 70
     1
  9
$HANDLING
 70
     1
  9
$HANDSEED
  5
349
  9
$SURFTAB1
 70
     6
  9
$SURFTAB2
 70
     6
  9
$SURFTYPE
 70
     6
  9
$SURFU
 70
     6
  9
$SURFV
 70
     6
  9
$UCSNAME
  2

  9
$UCSORG
 10
0.0
 20
0.0
 30
0.0
  9
$UCSXDIR
 10
1.0
 20
0.0
 30
0.0
  9
$UCSYDIR
 10
0.0
 20
1.0
 30
0.0
  9
$PUCSNAME
  2

  9
$PUCSORG
 10
0.0
 20
0.0
 30
0.0
  9
$PUCSXDIR
 10
1.0
 20
0.0
 30
0.0
  9
$PUCSYDIR
 10
0.0
 20
1.0
 30
0.0
  9
$USERI1
 70
     0
  9
$USERI2
 70
     0
  9
$USERI3
 70
     0
  9
$USERI4
 70
     0
  9
$USERI5
 70
     0
  9
$USERR1
 40
0.0
  9
$USERR2
 40
0.0
  9
$USERR3
 40
0.0
  9
$USERR4
 40
0.0
  9
$USERR5
 40
0.0
  9
$WORLDVIEW
 70
     1
  9
$SHADEDGE
 70
     3
  9
$SHADEDIF
 70
    70
  9
$TILEMODE
 70
     1
  9
$MAXACTVP
 70
    16
  9
$PLIMCHECK
 70
     0
  9
$PEXTMIN
 10
1.000000E+020
 20
1.000000E+020
 30
1.000000E+020
  9
$PEXTMAX
 10
-1.000000E+020
 20
-1.000000E+020
 30
-1.000000E+020
  9
$PLIMMIN
 10
0.0
 20
0.0
  9
$PLIMMAX
 10
12.0
 20
9.0
  9
$UNITMODE
 70
     0
  9
$VISRETAIN
 70
     0
  9
$PLINEGEN
 70
     1
  9
$PSLTSCALE
 70
     0
  0
ENDSEC
  0
SECTION
  2
TABLES
  0
TABLE
  2
VPORT
 70
     2
  0
VPORT
  2
*ACTIVE
 70
     0
 10
0.0
 20
0.0
 11
1.0
 21
1.0
 12
124.153543
 22
91.722934
 13
0.0
 23
0.0
 14
0.5
 24
0.5
 15
1.0
 25
1.0
 16
0.0
 26
0.0
 36
1.0
 17
0.0
 27
0.0
 37
0.0
 40
183.445869
 41
1.353571
 42
50.0
 43
0.0
 44
0.0
 50
0.0
 51
0.0
 71
     0
 72
   500
 73
     1
 74
     1
 75
     1
 76
     0
 77
     0
 78
     0
  0
ENDTAB
  0
TABLE
  2
LTYPE
 70
     4
  0
LTYPE
  2
CONTINUOUS
 70
     0
  3
実線
 72
    65
 73
     0
 40
0.0
  0
LTYPE
  2
CENTER
 70
     0
  3
____ _ ____ _ ____ _ ____ _ ____ _ ____ _ ____
 72
    65
 73
     4
 40
2.0
 49
1.25
 49
-0.25
 49
0.25
 49
-0.25
  0
LTYPE
  2
HIDDEN
 70
     0
  3
_ _ _ _ _ _ _ _ _ _ _ _ _ _ _ _ _ _ _ _ _ _ _
 72
    65
 73
     2
 40
0.375
 49
0.25
 49
-0.125
  0
LTYPE
  2
TENSEN1
 70
     0
  3

 72
    65
 73
     2
 40
0.4
 49
0.3
 49
-0.1
  0
ENDTAB
  0
TABLE
  2
LAYER
 70
     7
  0
LAYER
  2
0
 70
     0
 62
     7
  6
CONTINUOUS
  0
LAYER
  2
1
 70
     0
 62
     1
  6
CENTER
  0
LAYER
  2
3
 70
     0
 62
     3
  6
CONTINUOUS
  0
LAYER
  2
4
 70
     0
 62
     4
  6
CONTINUOUS
  0
LAYER
  2
10
 70
     0
 62
     7
  6
CONTINUOUS
  0
LAYER
  2
11
 70
     0
 62
     3
  6
CONTINUOUS
  0
LAYER
  2
2
 70
     0
 62
     2
  6
TENSEN1
  0
ENDTAB
  0
TABLE
  2
STYLE
 70
     4
  0
STYLE
  2
STANDARD
 70
     0
 40
0.0
 41
1.0
 50
0.0
 71
     0
 42
0.2
  3
TXT
  4
BIGFONT
  0
STYLE
  2
K80
 70
     0
 40
0.0
 41
0.8
 50
0.0
 71
     0
 42
0.2
  3
TXT
  4
BIGFONT
  0
STYLE
  2
07500
 70
     0
 40
0.0
 41
0.75
 50
0.0
 71
     0
 42
6.0
  3
TXT
  4
BIGFONT
  0
STYLE
  2
BIGFONT
 70
     0
 40
10.0
 41
0.8
 50
0.0
 71
     0
 42
10.0
  3
txt.shx
  4
bigfont
  0
ENDTAB
  0
TABLE
  2
VIEW
 70
     1
  0
VIEW
  2
ALL
 70
     0
 40
540.0
 10
441.983193
 20
270.0
 41
0.0
 11
0.0
 21
0.0
 31
1.0
 12
0.0
 22
0.0
 32
0.0
 42
0.0
 43
0.0
 44
0.0
 50
0.0
 71
     0
  0
ENDTAB
  0
TABLE
  2
UCS
 70
     0
  0
ENDTAB
  0
TABLE
  2
APPID
 70
     1
  0
APPID
  2
ACAD
 70
     0
  0
ENDTAB
  0
TABLE
  2
DIMSTYLE
 70
     1
  0
DIMSTYLE
  2
STANDARD
 70
     0
  3

  4

  5

  6

  7

 40
1.0
 41
0.18
 42
0.0625
 43
0.38
 44
0.18
 45
0.0
 46
0.0
 47
0.0
 48
0.0
140
0.18
141
0.09
142
0.0
143
25.4
144
1.0
145
0.0
146
1.0
147
0.09
 71
     0
 72
     0
 73
     1
 74
     1
 75
     0
 76
     0
 77
     0
 78
     0
170
     0
171
     2
172
     0
173
     0
174
     0
175
     0
176
     0
177
     0
178
     0
  0
ENDTAB
  0
ENDSEC
  0
SECTION
  2
BLOCKS
  0
BLOCK
  8
0
  2
$MODEL_SPACE
 70
     0
 10
0.0
 20
0.0
 30
0.0
  3
$MODEL_SPACE
  1

  0
ENDBLK
  5
1AC
  8
0
  0
BLOCK
 67
     1
  8
0
  2
$PAPER_SPACE
 70
     0
 10
0.0
 20
0.0
 30
0.0
  3
$PAPER_SPACE
  1

  0
ENDBLK
  5
1AA
 67
     1
  8
0
  0
BLOCK
  8
0
  2
WAKU
 70
     0
 10
549.0
 20
0.0
 30
0.0
  3
WAKU
  1

  0
LINE
  5
32
  8
11
 10
452.0
 20
12.0
 30
0.0
 11
549.0
 21
12.0
 31
0.0
  0
LINE
  5
33
  8
11
 10
477.0
 20
0.0
 30
0.0
 11
477.0
 21
12.0
 31
0.0
  0
LINE
  5
34
  8
11
 10
452.0
 20
12.0
 30
0.0
 11
452.0
 21
0.0
 31
0.0
  0
TEXT
  5
35
  8
11
 10
454.0
 20
8.5
 30
0.0
 40
2.5
  1
尺度
  0
TEXT
  5
36
  8
11
 10
479.0
 20
8.5
 30
0.0
 40
2.5
  1
図番
  0
ENDBLK
  5
37
  8
0
  0
BLOCK
  8
0
  2
QQ
 70
     0
 10
270.0
 20
0.0
 30
0.0
  3
QQ
  1

  0
LINE
  5
39
  8
11
 10
173.0
 20
36.0
 30
0.0
 11
270.0
 21
36.0
 31
0.0
  0
TEXT
  5
3A
  8
11
 10
175.0
 20
32.5
 30
0.0
 40
2.5
  1
部品名称
  0
LINE
  5
3B
  8
11
 10
173.0
 20
36.0
 30
0.0
 11
173.0
 21
0.0
 31
0.0
  0
LINE
  5
3C
  8
11
 10
173.0
 20
24.0
 30
0.0
 11
270.0
 21
24.0
 31
0.0
  0
TEXT
  5
3D
  8
11
 10
175.0
 20
20.5
 30
0.0
 40
2.5
  1
品番
  0
LINE
  5
3E
  8
11
 10
173.0
 20
12.0
 30
0.0
 11
270.0
 21
12.0
 31
0.0
  0
TEXT
  5
3F
  8
11
 10
175.0
 20
8.5
 30
0.0
 40
2.5
  1
尺度
  0
TEXT
  5
40
  8
11
 10
200.0
 20
8.5
 30
0.0
 40
2.5
  1
図番
  0
LINE
  5
41
  8
11
 10
198.0
 20
0.0
 30
0.0
 11
198.0
 21
12.0
 31
0.0
  0
ENDBLK
  5
42
  8
0
  0
ENDSEC
  0
SECTION
  2
ENTITIES
  0
LINE
  5
1B3
  8
1
 10
53.0
 20
105.0
 30
0.0
 11
53.0
 21
64.0
 31
0.0
  0
LINE
  5
1B4
  8
0
 10
53.0
 20
68.0
 30
0.0
 11
47.0
 21
68.0
 31
0.0
  0
LINE
  5
1B5
  8
0
 10
47.0
 20
68.0
 30
0.0
 11
47.0
 21
71.767081
 31
0.0
  0
LINE
  5
1B8
  8
0
 10
53.0
 20
94.5
 30
0.0
 11
49.5
 21
94.5
 31
0.0
  0
LINE
  5
1B9
  8
0
 10
49.0
 20
94.0
 30
0.0
 11
49.0
 21
92.0
 31
0.0
  0
ARC
  5
1C2
  8
0
 10
53.0
 20
97.416667
 30
0.0
 40
6.083333
 50
48.88791
 51
131.11209
  0
LINE
  5
1C4
  8
0
 10
45.0
 20
73.0
 30
0.0
 11
45.0
 21
92.0
 31
0.0
  0
POLYLINE
  5
1CC
  8
0
 10
45.267585
 20
92.512942
 30
0.0
 66
     1
 70
     8
  0
VERTEX
  8
0
  5
245
 10
45.2676
 20
92.5129
 30
0.000000
  70
    32
  0
VERTEX
  8
0
  5
246
 10
45.2121
 20
92.4575
 30
0.000000
  70
    32
  0
VERTEX
  8
0
  5
247
 10
45.1629
 20
92.4016
 30
0.000000
  70
    32
  0
VERTEX
  8
0
  5
248
 10
45.1202
 20
92.3454
 30
0.000000
  70
    32
  0
VERTEX
  8
0
  5
249
 10
45.0839
 20
92.2890
 30
0.000000
  70
    32
  0
VERTEX
  8
0
  5
24A
 10
45.0541
 20
92.2323
 30
0.000000
  70
    32
  0
VERTEX
  8
0
  5
24B
 10
45.0308
 20
92.1754
 30
0.000000
  70
    32
  0
VERTEX
  8
0
  5
24C
 10
45.0140
 20
92.1183
 30
0.000000
  70
    32
  0
VERTEX
  8
0
  5
24D
 10
45.0037
 20
92.0612
 30
0.000000
  70
    32
  0
VERTEX
  8
0
  5
24E
 10
45.0000
 20
92.0040
 30
0.000000
  70
    32
  0
VERTEX
  8
0
  5
24F
 10
45.0028
 20
91.9468
 30
0.000000
  70
    32
  0
VERTEX
  8
0
  5
250
 10
45.0122
 20
91.8897
 30
0.000000
  70
    32
  0
VERTEX
  8
0
  5
251
 10
45.0281
 20
91.8326
 30
0.000000
  70
    32
  0
VERTEX
  8
0
  5
252
 10
45.0505
 20
91.7757
 30
0.000000
  70
    32
  0
VERTEX
  8
0
  5
253
 10
45.0794
 20
91.7190
 30
0.000000
  70
    32
  0
VERTEX
  8
0
  5
254
 10
45.1147
 20
91.6625
 30
0.000000
  70
    32
  0
VERTEX
  8
0
  5
255
 10
45.1566
 20
91.6062
 30
0.000000
  70
    32
  0
VERTEX
  8
0
  5
256
 10
45.2048
 20
91.5503
 30
0.000000
  70
    32
  0
VERTEX
  8
0
  5
257
 10
45.2594
 20
91.4948
 30
0.000000
  70
    32
  0
VERTEX
  8
0
  5
258
 10
45.3204
 20
91.4397
 30
0.000000
  70
    32
  0
VERTEX
  8
0
  5
259
 10
45.3876
 20
91.3850
 30
0.000000
  70
    32
  0
VERTEX
  8
0
  5
25A
 10
45.4610
 20
91.3309
 30
0.000000
  70
    32
  0
VERTEX
  8
0
  5
25B
 10
45.5407
 20
91.2772
 30
0.000000
  70
    32
  0
VERTEX
  8
0
  5
25C
 10
45.6264
 20
91.2242
 30
0.000000
  70
    32
  0
VERTEX
  8
0
  5
25D
 10
45.7181
 20
91.1718
 30
0.000000
  70
    32
  0
VERTEX
  8
0
  5
25E
 10
45.8158
 20
91.1201
 30
0.000000
  70
    32
  0
VERTEX
  8
0
  5
25F
 10
45.9194
 20
91.0691
 30
0.000000
  70
    32
  0
VERTEX
  8
0
  5
260
 10
46.0287
 20
91.0189
 30
0.000000
  70
    32
  0
VERTEX
  8
0
  5
261
 10
46.1438
 20
90.9695
 30
0.000000
  70
    32
  0
VERTEX
  8
0
  5
262
 10
46.2645
 20
90.9209
 30
0.000000
  70
    32
  0
VERTEX
  8
0
  5
263
 10
46.3906
 20
90.8732
 30
0.000000
  70
    32
  0
VERTEX
  8
0
  5
264
 10
46.5222
 20
90.8264
 30
0.000000
  70
    32
  0
VERTEX
  8
0
  5
265
 10
46.6591
 20
90.7806
 30
0.000000
  70
    32
  0
VERTEX
  8
0
  5
266
 10
46.8012
 20
90.7357
 30
0.000000
  70
    32
  0
VERTEX
  8
0
  5
267
 10
46.9483
 20
90.6919
 30
0.000000
  70
    32
  0
VERTEX
  8
0
  5
268
 10
47.1004
 20
90.6492
 30
0.000000
  70
    32
  0
VERTEX
  8
0
  5
269
 10
47.2573
 20
90.6076
 30
0.000000
  70
    32
  0
VERTEX
  8
0
  5
26A
 10
47.4189
 20
90.5671
 30
0.000000
  70
    32
  0
VERTEX
  8
0
  5
26B
 10
47.5850
 20
90.5278
 30
0.000000
  70
    32
  0
VERTEX
  8
0
  5
26C
 10
47.7556
 20
90.4897
 30
0.000000
  70
    32
  0
VERTEX
  8
0
  5
26D
 10
47.9305
 20
90.4528
 30
0.000000
  70
    32
  0
VERTEX
  8
0
  5
26E
 10
48.1095
 20
90.4172
 30
0.000000
  70
    32
  0
VERTEX
  8
0
  5
26F
 10
48.2925
 20
90.3829
 30
0.000000
  70
    32
  0
VERTEX
  8
0
  5
270
 10
48.4794
 20
90.3499
 30
0.000000
  70
    32
  0
VERTEX
  8
0
  5
271
 10
48.6700
 20
90.3183
 30
0.000000
  70
    32
  0
VERTEX
  8
0
  5
272
 10
48.8641
 20
90.2880
 30
0.000000
  70
    32
  0
VERTEX
  8
0
  5
273
 10
49.0616
 20
90.2592
 30
0.000000
  70
    32
  0
VERTEX
  8
0
  5
274
 10
49.2623
 20
90.2317
 30
0.000000
  70
    32
  0
VERTEX
  8
0
  5
275
 10
49.4661
 20
90.2057
 30
0.000000
  70
    32
  0
VERTEX
  8
0
  5
276
 10
49.6727
 20
90.1812
 30
0.000000
  70
    32
  0
VERTEX
  8
0
  5
277
 10
49.8821
 20
90.1581
 30
0.000000
  70
    32
  0
VERTEX
  8
0
  5
278
 10
50.0940
 20
90.1366
 30
0.000000
  70
    32
  0
VERTEX
  8
0
  5
279
 10
50.3083
 20
90.1166
 30
0.000000
  70
    32
  0
VERTEX
  8
0
  5
27A
 10
50.5248
 20
90.0981
 30
0.000000
  70
    32
  0
VERTEX
  8
0
  5
27B
 10
50.7433
 20
90.0812
 30
0.000000
  70
    32
  0
VERTEX
  8
0
  5
27C
 10
50.9637
 20
90.0659
 30
0.000000
  70
    32
  0
VERTEX
  8
0
  5
27D
 10
51.1858
 20
90.0521
 30
0.000000
  70
    32
  0
VERTEX
  8
0
  5
27E
 10
51.4093
 20
90.0399
 30
0.000000
  70
    32
  0
VERTEX
  8
0
  5
27F
 10
51.6341
 20
90.0294
 30
0.000000
  70
    32
  0
VERTEX
  8
0
  5
280
 10
51.8600
 20
90.0204
 30
0.000000
  70
    32
  0
VERTEX
  8
0
  5
281
 10
52.0869
 20
90.0131
 30
0.000000
  70
    32
  0
VERTEX
  8
0
  5
282
 10
52.3145
 20
90.0074
 30
0.000000
  70
    32
  0
VERTEX
  8
0
  5
283
 10
52.5427
 20
90.0033
 30
0.000000
  70
    32
  0
VERTEX
  8
0
  5
284
 10
52.7713
 20
90.0008
 30
0.000000
  70
    32
  0
VERTEX
  8
0
  5
285
 10
53.0000
 20
90.0000
 30
0.000000
  70
    32
  0
VERTEX
  8
0
  5
286
 10
53.2287
 20
90.0008
 30
0.000000
  70
    32
  0
VERTEX
  8
0
  5
287
 10
53.4573
 20
90.0033
 30
0.000000
  70
    32
  0
VERTEX
  8
0
  5
288
 10
53.6855
 20
90.0074
 30
0.000000
  70
    32
  0
VERTEX
  8
0
  5
289
 10
53.9131
 20
90.0131
 30
0.000000
  70
    32
  0
VERTEX
  8
0
  5
28A
 10
54.1400
 20
90.0204
 30
0.000000
  70
    32
  0
VERTEX
  8
0
  5
28B
 10
54.3659
 20
90.0294
 30
0.000000
  70
    32
  0
VERTEX
  8
0
  5
28C
 10
54.5907
 20
90.0399
 30
0.000000
  70
    32
  0
VERTEX
  8
0
  5
28D
 10
54.8142
 20
90.0521
 30
0.000000
  70
    32
  0
VERTEX
  8
0
  5
28E
 10
55.0363
 20
90.0659
 30
0.000000
  70
    32
  0
VERTEX
  8
0
  5
28F
 10
55.2567
 20
90.0812
 30
0.000000
  70
    32
  0
VERTEX
  8
0
  5
290
 10
55.4752
 20
90.0981
 30
0.000000
  70
    32
  0
VERTEX
  8
0
  5
291
 10
55.6917
 20
90.1166
 30
0.000000
  70
    32
  0
VERTEX
  8
0
  5
292
 10
55.9060
 20
90.1366
 30
0.000000
  70
    32
  0
VERTEX
  8
0
  5
293
 10
56.1179
 20
90.1581
 30
0.000000
  70
    32
  0
VERTEX
  8
0
  5
294
 10
56.3273
 20
90.1812
 30
0.000000
  70
    32
  0
VERTEX
  8
0
  5
295
 10
56.5339
 20
90.2057
 30
0.000000
  70
    32
  0
VERTEX
  8
0
  5
296
 10
56.7377
 20
90.2317
 30
0.000000
  70
    32
  0
VERTEX
  8
0
  5
297
 10
56.9384
 20
90.2592
 30
0.000000
  70
    32
  0
VERTEX
  8
0
  5
298
 10
57.1359
 20
90.2880
 30
0.000000
  70
    32
  0
VERTEX
  8
0
  5
299
 10
57.3300
 20
90.3183
 30
0.000000
  70
    32
  0
VERTEX
  8
0
  5
29A
 10
57.5206
 20
90.3499
 30
0.000000
  70
    32
  0
VERTEX
  8
0
  5
29B
 10
57.7075
 20
90.3829
 30
0.000000
  70
    32
  0
VERTEX
  8
0
  5
29C
 10
57.8905
 20
90.4172
 30
0.000000
  70
    32
  0
VERTEX
  8
0
  5
29D
 10
58.0695
 20
90.4528
 30
0.000000
  70
    32
  0
VERTEX
  8
0
  5
29E
 10
58.2444
 20
90.4897
 30
0.000000
  70
    32
  0
VERTEX
  8
0
  5
29F
 10
58.4150
 20
90.5278
 30
0.000000
  70
    32
  0
VERTEX
  8
0
  5
2A0
 10
58.5811
 20
90.5671
 30
0.000000
  70
    32
  0
VERTEX
  8
0
  5
2A1
 10
58.7427
 20
90.6076
 30
0.000000
  70
    32
  0
VERTEX
  8
0
  5
2A2
 10
58.8996
 20
90.6492
 30
0.000000
  70
    32
  0
VERTEX
  8
0
  5
2A3
 10
59.0517
 20
90.6919
 30
0.000000
  70
    32
  0
VERTEX
  8
0
  5
2A4
 10
59.1988
 20
90.7357
 30
0.000000
  70
    32
  0
VERTEX
  8
0
  5
2A5
 10
59.3409
 20
90.7806
 30
0.000000
  70
    32
  0
VERTEX
  8
0
  5
2A6
 10
59.4778
 20
90.8264
 30
0.000000
  70
    32
  0
VERTEX
  8
0
  5
2A7
 10
59.6094
 20
90.8732
 30
0.000000
  70
    32
  0
VERTEX
  8
0
  5
2A8
 10
59.7355
 20
90.9209
 30
0.000000
  70
    32
  0
VERTEX
  8
0
  5
2A9
 10
59.8562
 20
90.9695
 30
0.000000
  70
    32
  0
VERTEX
  8
0
  5
2AA
 10
59.9713
 20
91.0189
 30
0.000000
  70
    32
  0
VERTEX
  8
0
  5
2AB
 10
60.0806
 20
91.0691
 30
0.000000
  70
    32
  0
VERTEX
  8
0
  5
2AC
 10
60.1842
 20
91.1201
 30
0.000000
  70
    32
  0
VERTEX
  8
0
  5
2AD
 10
60.2819
 20
91.1718
 30
0.000000
  70
    32
  0
VERTEX
  8
0
  5
2AE
 10
60.3736
 20
91.2242
 30
0.000000
  70
    32
  0
VERTEX
  8
0
  5
2AF
 10
60.4593
 20
91.2772
 30
0.000000
  70
    32
  0
VERTEX
  8
0
  5
2B0
 10
60.5390
 20
91.3309
 30
0.000000
  70
    32
  0
VERTEX
  8
0
  5
2B1
 10
60.6124
 20
91.3850
 30
0.000000
  70
    32
  0
VERTEX
  8
0
  5
2B2
 10
60.6796
 20
91.4397
 30
0.000000
  70
    32
  0
VERTEX
  8
0
  5
2B3
 10
60.7406
 20
91.4948
 30
0.000000
  70
    32
  0
VERTEX
  8
0
  5
2B4
 10
60.7952
 20
91.5503
 30
0.000000
  70
    32
  0
VERTEX
  8
0
  5
2B5
 10
60.8434
 20
91.6062
 30
0.000000
  70
    32
  0
VERTEX
  8
0
  5
2B6
 10
60.8853
 20
91.6625
 30
0.000000
  70
    32
  0
VERTEX
  8
0
  5
2B7
 10
60.9206
 20
91.7190
 30
0.000000
  70
    32
  0
VERTEX
  8
0
  5
2B8
 10
60.9495
 20
91.7757
 30
0.000000
  70
    32
  0
VERTEX
  8
0
  5
2B9
 10
60.9719
 20
91.8326
 30
0.000000
  70
    32
  0
VERTEX
  8
0
  5
2BA
 10
60.9878
 20
91.8897
 30
0.000000
  70
    32
  0
VERTEX
  8
0
  5
2BB
 10
60.9972
 20
91.9468
 30
0.000000
  70
    32
  0
VERTEX
  8
0
  5
2BC
 10
61.0000
 20
92.0040
 30
0.000000
  70
    32
  0
VERTEX
  8
0
  5
2BD
 10
60.9963
 20
92.0612
 30
0.000000
  70
    32
  0
VERTEX
  8
0
  5
2BE
 10
60.9860
 20
92.1183
 30
0.000000
  70
    32
  0
VERTEX
  8
0
  5
2BF
 10
60.9692
 20
92.1754
 30
0.000000
  70
    32
  0
VERTEX
  8
0
  5
2C0
 10
60.9459
 20
92.2323
 30
0.000000
  70
    32
  0
VERTEX
  8
0
  5
2C1
 10
60.9161
 20
92.2890
 30
0.000000
  70
    32
  0
VERTEX
  8
0
  5
2C2
 10
60.8798
 20
92.3454
 30
0.000000
  70
    32
  0
VERTEX
  8
0
  5
2C3
 10
60.8371
 20
92.4016
 30
0.000000
  70
    32
  0
VERTEX
  8
0
  5
2C4
 10
60.7879
 20
92.4575
 30
0.000000
  70
    32
  0
VERTEX
  8
0
  5
2C5
 10
60.7324
 20
92.5129
 30
0.000000
  70
    32
  0
SEQEND
  8
0
  5
2C6
  0
ARC
  5
1CD
  8
0
 10
53.0
 20
99.5
 30
0.0
 40
8.5
 50
241.927513
 51
298.072487
  0
LINE
  5
1CE
  8
0
 10
57.0
 20
102.0
 30
0.0
 11
58.485968
 21
93.455682
 31
0.0
  0
LINE
  5
1CF
  8
0
 10
49.0
 20
102.0
 30
0.0
 11
47.514032
 21
93.455682
 31
0.0
  0
LINE
  5
1D0
  8
0
 10
58.970635
 20
90.668847
 30
0.0
 11
59.0
 21
90.5
 31
0.0
  0
LINE
  5
1D1
  8
0
 10
47.029365
 20
90.668847
 30
0.0
 11
47.0
 21
90.5
 31
0.0
  0
ARC
  5
1D2
  8
0
 10
49.5
 20
94.0
 30
0.0
 40
0.5
 50
90.0
 51
180.0
  0
LINE
  5
1D3
  8
0
 10
53.0
 20
94.5
 30
0.0
 11
56.5
 21
94.5
 31
0.0
  0
ARC
  5
1D4
  8
0
 10
56.5
 20
94.0
 30
0.0
 40
0.5
 50
0.0
 51
90.0
  0
LINE
  5
1D5
  8
0
 10
57.0
 20
94.0
 30
0.0
 11
57.0
 21
92.0
 31
0.0
  0
LINE
  5
1DD
  8
0
 10
61.0
 20
73.0
 30
0.0
 11
61.0
 21
92.0
 31
0.0
  0
POLYLINE
  5
1DF
  8
0
 10
45.0
 20
73.0
 30
0.0
 66
     1
 70
     8
  0
VERTEX
  8
0
  5
2C7
 10
45.0000
 20
73.0000
 30
0.000000
  70
    32
  0
VERTEX
  8
0
  5
2C8
 10
45.0024
 20
72.9543
 30
0.000000
  70
    32
  0
VERTEX
  8
0
  5
2C9
 10
45.0096
 20
72.9085
 30
0.000000
  70
    32
  0
VERTEX
  8
0
  5
2CA
 10
45.0217
 20
72.8629
 30
0.000000
  70
    32
  0
VERTEX
  8
0
  5
2CB
 10
45.0385
 20
72.8173
 30
0.000000
  70
    32
  0
VERTEX
  8
0
  5
2CC
 10
45.0602
 20
72.7718
 30
0.000000
  70
    32
  0
VERTEX
  8
0
  5
2CD
 10
45.0866
 20
72.7265
 30
0.000000
  70
    32
  0
VERTEX
  8
0
  5
2CE
 10
45.1178
 20
72.6813
 30
0.000000
  70
    32
  0
VERTEX
  8
0
  5
2CF
 10
45.1537
 20
72.6364
 30
0.000000
  70
    32
  0
VERTEX
  8
0
  5
2D0
 10
45.1944
 20
72.5916
 30
0.000000
  70
    32
  0
VERTEX
  8
0
  5
2D1
 10
45.2397
 20
72.5471
 30
0.000000
  70
    32
  0
VERTEX
  8
0
  5
2D2
 10
45.2898
 20
72.5028
 30
0.000000
  70
    32
  0
VERTEX
  8
0
  5
2D3
 10
45.3445
 20
72.4589
 30
0.000000
  70
    32
  0
VERTEX
  8
0
  5
2D4
 10
45.4038
 20
72.4153
 30
0.000000
  70
    32
  0
VERTEX
  8
0
  5
2D5
 10
45.4676
 20
72.3720
 30
0.000000
  70
    32
  0
VERTEX
  8
0
  5
2D6
 10
45.5361
 20
72.3292
 30
0.000000
  70
    32
  0
VERTEX
  8
0
  5
2D7
 10
45.6090
 20
72.2867
 30
0.000000
  70
    32
  0
VERTEX
  8
0
  5
2D8
 10
45.6863
 20
72.2446
 30
0.000000
  70
    32
  0
VERTEX
  8
0
  5
2D9
 10
45.7681
 20
72.2030
 30
0.000000
  70
    32
  0
VERTEX
  8
0
  5
2DA
 10
45.8542
 20
72.1619
 30
0.000000
  70
    32
  0
VERTEX
  8
0
  5
2DB
 10
45.9446
 20
72.1213
 30
0.000000
  70
    32
  0
VERTEX
  8
0
  5
2DC
 10
46.0393
 20
72.0812
 30
0.000000
  70
    32
  0
VERTEX
  8
0
  5
2DD
 10
46.1382
 20
72.0417
 30
0.000000
  70
    32
  0
VERTEX
  8
0
  5
2DE
 10
46.2412
 20
72.0028
 30
0.000000
  70
    32
  0
VERTEX
  8
0
  5
2DF
 10
46.3482
 20
71.9644
 30
0.000000
  70
    32
  0
VERTEX
  8
0
  5
2E0
 10
46.4593
 20
71.9267
 30
0.000000
  70
    32
  0
VERTEX
  8
0
  5
2E1
 10
46.5743
 20
71.8896
 30
0.000000
  70
    32
  0
VERTEX
  8
0
  5
2E2
 10
46.6932
 20
71.8532
 30
0.000000
  70
    32
  0
VERTEX
  8
0
  5
2E3
 10
46.8159
 20
71.8175
 30
0.000000
  70
    32
  0
VERTEX
  8
0
  5
2E4
 10
46.9423
 20
71.7825
 30
0.000000
  70
    32
  0
VERTEX
  8
0
  5
2E5
 10
47.0724
 20
71.7482
 30
0.000000
  70
    32
  0
VERTEX
  8
0
  5
2E6
 10
47.2060
 20
71.7147
 30
0.000000
  70
    32
  0
VERTEX
  8
0
  5
2E7
 10
47.3431
 20
71.6820
 30
0.000000
  70
    32
  0
VERTEX
  8
0
  5
2E8
 10
47.4837
 20
71.6500
 30
0.000000
  70
    32
  0
VERTEX
  8
0
  5
2E9
 10
47.6275
 20
71.6189
 30
0.000000
  70
    32
  0
VERTEX
  8
0
  5
2EA
 10
47.7746
 20
71.5886
 30
0.000000
  70
    32
  0
VERTEX
  8
0
  5
2EB
 10
47.9249
 20
71.5591
 30
0.000000
  70
    32
  0
VERTEX
  8
0
  5
2EC
 10
48.0781
 20
71.5305
 30
0.000000
  70
    32
  0
VERTEX
  8
0
  5
2ED
 10
48.2344
 20
71.5028
 30
0.000000
  70
    32
  0
VERTEX
  8
0
  5
2EE
 10
48.3935
 20
71.4760
 30
0.000000
  70
    32
  0
VERTEX
  8
0
  5
2EF
 10
48.5554
 20
71.4501
 30
0.000000
  70
    32
  0
VERTEX
  8
0
  5
2F0
 10
48.7200
 20
71.4252
 30
0.000000
  70
    32
  0
VERTEX
  8
0
  5
2F1
 10
48.8872
 20
71.4012
 30
0.000000
  70
    32
  0
VERTEX
  8
0
  5
2F2
 10
49.0568
 20
71.3782
 30
0.000000
  70
    32
  0
VERTEX
  8
0
  5
2F3
 10
49.2288
 20
71.3561
 30
0.000000
  70
    32
  0
VERTEX
  8
0
  5
2F4
 10
49.4031
 20
71.3350
 30
0.000000
  70
    32
  0
VERTEX
  8
0
  5
2F5
 10
49.5796
 20
71.3150
 30
0.000000
  70
    32
  0
VERTEX
  8
0
  5
2F6
 10
49.7581
 20
71.2959
 30
0.000000
  70
    32
  0
VERTEX
  8
0
  5
2F7
 10
49.9385
 20
71.2779
 30
0.000000
  70
    32
  0
VERTEX
  8
0
  5
2F8
 10
50.1208
 20
71.2609
 30
0.000000
  70
    32
  0
VERTEX
  8
0
  5
2F9
 10
50.3049
 20
71.2450
 30
0.000000
  70
    32
  0
VERTEX
  8
0
  5
2FA
 10
50.4905
 20
71.2301
 30
0.000000
  70
    32
  0
VERTEX
  8
0
  5
2FB
 10
50.6777
 20
71.2163
 30
0.000000
  70
    32
  0
VERTEX
  8
0
  5
2FC
 10
50.8663
 20
71.2035
 30
0.000000
  70
    32
  0
VERTEX
  8
0
  5
2FD
 10
51.0562
 20
71.1919
 30
0.000000
  70
    32
  0
VERTEX
  8
0
  5
2FE
 10
51.2472
 20
71.1813
 30
0.000000
  70
    32
  0
VERTEX
  8
0
  5
2FF
 10
51.4393
 20
71.1718
 30
0.000000
  70
    32
  0
VERTEX
  8
0
  5
300
 10
51.6323
 20
71.1634
 30
0.000000
  70
    32
  0
VERTEX
  8
0
  5
301
 10
51.8262
 20
71.1562
 30
0.000000
  70
    32
  0
VERTEX
  8
0
  5
302
 10
52.0207
 20
71.1500
 30
0.000000
  70
    32
  0
VERTEX
  8
0
  5
303
 10
52.2159
 20
71.1450
 30
0.000000
  70
    32
  0
VERTEX
  8
0
  5
304
 10
52.4115
 20
71.1411
 30
0.000000
  70
    32
  0
VERTEX
  8
0
  5
305
 10
52.6075
 20
71.1382
 30
0.000000
  70
    32
  0
VERTEX
  8
0
  5
306
 10
52.8037
 20
71.1366
 30
0.000000
  70
    32
  0
VERTEX
  8
0
  5
307
 10
53.0000
 20
71.1360
 30
0.000000
  70
    32
  0
VERTEX
  8
0
  5
308
 10
53.1963
 20
71.1366
 30
0.000000
  70
    32
  0
VERTEX
  8
0
  5
309
 10
53.3925
 20
71.1382
 30
0.000000
  70
    32
  0
VERTEX
  8
0
  5
30A
 10
53.5885
 20
71.1411
 30
0.000000
  70
    32
  0
VERTEX
  8
0
  5
30B
 10
53.7841
 20
71.1450
 30
0.000000
  70
    32
  0
VERTEX
  8
0
  5
30C
 10
53.9793
 20
71.1500
 30
0.000000
  70
    32
  0
VERTEX
  8
0
  5
30D
 10
54.1738
 20
71.1562
 30
0.000000
  70
    32
  0
VERTEX
  8
0
  5
30E
 10
54.3677
 20
71.1634
 30
0.000000
  70
    32
  0
VERTEX
  8
0
  5
30F
 10
54.5607
 20
71.1718
 30
0.000000
  70
    32
  0
VERTEX
  8
0
  5
310
 10
54.7528
 20
71.1813
 30
0.000000
  70
    32
  0
VERTEX
  8
0
  5
311
 10
54.9438
 20
71.1919
 30
0.000000
  70
    32
  0
VERTEX
  8
0
  5
312
 10
55.1337
 20
71.2035
 30
0.000000
  70
    32
  0
VERTEX
  8
0
  5
313
 10
55.3223
 20
71.2163
 30
0.000000
  70
    32
  0
VERTEX
  8
0
  5
314
 10
55.5095
 20
71.2301
 30
0.000000
  70
    32
  0
VERTEX
  8
0
  5
315
 10
55.6951
 20
71.2450
 30
0.000000
  70
    32
  0
VERTEX
  8
0
  5
316
 10
55.8792
 20
71.2609
 30
0.000000
  70
    32
  0
VERTEX
  8
0
  5
317
 10
56.0615
 20
71.2779
 30
0.000000
  70
    32
  0
VERTEX
  8
0
  5
318
 10
56.2419
 20
71.2959
 30
0.000000
  70
    32
  0
VERTEX
  8
0
  5
319
 10
56.4204
 20
71.3150
 30
0.000000
  70
    32
  0
VERTEX
  8
0
  5
31A
 10
56.5969
 20
71.3350
 30
0.000000
  70
    32
  0
VERTEX
  8
0
  5
31B
 10
56.7712
 20
71.3561
 30
0.000000
  70
    32
  0
VERTEX
  8
0
  5
31C
 10
56.9432
 20
71.3782
 30
0.000000
  70
    32
  0
VERTEX
  8
0
  5
31D
 10
57.1128
 20
71.4012
 30
0.000000
  70
    32
  0
VERTEX
  8
0
  5
31E
 10
57.2800
 20
71.4252
 30
0.000000
  70
    32
  0
VERTEX
  8
0
  5
31F
 10
57.4446
 20
71.4501
 30
0.000000
  70
    32
  0
VERTEX
  8
0
  5
320
 10
57.6065
 20
71.4760
 30
0.000000
  70
    32
  0
VERTEX
  8
0
  5
321
 10
57.7656
 20
71.5028
 30
0.000000
  70
    32
  0
VERTEX
  8
0
  5
322
 10
57.9219
 20
71.5305
 30
0.000000
  70
    32
  0
VERTEX
  8
0
  5
323
 10
58.0751
 20
71.5591
 30
0.000000
  70
    32
  0
VERTEX
  8
0
  5
324
 10
58.2254
 20
71.5886
 30
0.000000
  70
    32
  0
VERTEX
  8
0
  5
325
 10
58.3725
 20
71.6189
 30
0.000000
  70
    32
  0
VERTEX
  8
0
  5
326
 10
58.5163
 20
71.6500
 30
0.000000
  70
    32
  0
VERTEX
  8
0
  5
327
 10
58.6569
 20
71.6820
 30
0.000000
  70
    32
  0
VERTEX
  8
0
  5
328
 10
58.7940
 20
71.7147
 30
0.000000
  70
    32
  0
VERTEX
  8
0
  5
329
 10
58.9276
 20
71.7482
 30
0.000000
  70
    32
  0
VERTEX
  8
0
  5
32A
 10
59.0577
 20
71.7825
 30
0.000000
  70
    32
  0
VERTEX
  8
0
  5
32B
 10
59.1841
 20
71.8175
 30
0.000000
  70
    32
  0
VERTEX
  8
0
  5
32C
 10
59.3068
 20
71.8532
 30
0.000000
  70
    32
  0
VERTEX
  8
0
  5
32D
 10
59.4257
 20
71.8896
 30
0.000000
  70
    32
  0
VERTEX
  8
0
  5
32E
 10
59.5407
 20
71.9267
 30
0.000000
  70
    32
  0
VERTEX
  8
0
  5
32F
 10
59.6518
 20
71.9644
 30
0.000000
  70
    32
  0
VERTEX
  8
0
  5
330
 10
59.7588
 20
72.0028
 30
0.000000
  70
    32
  0
VERTEX
  8
0
  5
331
 10
59.8618
 20
72.0417
 30
0.000000
  70
    32
  0
VERTEX
  8
0
  5
332
 10
59.9607
 20
72.0812
 30
0.000000
  70
    32
  0
VERTEX
  8
0
  5
333
 10
60.0554
 20
72.1213
 30
0.000000
  70
    32
  0
VERTEX
  8
0
  5
334
 10
60.1458
 20
72.1619
 30
0.000000
  70
    32
  0
VERTEX
  8
0
  5
335
 10
60.2319
 20
72.2030
 30
0.000000
  70
    32
  0
VERTEX
  8
0
  5
336
 10
60.3137
 20
72.2446
 30
0.000000
  70
    32
  0
VERTEX
  8
0
  5
337
 10
60.3910
 20
72.2867
 30
0.000000
  70
    32
  0
VERTEX
  8
0
  5
338
 10
60.4639
 20
72.3292
 30
0.000000
  70
    32
  0
VERTEX
  8
0
  5
339
 10
60.5324
 20
72.3720
 30
0.000000
  70
    32
  0
VERTEX
  8
0
  5
33A
 10
60.5962
 20
72.4153
 30
0.000000
  70
    32
  0
VERTEX
  8
0
  5
33B
 10
60.6555
 20
72.4589
 30
0.000000
  70
    32
  0
VERTEX
  8
0
  5
33C
 10
60.7102
 20
72.5028
 30
0.000000
  70
    32
  0
VERTEX
  8
0
  5
33D
 10
60.7603
 20
72.5471
 30
0.000000
  70
    32
  0
VERTEX
  8
0
  5
33E
 10
60.8056
 20
72.5916
 30
0.000000
  70
    32
  0
VERTEX
  8
0
  5
33F
 10
60.8463
 20
72.6364
 30
0.000000
  70
    32
  0
VERTEX
  8
0
  5
340
 10
60.8822
 20
72.6813
 30
0.000000
  70
    32
  0
VERTEX
  8
0
  5
341
 10
60.9134
 20
72.7265
 30
0.000000
  70
    32
  0
VERTEX
  8
0
  5
342
 10
60.9398
 20
72.7718
 30
0.000000
  70
    32
  0
VERTEX
  8
0
  5
343
 10
60.9615
 20
72.8173
 30
0.000000
  70
    32
  0
VERTEX
  8
0
  5
344
 10
60.9783
 20
72.8629
 30
0.000000
  70
    32
  0
VERTEX
  8
0
  5
345
 10
60.9904
 20
72.9085
 30
0.000000
  70
    32
  0
VERTEX
  8
0
  5
346
 10
60.9976
 20
72.9543
 30
0.000000
  70
    32
  0
VERTEX
  8
0
  5
347
 10
61.0000
 20
73.0000
 30
0.000000
  70
    32
  0
SEQEND
  8
0
  5
348
  0
LINE
  5
1E0
  8
0
 10
59.0
 20
68.0
 30
0.0
 11
59.0
 21
71.767081
 31
0.0
  0
LINE
  5
1E1
  8
0
 10
53.0
 20
68.0
 30
0.0
 11
59.0
 21
68.0
 31
0.0
  0
LINE
  5
1EE
  8
1
 10
107.0
 20
97.5
 30
0.0
 11
107.0
 21
64.0
 31
0.0
  0
LINE
  5
1FB
  8
0
 10
107.0
 20
68.0
 30
0.0
 11
101.0
 21
68.0
 31
0.0
  0
LINE
  5
1FC
  8
0
 10
107.0
 20
68.0
 30
0.0
 11
113.0
 21
68.0
 31
0.0
  0
LINE
  5
1FD
  8
0
 10
101.0
 20
68.0
 30
0.0
 11
101.0
 21
71.7375
 31
0.0
  0
LINE
  5
1FE
  8
0
 10
113.0
 20
68.0
 30
0.0
 11
113.0
 21
74.9625
 31
0.0
  0
LINE
  5
200
  8
0
 10
99.0
 20
89.234191
 30
0.0
 11
99.0
 21
72.504234
 31
0.0
  0
LINE
  5
202
  8
0
 10
114.259541
 20
75.301002
 30
0.0
 11
100.259541
 21
71.538502
 31
0.0
  0
LINE
  5
203
  8
0
 10
115.0
 20
76.266734
 30
0.0
 11
115.0
 21
85.095745
 31
0.0
  0
LINE
  5
208
  8
0
 10
99.739334
 20
90.19962
 30
0.0
 11
147.739334
 21
103.15962
 31
0.0
  0
LINE
  5
209
  8
0
 10
103.0
 20
91.08
 30
0.0
 11
103.0
 21
94.0
 31
0.0
  0
LINE
  5
20A
  8
0
 10
103.5
 20
94.5
 30
0.0
 11
110.5
 21
94.5
 31
0.0
  0
LINE
  5
20B
  8
0
 10
111.0
 20
94.0
 30
0.0
 11
111.0
 21
93.24
 31
0.0
  0
ARC
  5
20C
  8
0
 10
103.5
 20
94.0
 30
0.0
 40
0.5
 50
90.0
 51
180.0
  0
ARC
  5
20D
  8
0
 10
110.5
 20
94.0
 30
0.0
 40
0.5
 50
0.0
 51
90.0
  0
LINE
  5
212
  8
0
 10
149.0
 20
102.194191
 30
0.0
 11
149.0
 21
94.272597
 31
0.0
  0
LINE
  5
213
  8
0
 10
148.252422
 20
93.30498
 30
0.0
 11
138.054394
 21
90.644624
 31
0.0
  0
LINE
  5
214
  8
0
 10
137.094865
 20
90.905135
 30
0.0
 11
136.5
 21
91.5
 31
0.0
  0
LINE
  5
215
  8
0
 10
136.5
 20
91.5
 30
0.0
 11
113.0
 21
84.5
 31
0.0
  0
LINE
  5
216
  8
0
 10
113.0
 20
84.5
 30
0.0
 11
113.0
 21
93.78
 31
0.0
  0
ARC
  5
217
  8
0
 10
148.0
 20
102.194191
 30
0.0
 40
1.0
 50
0.0
 51
105.109575
  0
ARC
  5
218
  8
0
 10
148.0
 20
94.272597
 30
0.0
 40
1.0
 50
284.620874
 51
0.0
  0
ARC
  5
219
  8
0
 10
137.801972
 20
91.612242
 30
0.0
 40
1.0
 50
225.0
 51
284.620874
  0
ARC
  5
21A
  8
0
 10
100.0
 20
89.234191
 30
0.0
 40
1.0
 50
105.109575
 51
180.0
  0
ARC
  5
21B
  8
0
 10
100.0
 20
72.504234
 30
0.0
 40
1.0
 50
180.0
 51
285.042801
  0
ARC
  5
21C
  8
0
 10
114.0
 20
76.266734
 30
0.0
 40
1.0
 50
285.042801
 51
0.0
  0
LINE
  5
223
  8
2
 10
51.0
 20
68.0
 30
0.0
 11
51.0
 21
77.0
 31
0.0
  0
LINE
  5
224
  8
2
 10
51.0
 20
77.0
 30
0.0
 11
55.0
 21
77.0
 31
0.0
  0
LINE
  5
225
  8
2
 10
55.0
 20
77.0
 30
0.0
 11
55.0
 21
68.0
 31
0.0
  0
LINE
  5
226
  8
2
 10
54.5
 20
68.0
 30
0.0
 11
54.5
 21
78.0
 31
0.0
  0
LINE
  5
227
  8
2
 10
54.5
 20
78.0
 30
0.0
 11
51.5
 21
78.0
 31
0.0
  0
LINE
  5
228
  8
2
 10
51.5
 20
78.0
 30
0.0
 11
51.5
 21
68.0
 31
0.0
  0
LINE
  5
229
  8
2
 10
55.0
 20
77.0
 30
0.0
 11
54.5
 21
77.5
 31
0.0
  0
LINE
  5
22A
  8
2
 10
54.5
 20
77.5
 30
0.0
 11
51.5
 21
77.5
 31
0.0
  0
LINE
  5
22B
  8
2
 10
51.5
 20
77.5
 30
0.0
 11
51.0
 21
77.0
 31
0.0
  0
LINE
  5
22C
  8
2
 10
54.5
 20
78.0
 30
0.0
 11
53.0
 21
79.5
 31
0.0
  0
LINE
  5
22D
  8
2
 10
53.0
 20
79.5
 30
0.0
 11
51.5
 21
78.0
 31
0.0
  0
LINE
  5
22E
  8
2
 10
105.5
 20
78.0
 30
0.0
 11
105.5
 21
68.0
 31
0.0
  0
LINE
  5
22F
  8
2
 10
108.5
 20
68.0
 30
0.0
 11
108.5
 21
78.0
 31
0.0
  0
LINE
  5
230
  8
2
 10
109.0
 20
77.0
 30
0.0
 11
109.0
 21
68.0
 31
0.0
  0
LINE
  5
231
  8
2
 10
105.0
 20
68.0
 30
0.0
 11
105.0
 21
77.0
 31
0.0
  0
LINE
  5
232
  8
2
 10
108.5
 20
78.0
 30
0.0
 11
107.0
 21
79.5
 31
0.0
  0
LINE
  5
233
  8
2
 10
108.5
 20
77.5
 30
0.0
 11
105.5
 21
77.5
 31
0.0
  0
LINE
  5
234
  8
2
 10
108.5
 20
78.0
 30
0.0
 11
105.5
 21
78.0
 31
0.0
  0
LINE
  5
235
  8
2
 10
105.0
 20
77.0
 30
0.0
 11
109.0
 21
77.0
 31
0.0
  0
LINE
  5
236
  8
2
 10
107.0
 20
79.5
 30
0.0
 11
105.5
 21
78.0
 31
0.0
  0
LINE
  5
237
  8
2
 10
105.5
 20
77.5
 30
0.0
 11
105.0
 21
77.0
 31
0.0
  0
LINE
  5
238
  8
2
 10
109.0
 20
77.0
 30
0.0
 11
108.5
 21
77.5
 31
0.0
  0
ENDSEC
  0
EOF
