  0
SECTION
  2
HEADER
  9
$ACADVER
  1
AC1009
  9
$INSBASE
 10
0.0
 20
0.0
 30
0.0
  9
$EXTMIN
 10
26.0
 20
54.5
 30
0.0
  9
$EXTMAX
 10
189.5
 20
125.5
 30
0.0
  9
$LIMMIN
 10
0.0
 20
0.0
  9
$LIMMAX
 10
200.0
 20
150.0
  9
$ORTHOMODE
 70
     0
  9
$REGENMODE
 70
     1
  9
$FILLMODE
 70
     1
  9
$QTEXTMODE
 70
     0
  9
$MIRRTEXT
 70
     1
  9
$DRAGMODE
 70
     2
  9
$LTSCALE
 40
1.0
  9
$OSMODE
 70
     0
  9
$ATTMODE
 70
     1
  9
$TEXTSIZE
 40
2.5
  9
$TRACEWID
 40
1.0
  9
$TEXTSTYLE
  7
STANDARD
  9
$CLAYER
  8
2
  9
$CELTYPE
  6
BYLAYER
  9
$CECOLOR
 62
   256
  9
$DIMSCALE
 40
1.0
  9
$DIMASZ
 40
2.5
  9
$DIMEXO
 40
0.625
  9
$DIMDLI
 40
3.75
  9
$DIMRND
 40
0.0
  9
$DIMDLE
 40
0.0
  9
$DIMEXE
 40
1.25
  9
$DIMTP
 40
0.0
  9
$DIMTM
 40
0.0
  9
$DIMTXT
 40
2.5
  9
$DIMCEN
 40
2.5
  9
$DIMTSZ
 40
0.0
  9
$DIMTOL
 70
     0
  9
$DIMLIM
 70
     0
  9
$DIMTIH
 70
     0
  9
$DIMTOH
 70
     0
  9
$DIMSE1
 70
     0
  9
$DIMSE2
 70
     0
  9
$DIMTAD
 70
     1
  9
$DIMZIN
 70
     8
  9
$DIMBLK
  1

  9
$DIMASO
 70
     1
  9
$DIMSHO
 70
     1
  9
$DIMPOST
  1

  9
$DIMAPOST
  1

  9
$DIMALT
 70
     0
  9
$DIMALTD
 70
     4
  9
$DIMALTF
 40
0.0394
  9
$DIMLFAC
 40
1.0
  9
$DIMTOFL
 70
     1
  9
$DIMTVP
 40
0.0
  9
$DIMTIX
 70
     0
  9
$DIMSOXD
 70
     0
  9
$DIMSAH
 70
     0
  9
$DIMBLK1
  1

  9
$DIMBLK2
  1

  9
$DIMSTYLE
  2
STANDARD
  9
$DIMCLRD
 70
     0
  9
$DIMCLRE
 70
     0
  9
$DIMCLRT
 70
     0
  9
$DIMTFAC
 40
1.0
  9
$DIMGAP
 40
0.625
  9
$LUNITS
 70
     2
  9
$LUPREC
 70
     4
  9
$SKETCHINC
 40
1.0
  9
$FILLETRAD
 40
1.0
  9
$AUNITS
 70
     0
  9
$AUPREC
 70
     0
  9
$MENU
  1
.
  9
$ELEVATION
 40
0.0
  9
$PELEVATION
 40
0.0
  9
$THICKNESS
 40
0.0
  9
$LIMCHECK
 70
     0
  9
$BLIPMODE
 70
     0
  9
$CHAMFERA
 40
10.0
  9
$CHAMFERB
 40
10.0
  9
$SKPOLY
 70
     0
  9
$TDCREATE
 40
2452125.683723
  9
$TDUPDATE
 40
2452126.62617
  9
$TDINDWG
 40
0.036852
  9
$TDUSRTIMER
 40
0.036852
  9
$USRTIMER
 70
     1
  9
$ANGBASE
 50
0.0
  9
$ANGDIR
 70
     0
  9
$PDMODE
 70
     0
  9
$PDSIZE
 40
0.0
  9
$PLINEWID
 40
0.0
  9
$COORDS
 70
     2
  9
$SPLFRAME
 70
     0
  9
$SPLINETYPE
 70
     6
  9
$SPLINESEGS
 70
     8
  9
$ATTDIA
 70
     0
  9
$ATTREQ
 70
     1
  9
$HANDLING
 70
     1
  9
$HANDSEED
  5
442
  9
$SURFTAB1
 70
     6
  9
$SURFTAB2
 70
     6
  9
$SURFTYPE
 70
     6
  9
$SURFU
 70
     6
  9
$SURFV
 70
     6
  9
$UCSNAME
  2

  9
$UCSORG
 10
0.0
 20
0.0
 30
0.0
  9
$UCSXDIR
 10
1.0
 20
0.0
 30
0.0
  9
$UCSYDIR
 10
0.0
 20
1.0
 30
0.0
  9
$PUCSNAME
  2

  9
$PUCSORG
 10
0.0
 20
0.0
 30
0.0
  9
$PUCSXDIR
 10
1.0
 20
0.0
 30
0.0
  9
$PUCSYDIR
 10
0.0
 20
1.0
 30
0.0
  9
$USERI1
 70
     0
  9
$USERI2
 70
     0
  9
$USERI3
 70
     0
  9
$USERI4
 70
     0
  9
$USERI5
 70
     0
  9
$USERR1
 40
0.0
  9
$USERR2
 40
0.0
  9
$USERR3
 40
0.0
  9
$USERR4
 40
0.0
  9
$USERR5
 40
0.0
  9
$WORLDVIEW
 70
     1
  9
$SHADEDGE
 70
     3
  9
$SHADEDIF
 70
    70
  9
$TILEMODE
 70
     1
  9
$MAXACTVP
 70
    48
  9
$PLIMCHECK
 70
     0
  9
$PEXTMIN
 10
1.000000E+020
 20
1.000000E+020
 30
1.000000E+020
  9
$PEXTMAX
 10
-1.000000E+020
 20
-1.000000E+020
 30
-1.000000E+020
  9
$PLIMMIN
 10
0.0
 20
0.0
  9
$PLIMMAX
 10
420.0
 20
297.0
  9
$UNITMODE
 70
     0
  9
$VISRETAIN
 70
     1
  9
$PLINEGEN
 70
     0
  9
$PSLTSCALE
 70
     1
  0
ENDSEC
  0
SECTION
  2
TABLES
  0
TABLE
  2
VPORT
 70
     2
  0
VPORT
  2
*ACTIVE
 70
     0
 10
0.0
 20
0.0
 11
1.0
 21
1.0
 12
101.517857
 22
75.0
 13
0.0
 23
0.0
 14
0.5
 24
0.5
 15
1.0
 25
1.0
 16
0.0
 26
0.0
 36
1.0
 17
0.0
 27
0.0
 37
0.0
 40
150.0
 41
1.353571
 42
50.0
 43
0.0
 44
0.0
 50
0.0
 51
0.0
 71
     0
 72
   100
 73
     1
 74
     1
 75
     1
 76
     0
 77
     0
 78
     0
  0
ENDTAB
  0
TABLE
  2
LTYPE
 70
     3
  0
LTYPE
  2
CONTINUOUS
 70
     0
  3
Solid line
 72
    65
 73
     0
 40
0.0
  0
LTYPE
  2
CENTER
 70
     0
  3
____ _ ____ _ ____ _ ____ _ ____ _ ____ _ ____
 72
    65
 73
     4
 40
2.0
 49
1.25
 49
-0.25
 49
0.25
 49
-0.25
  0
LTYPE
  2
HIDDEN2
 70
     0
  3
Hidden (.5x) _ _ _ _ _ _ _ _ _ _ _ _ _ _ _ _ _
 72
    65
 73
     2
 40
4.7625
 49
3.175
 49
-1.5875
  0
ENDTAB
  0
TABLE
  2
LAYER
 70
     3
  0
LAYER
  2
0
 70
     0
 62
     7
  6
CONTINUOUS
  0
LAYER
  2
1
 70
     0
 62
     1
  6
CENTER
  0
LAYER
  2
2
 70
     0
 62
     2
  6
HIDDEN2
  0
ENDTAB
  0
TABLE
  2
STYLE
 70
     3
  0
STYLE
  2
STANDARD
 70
     0
 40
0.0
 41
1.0
 50
0.0
 71
     0
 42
2.5
  3
txt
  4

  0
STYLE
  2
BIGFONT
 70
     0
 40
10.0
 41
0.8
 50
0.0
 71
     0
 42
10.0
  3
txt.shx
  4
bigfont
  0
STYLE
  2

 70
     1
 40
0.0
 41
1.0
 50
0.0
 71
     0
 42
2.5
  3
ltypeshp.shx
  4

  0
ENDTAB
  0
TABLE
  2
VIEW
 70
     0
  0
ENDTAB
  0
TABLE
  2
UCS
 70
     0
  0
ENDTAB
  0
TABLE
  2
APPID
 70
     1
  0
APPID
  2
ACAD
 70
     0
  0
ENDTAB
  0
TABLE
  2
DIMSTYLE
 70
     1
  0
DIMSTYLE
  2
STANDARD
 70
     0
  3

  4

  5

  6

  7

 40
1.0
 41
0.18
 42
0.0625
 43
0.38
 44
0.18
 45
0.0
 46
0.0
 47
0.0
 48
0.0
140
0.18
141
0.09
142
0.0
143
25.4
144
1.0
145
0.0
146
1.0
147
0.09
 71
     0
 72
     0
 73
     1
 74
     1
 75
     0
 76
     0
 77
     0
 78
     0
170
     0
171
     2
172
     0
173
     0
174
     0
175
     0
176
     0
177
     0
178
     0
  0
ENDTAB
  0
ENDSEC
  0
SECTION
  2
BLOCKS
  0
BLOCK
  8
0
  2
$MODEL_SPACE
 70
     0
 10
0.0
 20
0.0
 30
0.0
  3
$MODEL_SPACE
  1

  0
ENDBLK
  5
1A
  8
0
  0
BLOCK
 67
     1
  8
0
  2
$PAPER_SPACE
 70
     0
 10
0.0
 20
0.0
 30
0.0
  3
$PAPER_SPACE
  1

  0
ENDBLK
  5
17
 67
     1
  8
0
  0
BLOCK
  8
0
  2
A$C0C13436D
 70
     0
 10
0.0
 20
0.0
 30
0.0
  3
A$C0C13436D
  1

  0
ARC
  5
24
  8
0
 10
55.0
 20
38.004234
 30
0.0
 40
1.0
 50
180.0
 51
285.042801
  0
LINE
  5
25
  8
0
 10
54.739334
 20
55.69962
 30
0.0
 11
102.739334
 21
68.65962
 31
0.0
  0
LINE
  5
26
  8
1
 10
8.0
 20
70.5
 30
0.0
 11
8.0
 21
0.0
 31
0.0
  0
LINE
  5
27
  8
0
 10
14.0
 20
33.5
 30
0.0
 11
14.0
 21
37.267081
 31
0.0
  0
LINE
  5
28
  8
0
 10
2.0
 20
33.5
 30
0.0
 11
2.0
 21
37.267081
 31
0.0
  0
LINE
  5
29
  8
0
 10
5.0
 20
33.5
 30
0.0
 11
5.0
 21
4.0
 31
0.0
  0
LINE
  5
2A
  8
0
 10
5.5
 20
3.5
 30
0.0
 11
5.5
 21
32.5
 31
0.0
  0
LINE
  5
2B
  8
0
 10
10.5
 20
3.5
 30
0.0
 11
10.5
 21
32.5
 31
0.0
  0
LINE
  5
2C
  8
0
 10
11.0
 20
33.5
 30
0.0
 11
11.0
 21
4.0
 31
0.0
  0
LINE
  5
2D
  8
0
 10
10.5
 20
3.5
 30
0.0
 11
8.0
 21
3.5
 31
0.0
  0
LINE
  5
2E
  8
0
 10
11.0
 20
4.0
 30
0.0
 11
8.0
 21
4.0
 31
0.0
  0
LINE
  5
2F
  8
0
 10
5.5
 20
3.5
 30
0.0
 11
8.0
 21
3.5
 31
0.0
  0
LINE
  5
30
  8
0
 10
5.0
 20
4.0
 30
0.0
 11
8.0
 21
4.0
 31
0.0
  0
LINE
  5
31
  8
0
 10
5.0
 20
4.0
 30
0.0
 11
5.5
 21
3.5
 31
0.0
  0
LINE
  5
32
  8
0
 10
11.0
 20
4.0
 30
0.0
 11
10.5
 21
3.5
 31
0.0
  0
LINE
  5
33
  8
0
 10
11.0
 20
32.5
 30
0.0
 11
8.0
 21
32.5
 31
0.0
  0
LINE
  5
34
  8
0
 10
8.0
 20
33.5
 30
0.0
 11
14.0
 21
33.5
 31
0.0
  0
LINE
  5
35
  8
0
 10
8.0
 20
33.5
 30
0.0
 11
2.0
 21
33.5
 31
0.0
  0
LINE
  5
36
  8
0
 10
5.0
 20
32.5
 30
0.0
 11
8.0
 21
32.5
 31
0.0
  0
LINE
  5
37
  8
0
 10
16.0
 20
38.5
 30
0.0
 11
16.0
 21
57.5
 31
0.0
  0
ARC
  5
38
  8
0
 10
8.0
 20
65.0
 30
0.0
 40
8.5
 50
241.927513
 51
298.072487
  0
POLYLINE
  5
39
  8
0
 10
0.267585
 20
58.012942
 30
0.0
 66
     1
 70
     8
  0
VERTEX
  8
0
  5
1B8
 10
0.267585
 20
58.0129
 30
0.000000
  70
    32
  0
VERTEX
  8
0
  5
1B9
 10
0.212081
 20
57.9575
 30
0.000000
  70
    32
  0
VERTEX
  8
0
  5
1BA
 10
0.162945
 20
57.9016
 30
0.000000
  70
    32
  0
VERTEX
  8
0
  5
1BB
 10
0.120218
 20
57.8454
 30
0.000000
  70
    32
  0
VERTEX
  8
0
  5
1BC
 10
0.0839342
 20
57.7890
 30
0.000000
  70
    32
  0
VERTEX
  8
0
  5
1BD
 10
0.0541232
 20
57.7323
 30
0.000000
  70
    32
  0
VERTEX
  8
0
  5
1BE
 10
0.0308095
 20
57.6754
 30
0.000000
  70
    32
  0
VERTEX
  8
0
  5
1BF
 10
0.0140121
 20
57.6183
 30
0.000000
  70
    32
  0
VERTEX
  8
0
  5
1C0
 10
0.00374481
 20
57.5612
 30
0.000000
  70
    32
  0
VERTEX
  8
0
  5
1C1
 10
1.60367e-005
 20
57.5040
 30
0.000000
  70
    32
  0
VERTEX
  8
0
  5
1C2
 10
0.00282881
 20
57.4468
 30
0.000000
  70
    32
  0
VERTEX
  8
0
  5
1C3
 10
0.0121808
 20
57.3897
 30
0.000000
  70
    32
  0
VERTEX
  8
0
  5
1C4
 10
0.0280644
 20
57.3326
 30
0.000000
  70
    32
  0
VERTEX
  8
0
  5
1C5
 10
0.0504667
 20
57.2757
 30
0.000000
  70
    32
  0
VERTEX
  8
0
  5
1C6
 10
0.0793692
 20
57.2190
 30
0.000000
  70
    32
  0
VERTEX
  8
0
  5
1C7
 10
0.114748
 20
57.1625
 30
0.000000
  70
    32
  0
VERTEX
  8
0
  5
1C8
 10
0.156575
 20
57.1062
 30
0.000000
  70
    32
  0
VERTEX
  8
0
  5
1C9
 10
0.204816
 20
57.0503
 30
0.000000
  70
    32
  0
VERTEX
  8
0
  5
1CA
 10
0.259430
 20
56.9948
 30
0.000000
  70
    32
  0
VERTEX
  8
0
  5
1CB
 10
0.320374
 20
56.9397
 30
0.000000
  70
    32
  0
VERTEX
  8
0
  5
1CC
 10
0.387598
 20
56.8850
 30
0.000000
  70
    32
  0
VERTEX
  8
0
  5
1CD
 10
0.461046
 20
56.8309
 30
0.000000
  70
    32
  0
VERTEX
  8
0
  5
1CE
 10
0.540659
 20
56.7772
 30
0.000000
  70
    32
  0
VERTEX
  8
0
  5
1CF
 10
0.626371
 20
56.7242
 30
0.000000
  70
    32
  0
VERTEX
  8
0
  5
1D0
 10
0.718112
 20
56.6718
 30
0.000000
  70
    32
  0
VERTEX
  8
0
  5
1D1
 10
0.815808
 20
56.6201
 30
0.000000
  70
    32
  0
VERTEX
  8
0
  5
1D2
 10
0.919379
 20
56.5691
 30
0.000000
  70
    32
  0
VERTEX
  8
0
  5
1D3
 10
1.02874
 20
56.5189
 30
0.000000
  70
    32
  0
VERTEX
  8
0
  5
1D4
 10
1.14380
 20
56.4695
 30
0.000000
  70
    32
  0
VERTEX
  8
0
  5
1D5
 10
1.26447
 20
56.4209
 30
0.000000
  70
    32
  0
VERTEX
  8
0
  5
1D6
 10
1.39064
 20
56.3732
 30
0.000000
  70
    32
  0
VERTEX
  8
0
  5
1D7
 10
1.52222
 20
56.3264
 30
0.000000
  70
    32
  0
VERTEX
  8
0
  5
1D8
 10
1.65910
 20
56.2806
 30
0.000000
  70
    32
  0
VERTEX
  8
0
  5
1D9
 10
1.80116
 20
56.2357
 30
0.000000
  70
    32
  0
VERTEX
  8
0
  5
1DA
 10
1.94829
 20
56.1919
 30
0.000000
  70
    32
  0
VERTEX
  8
0
  5
1DB
 10
2.10036
 20
56.1492
 30
0.000000
  70
    32
  0
VERTEX
  8
0
  5
1DC
 10
2.25727
 20
56.1076
 30
0.000000
  70
    32
  0
VERTEX
  8
0
  5
1DD
 10
2.41886
 20
56.0671
 30
0.000000
  70
    32
  0
VERTEX
  8
0
  5
1DE
 10
2.58502
 20
56.0278
 30
0.000000
  70
    32
  0
VERTEX
  8
0
  5
1DF
 10
2.75561
 20
55.9897
 30
0.000000
  70
    32
  0
VERTEX
  8
0
  5
1E0
 10
2.93049
 20
55.9528
 30
0.000000
  70
    32
  0
VERTEX
  8
0
  5
1E1
 10
3.10951
 20
55.9172
 30
0.000000
  70
    32
  0
VERTEX
  8
0
  5
1E2
 10
3.29254
 20
55.8829
 30
0.000000
  70
    32
  0
VERTEX
  8
0
  5
1E3
 10
3.47941
 20
55.8499
 30
0.000000
  70
    32
  0
VERTEX
  8
0
  5
1E4
 10
3.66997
 20
55.8183
 30
0.000000
  70
    32
  0
VERTEX
  8
0
  5
1E5
 10
3.86408
 20
55.7880
 30
0.000000
  70
    32
  0
VERTEX
  8
0
  5
1E6
 10
4.06157
 20
55.7592
 30
0.000000
  70
    32
  0
VERTEX
  8
0
  5
1E7
 10
4.26228
 20
55.7317
 30
0.000000
  70
    32
  0
VERTEX
  8
0
  5
1E8
 10
4.46605
 20
55.7057
 30
0.000000
  70
    32
  0
VERTEX
  8
0
  5
1E9
 10
4.67271
 20
55.6812
 30
0.000000
  70
    32
  0
VERTEX
  8
0
  5
1EA
 10
4.88208
 20
55.6581
 30
0.000000
  70
    32
  0
VERTEX
  8
0
  5
1EB
 10
5.09401
 20
55.6366
 30
0.000000
  70
    32
  0
VERTEX
  8
0
  5
1EC
 10
5.30831
 20
55.6166
 30
0.000000
  70
    32
  0
VERTEX
  8
0
  5
1ED
 10
5.52482
 20
55.5981
 30
0.000000
  70
    32
  0
VERTEX
  8
0
  5
1EE
 10
5.74335
 20
55.5812
 30
0.000000
  70
    32
  0
VERTEX
  8
0
  5
1EF
 10
5.96372
 20
55.5659
 30
0.000000
  70
    32
  0
VERTEX
  8
0
  5
1F0
 10
6.18576
 20
55.5521
 30
0.000000
  70
    32
  0
VERTEX
  8
0
  5
1F1
 10
6.40928
 20
55.5399
 30
0.000000
  70
    32
  0
VERTEX
  8
0
  5
1F2
 10
6.63410
 20
55.5294
 30
0.000000
  70
    32
  0
VERTEX
  8
0
  5
1F3
 10
6.86004
 20
55.5204
 30
0.000000
  70
    32
  0
VERTEX
  8
0
  5
1F4
 10
7.08691
 20
55.5131
 30
0.000000
  70
    32
  0
VERTEX
  8
0
  5
1F5
 10
7.31453
 20
55.5074
 30
0.000000
  70
    32
  0
VERTEX
  8
0
  5
1F6
 10
7.54271
 20
55.5033
 30
0.000000
  70
    32
  0
VERTEX
  8
0
  5
1F7
 10
7.77126
 20
55.5008
 30
0.000000
  70
    32
  0
VERTEX
  8
0
  5
1F8
 10
8.00000
 20
55.5000
 30
0.000000
  70
    32
  0
VERTEX
  8
0
  5
1F9
 10
8.22874
 20
55.5008
 30
0.000000
  70
    32
  0
VERTEX
  8
0
  5
1FA
 10
8.45729
 20
55.5033
 30
0.000000
  70
    32
  0
VERTEX
  8
0
  5
1FB
 10
8.68547
 20
55.5074
 30
0.000000
  70
    32
  0
VERTEX
  8
0
  5
1FC
 10
8.91309
 20
55.5131
 30
0.000000
  70
    32
  0
VERTEX
  8
0
  5
1FD
 10
9.13996
 20
55.5204
 30
0.000000
  70
    32
  0
VERTEX
  8
0
  5
1FE
 10
9.36590
 20
55.5294
 30
0.000000
  70
    32
  0
VERTEX
  8
0
  5
1FF
 10
9.59072
 20
55.5399
 30
0.000000
  70
    32
  0
VERTEX
  8
0
  5
200
 10
9.81424
 20
55.5521
 30
0.000000
  70
    32
  0
VERTEX
  8
0
  5
201
 10
10.0363
 20
55.5659
 30
0.000000
  70
    32
  0
VERTEX
  8
0
  5
202
 10
10.2567
 20
55.5812
 30
0.000000
  70
    32
  0
VERTEX
  8
0
  5
203
 10
10.4752
 20
55.5981
 30
0.000000
  70
    32
  0
VERTEX
  8
0
  5
204
 10
10.6917
 20
55.6166
 30
0.000000
  70
    32
  0
VERTEX
  8
0
  5
205
 10
10.9060
 20
55.6366
 30
0.000000
  70
    32
  0
VERTEX
  8
0
  5
206
 10
11.1179
 20
55.6581
 30
0.000000
  70
    32
  0
VERTEX
  8
0
  5
207
 10
11.3273
 20
55.6812
 30
0.000000
  70
    32
  0
VERTEX
  8
0
  5
208
 10
11.5339
 20
55.7057
 30
0.000000
  70
    32
  0
VERTEX
  8
0
  5
209
 10
11.7377
 20
55.7317
 30
0.000000
  70
    32
  0
VERTEX
  8
0
  5
20A
 10
11.9384
 20
55.7592
 30
0.000000
  70
    32
  0
VERTEX
  8
0
  5
20B
 10
12.1359
 20
55.7880
 30
0.000000
  70
    32
  0
VERTEX
  8
0
  5
20C
 10
12.3300
 20
55.8183
 30
0.000000
  70
    32
  0
VERTEX
  8
0
  5
20D
 10
12.5206
 20
55.8499
 30
0.000000
  70
    32
  0
VERTEX
  8
0
  5
20E
 10
12.7075
 20
55.8829
 30
0.000000
  70
    32
  0
VERTEX
  8
0
  5
20F
 10
12.8905
 20
55.9172
 30
0.000000
  70
    32
  0
VERTEX
  8
0
  5
210
 10
13.0695
 20
55.9528
 30
0.000000
  70
    32
  0
VERTEX
  8
0
  5
211
 10
13.2444
 20
55.9897
 30
0.000000
  70
    32
  0
VERTEX
  8
0
  5
212
 10
13.4150
 20
56.0278
 30
0.000000
  70
    32
  0
VERTEX
  8
0
  5
213
 10
13.5811
 20
56.0671
 30
0.000000
  70
    32
  0
VERTEX
  8
0
  5
214
 10
13.7427
 20
56.1076
 30
0.000000
  70
    32
  0
VERTEX
  8
0
  5
215
 10
13.8996
 20
56.1492
 30
0.000000
  70
    32
  0
VERTEX
  8
0
  5
216
 10
14.0517
 20
56.1919
 30
0.000000
  70
    32
  0
VERTEX
  8
0
  5
217
 10
14.1988
 20
56.2357
 30
0.000000
  70
    32
  0
VERTEX
  8
0
  5
218
 10
14.3409
 20
56.2806
 30
0.000000
  70
    32
  0
VERTEX
  8
0
  5
219
 10
14.4778
 20
56.3264
 30
0.000000
  70
    32
  0
VERTEX
  8
0
  5
21A
 10
14.6094
 20
56.3732
 30
0.000000
  70
    32
  0
VERTEX
  8
0
  5
21B
 10
14.7355
 20
56.4209
 30
0.000000
  70
    32
  0
VERTEX
  8
0
  5
21C
 10
14.8562
 20
56.4695
 30
0.000000
  70
    32
  0
VERTEX
  8
0
  5
21D
 10
14.9713
 20
56.5189
 30
0.000000
  70
    32
  0
VERTEX
  8
0
  5
21E
 10
15.0806
 20
56.5691
 30
0.000000
  70
    32
  0
VERTEX
  8
0
  5
21F
 10
15.1842
 20
56.6201
 30
0.000000
  70
    32
  0
VERTEX
  8
0
  5
220
 10
15.2819
 20
56.6718
 30
0.000000
  70
    32
  0
VERTEX
  8
0
  5
221
 10
15.3736
 20
56.7242
 30
0.000000
  70
    32
  0
VERTEX
  8
0
  5
222
 10
15.4593
 20
56.7772
 30
0.000000
  70
    32
  0
VERTEX
  8
0
  5
223
 10
15.5390
 20
56.8309
 30
0.000000
  70
    32
  0
VERTEX
  8
0
  5
224
 10
15.6124
 20
56.8850
 30
0.000000
  70
    32
  0
VERTEX
  8
0
  5
225
 10
15.6796
 20
56.9397
 30
0.000000
  70
    32
  0
VERTEX
  8
0
  5
226
 10
15.7406
 20
56.9948
 30
0.000000
  70
    32
  0
VERTEX
  8
0
  5
227
 10
15.7952
 20
57.0503
 30
0.000000
  70
    32
  0
VERTEX
  8
0
  5
228
 10
15.8434
 20
57.1062
 30
0.000000
  70
    32
  0
VERTEX
  8
0
  5
229
 10
15.8853
 20
57.1625
 30
0.000000
  70
    32
  0
VERTEX
  8
0
  5
22A
 10
15.9206
 20
57.2190
 30
0.000000
  70
    32
  0
VERTEX
  8
0
  5
22B
 10
15.9495
 20
57.2757
 30
0.000000
  70
    32
  0
VERTEX
  8
0
  5
22C
 10
15.9719
 20
57.3326
 30
0.000000
  70
    32
  0
VERTEX
  8
0
  5
22D
 10
15.9878
 20
57.3897
 30
0.000000
  70
    32
  0
VERTEX
  8
0
  5
22E
 10
15.9972
 20
57.4468
 30
0.000000
  70
    32
  0
VERTEX
  8
0
  5
22F
 10
16.0000
 20
57.5040
 30
0.000000
  70
    32
  0
VERTEX
  8
0
  5
230
 10
15.9963
 20
57.5612
 30
0.000000
  70
    32
  0
VERTEX
  8
0
  5
231
 10
15.9860
 20
57.6183
 30
0.000000
  70
    32
  0
VERTEX
  8
0
  5
232
 10
15.9692
 20
57.6754
 30
0.000000
  70
    32
  0
VERTEX
  8
0
  5
233
 10
15.9459
 20
57.7323
 30
0.000000
  70
    32
  0
VERTEX
  8
0
  5
234
 10
15.9161
 20
57.7890
 30
0.000000
  70
    32
  0
VERTEX
  8
0
  5
235
 10
15.8798
 20
57.8454
 30
0.000000
  70
    32
  0
VERTEX
  8
0
  5
236
 10
15.8371
 20
57.9016
 30
0.000000
  70
    32
  0
VERTEX
  8
0
  5
237
 10
15.7879
 20
57.9575
 30
0.000000
  70
    32
  0
VERTEX
  8
0
  5
238
 10
15.7324
 20
58.0129
 30
0.000000
  70
    32
  0
SEQEND
  8
0
  5
239
  0
LINE
  5
3A
  8
0
 10
0.0
 20
38.5
 30
0.0
 11
0.0
 21
57.5
 31
0.0
  0
POLYLINE
  5
3B
  8
0
 10
0.0
 20
38.5
 30
0.0
 66
     1
 70
     8
  0
VERTEX
  8
0
  5
23A
 10
0.000000
 20
38.5000
 30
0.000000
  70
    32
  0
VERTEX
  8
0
  5
23B
 10
0.00240945
 20
38.4543
 30
0.000000
  70
    32
  0
VERTEX
  8
0
  5
23C
 10
0.00963635
 20
38.4085
 30
0.000000
  70
    32
  0
VERTEX
  8
0
  5
23D
 10
0.0216763
 20
38.3629
 30
0.000000
  70
    32
  0
VERTEX
  8
0
  5
23E
 10
0.0385222
 20
38.3173
 30
0.000000
  70
    32
  0
VERTEX
  8
0
  5
23F
 10
0.0601637
 20
38.2718
 30
0.000000
  70
    32
  0
VERTEX
  8
0
  5
240
 10
0.0865879
 20
38.2265
 30
0.000000
  70
    32
  0
VERTEX
  8
0
  5
241
 10
0.117779
 20
38.1813
 30
0.000000
  70
    32
  0
VERTEX
  8
0
  5
242
 10
0.153718
 20
38.1364
 30
0.000000
  70
    32
  0
VERTEX
  8
0
  5
243
 10
0.194383
 20
38.0916
 30
0.000000
  70
    32
  0
VERTEX
  8
0
  5
244
 10
0.239750
 20
38.0471
 30
0.000000
  70
    32
  0
VERTEX
  8
0
  5
245
 10
0.289791
 20
38.0028
 30
0.000000
  70
    32
  0
VERTEX
  8
0
  5
246
 10
0.344477
 20
37.9589
 30
0.000000
  70
    32
  0
VERTEX
  8
0
  5
247
 10
0.403775
 20
37.9153
 30
0.000000
  70
    32
  0
VERTEX
  8
0
  5
248
 10
0.467647
 20
37.8720
 30
0.000000
  70
    32
  0
VERTEX
  8
0
  5
249
 10
0.536058
 20
37.8292
 30
0.000000
  70
    32
  0
VERTEX
  8
0
  5
24A
 10
0.608964
 20
37.7867
 30
0.000000
  70
    32
  0
VERTEX
  8
0
  5
24B
 10
0.686322
 20
37.7446
 30
0.000000
  70
    32
  0
VERTEX
  8
0
  5
24C
 10
0.768086
 20
37.7030
 30
0.000000
  70
    32
  0
VERTEX
  8
0
  5
24D
 10
0.854206
 20
37.6619
 30
0.000000
  70
    32
  0
VERTEX
  8
0
  5
24E
 10
0.944630
 20
37.6213
 30
0.000000
  70
    32
  0
VERTEX
  8
0
  5
24F
 10
1.03930
 20
37.5812
 30
0.000000
  70
    32
  0
VERTEX
  8
0
  5
250
 10
1.13817
 20
37.5417
 30
0.000000
  70
    32
  0
VERTEX
  8
0
  5
251
 10
1.24117
 20
37.5028
 30
0.000000
  70
    32
  0
VERTEX
  8
0
  5
252
 10
1.34824
 20
37.4644
 30
0.000000
  70
    32
  0
VERTEX
  8
0
  5
253
 10
1.45932
 20
37.4267
 30
0.000000
  70
    32
  0
VERTEX
  8
0
  5
254
 10
1.57434
 20
37.3896
 30
0.000000
  70
    32
  0
VERTEX
  8
0
  5
255
 10
1.69323
 20
37.3532
 30
0.000000
  70
    32
  0
VERTEX
  8
0
  5
256
 10
1.81592
 20
37.3175
 30
0.000000
  70
    32
  0
VERTEX
  8
0
  5
257
 10
1.94233
 20
37.2825
 30
0.000000
  70
    32
  0
VERTEX
  8
0
  5
258
 10
2.07239
 20
37.2482
 30
0.000000
  70
    32
  0
VERTEX
  8
0
  5
259
 10
2.20602
 20
37.2147
 30
0.000000
  70
    32
  0
VERTEX
  8
0
  5
25A
 10
2.34315
 20
37.1820
 30
0.000000
  70
    32
  0
VERTEX
  8
0
  5
25B
 10
2.48368
 20
37.1500
 30
0.000000
  70
    32
  0
VERTEX
  8
0
  5
25C
 10
2.62753
 20
37.1189
 30
0.000000
  70
    32
  0
VERTEX
  8
0
  5
25D
 10
2.77462
 20
37.0886
 30
0.000000
  70
    32
  0
VERTEX
  8
0
  5
25E
 10
2.92485
 20
37.0591
 30
0.000000
  70
    32
  0
VERTEX
  8
0
  5
25F
 10
3.07815
 20
37.0305
 30
0.000000
  70
    32
  0
VERTEX
  8
0
  5
260
 10
3.23441
 20
37.0028
 30
0.000000
  70
    32
  0
VERTEX
  8
0
  5
261
 10
3.39353
 20
36.9760
 30
0.000000
  70
    32
  0
VERTEX
  8
0
  5
262
 10
3.55544
 20
36.9501
 30
0.000000
  70
    32
  0
VERTEX
  8
0
  5
263
 10
3.72002
 20
36.9252
 30
0.000000
  70
    32
  0
VERTEX
  8
0
  5
264
 10
3.88718
 20
36.9012
 30
0.000000
  70
    32
  0
VERTEX
  8
0
  5
265
 10
4.05681
 20
36.8782
 30
0.000000
  70
    32
  0
VERTEX
  8
0
  5
266
 10
4.22883
 20
36.8561
 30
0.000000
  70
    32
  0
VERTEX
  8
0
  5
267
 10
4.40311
 20
36.8350
 30
0.000000
  70
    32
  0
VERTEX
  8
0
  5
268
 10
4.57956
 20
36.8150
 30
0.000000
  70
    32
  0
VERTEX
  8
0
  5
269
 10
4.75807
 20
36.7959
 30
0.000000
  70
    32
  0
VERTEX
  8
0
  5
26A
 10
4.93853
 20
36.7779
 30
0.000000
  70
    32
  0
VERTEX
  8
0
  5
26B
 10
5.12084
 20
36.7609
 30
0.000000
  70
    32
  0
VERTEX
  8
0
  5
26C
 10
5.30488
 20
36.7450
 30
0.000000
  70
    32
  0
VERTEX
  8
0
  5
26D
 10
5.49055
 20
36.7301
 30
0.000000
  70
    32
  0
VERTEX
  8
0
  5
26E
 10
5.67772
 20
36.7163
 30
0.000000
  70
    32
  0
VERTEX
  8
0
  5
26F
 10
5.86630
 20
36.7035
 30
0.000000
  70
    32
  0
VERTEX
  8
0
  5
270
 10
6.05616
 20
36.6919
 30
0.000000
  70
    32
  0
VERTEX
  8
0
  5
271
 10
6.24719
 20
36.6813
 30
0.000000
  70
    32
  0
VERTEX
  8
0
  5
272
 10
6.43928
 20
36.6718
 30
0.000000
  70
    32
  0
VERTEX
  8
0
  5
273
 10
6.63230
 20
36.6634
 30
0.000000
  70
    32
  0
VERTEX
  8
0
  5
274
 10
6.82616
 20
36.6562
 30
0.000000
  70
    32
  0
VERTEX
  8
0
  5
275
 10
7.02071
 20
36.6500
 30
0.000000
  70
    32
  0
VERTEX
  8
0
  5
276
 10
7.21586
 20
36.6450
 30
0.000000
  70
    32
  0
VERTEX
  8
0
  5
277
 10
7.41148
 20
36.6411
 30
0.000000
  70
    32
  0
VERTEX
  8
0
  5
278
 10
7.60746
 20
36.6382
 30
0.000000
  70
    32
  0
VERTEX
  8
0
  5
279
 10
7.80367
 20
36.6366
 30
0.000000
  70
    32
  0
VERTEX
  8
0
  5
27A
 10
8.00000
 20
36.6360
 30
0.000000
  70
    32
  0
VERTEX
  8
0
  5
27B
 10
8.19633
 20
36.6366
 30
0.000000
  70
    32
  0
VERTEX
  8
0
  5
27C
 10
8.39254
 20
36.6382
 30
0.000000
  70
    32
  0
VERTEX
  8
0
  5
27D
 10
8.58852
 20
36.6411
 30
0.000000
  70
    32
  0
VERTEX
  8
0
  5
27E
 10
8.78414
 20
36.6450
 30
0.000000
  70
    32
  0
VERTEX
  8
0
  5
27F
 10
8.97929
 20
36.6500
 30
0.000000
  70
    32
  0
VERTEX
  8
0
  5
280
 10
9.17384
 20
36.6562
 30
0.000000
  70
    32
  0
VERTEX
  8
0
  5
281
 10
9.36770
 20
36.6634
 30
0.000000
  70
    32
  0
VERTEX
  8
0
  5
282
 10
9.56072
 20
36.6718
 30
0.000000
  70
    32
  0
VERTEX
  8
0
  5
283
 10
9.75281
 20
36.6813
 30
0.000000
  70
    32
  0
VERTEX
  8
0
  5
284
 10
9.94384
 20
36.6919
 30
0.000000
  70
    32
  0
VERTEX
  8
0
  5
285
 10
10.1337
 20
36.7035
 30
0.000000
  70
    32
  0
VERTEX
  8
0
  5
286
 10
10.3223
 20
36.7163
 30
0.000000
  70
    32
  0
VERTEX
  8
0
  5
287
 10
10.5095
 20
36.7301
 30
0.000000
  70
    32
  0
VERTEX
  8
0
  5
288
 10
10.6951
 20
36.7450
 30
0.000000
  70
    32
  0
VERTEX
  8
0
  5
289
 10
10.8792
 20
36.7609
 30
0.000000
  70
    32
  0
VERTEX
  8
0
  5
28A
 10
11.0615
 20
36.7779
 30
0.000000
  70
    32
  0
VERTEX
  8
0
  5
28B
 10
11.2419
 20
36.7959
 30
0.000000
  70
    32
  0
VERTEX
  8
0
  5
28C
 10
11.4204
 20
36.8150
 30
0.000000
  70
    32
  0
VERTEX
  8
0
  5
28D
 10
11.5969
 20
36.8350
 30
0.000000
  70
    32
  0
VERTEX
  8
0
  5
28E
 10
11.7712
 20
36.8561
 30
0.000000
  70
    32
  0
VERTEX
  8
0
  5
28F
 10
11.9432
 20
36.8782
 30
0.000000
  70
    32
  0
VERTEX
  8
0
  5
290
 10
12.1128
 20
36.9012
 30
0.000000
  70
    32
  0
VERTEX
  8
0
  5
291
 10
12.2800
 20
36.9252
 30
0.000000
  70
    32
  0
VERTEX
  8
0
  5
292
 10
12.4446
 20
36.9501
 30
0.000000
  70
    32
  0
VERTEX
  8
0
  5
293
 10
12.6065
 20
36.9760
 30
0.000000
  70
    32
  0
VERTEX
  8
0
  5
294
 10
12.7656
 20
37.0028
 30
0.000000
  70
    32
  0
VERTEX
  8
0
  5
295
 10
12.9219
 20
37.0305
 30
0.000000
  70
    32
  0
VERTEX
  8
0
  5
296
 10
13.0751
 20
37.0591
 30
0.000000
  70
    32
  0
VERTEX
  8
0
  5
297
 10
13.2254
 20
37.0886
 30
0.000000
  70
    32
  0
VERTEX
  8
0
  5
298
 10
13.3725
 20
37.1189
 30
0.000000
  70
    32
  0
VERTEX
  8
0
  5
299
 10
13.5163
 20
37.1500
 30
0.000000
  70
    32
  0
VERTEX
  8
0
  5
29A
 10
13.6569
 20
37.1820
 30
0.000000
  70
    32
  0
VERTEX
  8
0
  5
29B
 10
13.7940
 20
37.2147
 30
0.000000
  70
    32
  0
VERTEX
  8
0
  5
29C
 10
13.9276
 20
37.2482
 30
0.000000
  70
    32
  0
VERTEX
  8
0
  5
29D
 10
14.0577
 20
37.2825
 30
0.000000
  70
    32
  0
VERTEX
  8
0
  5
29E
 10
14.1841
 20
37.3175
 30
0.000000
  70
    32
  0
VERTEX
  8
0
  5
29F
 10
14.3068
 20
37.3532
 30
0.000000
  70
    32
  0
VERTEX
  8
0
  5
2A0
 10
14.4257
 20
37.3896
 30
0.000000
  70
    32
  0
VERTEX
  8
0
  5
2A1
 10
14.5407
 20
37.4267
 30
0.000000
  70
    32
  0
VERTEX
  8
0
  5
2A2
 10
14.6518
 20
37.4644
 30
0.000000
  70
    32
  0
VERTEX
  8
0
  5
2A3
 10
14.7588
 20
37.5028
 30
0.000000
  70
    32
  0
VERTEX
  8
0
  5
2A4
 10
14.8618
 20
37.5417
 30
0.000000
  70
    32
  0
VERTEX
  8
0
  5
2A5
 10
14.9607
 20
37.5812
 30
0.000000
  70
    32
  0
VERTEX
  8
0
  5
2A6
 10
15.0554
 20
37.6213
 30
0.000000
  70
    32
  0
VERTEX
  8
0
  5
2A7
 10
15.1458
 20
37.6619
 30
0.000000
  70
    32
  0
VERTEX
  8
0
  5
2A8
 10
15.2319
 20
37.7030
 30
0.000000
  70
    32
  0
VERTEX
  8
0
  5
2A9
 10
15.3137
 20
37.7446
 30
0.000000
  70
    32
  0
VERTEX
  8
0
  5
2AA
 10
15.3910
 20
37.7867
 30
0.000000
  70
    32
  0
VERTEX
  8
0
  5
2AB
 10
15.4639
 20
37.8292
 30
0.000000
  70
    32
  0
VERTEX
  8
0
  5
2AC
 10
15.5324
 20
37.8720
 30
0.000000
  70
    32
  0
VERTEX
  8
0
  5
2AD
 10
15.5962
 20
37.9153
 30
0.000000
  70
    32
  0
VERTEX
  8
0
  5
2AE
 10
15.6555
 20
37.9589
 30
0.000000
  70
    32
  0
VERTEX
  8
0
  5
2AF
 10
15.7102
 20
38.0028
 30
0.000000
  70
    32
  0
VERTEX
  8
0
  5
2B0
 10
15.7603
 20
38.0471
 30
0.000000
  70
    32
  0
VERTEX
  8
0
  5
2B1
 10
15.8056
 20
38.0916
 30
0.000000
  70
    32
  0
VERTEX
  8
0
  5
2B2
 10
15.8463
 20
38.1364
 30
0.000000
  70
    32
  0
VERTEX
  8
0
  5
2B3
 10
15.8822
 20
38.1813
 30
0.000000
  70
    32
  0
VERTEX
  8
0
  5
2B4
 10
15.9134
 20
38.2265
 30
0.000000
  70
    32
  0
VERTEX
  8
0
  5
2B5
 10
15.9398
 20
38.2718
 30
0.000000
  70
    32
  0
VERTEX
  8
0
  5
2B6
 10
15.9615
 20
38.3173
 30
0.000000
  70
    32
  0
VERTEX
  8
0
  5
2B7
 10
15.9783
 20
38.3629
 30
0.000000
  70
    32
  0
VERTEX
  8
0
  5
2B8
 10
15.9904
 20
38.4085
 30
0.000000
  70
    32
  0
VERTEX
  8
0
  5
2B9
 10
15.9976
 20
38.4543
 30
0.000000
  70
    32
  0
VERTEX
  8
0
  5
2BA
 10
16.0000
 20
38.5000
 30
0.000000
  70
    32
  0
SEQEND
  8
0
  5
2BB
  0
LINE
  5
3C
  8
0
 10
2.029365
 20
56.168846
 30
0.0
 11
2.0
 21
56.0
 31
0.0
  0
LINE
  5
3D
  8
0
 10
13.970635
 20
56.168846
 30
0.0
 11
14.0
 21
56.0
 31
0.0
  0
LINE
  5
3E
  8
0
 10
8.0
 20
60.0
 30
0.0
 11
11.5
 21
60.0
 31
0.0
  0
ARC
  5
3F
  8
0
 10
8.0
 20
62.916667
 30
0.0
 40
6.083333
 50
48.88791
 51
131.11209
  0
LINE
  5
40
  8
0
 10
4.0
 20
67.5
 30
0.0
 11
2.514032
 21
58.955682
 31
0.0
  0
ARC
  5
41
  8
0
 10
4.5
 20
59.5
 30
0.0
 40
0.5
 50
90.0
 51
180.0
  0
LINE
  5
42
  8
0
 10
4.0
 20
59.5
 30
0.0
 11
4.0
 21
57.5
 31
0.0
  0
LINE
  5
43
  8
0
 10
8.0
 20
60.0
 30
0.0
 11
4.5
 21
60.0
 31
0.0
  0
LINE
  5
44
  8
0
 10
12.0
 20
67.5
 30
0.0
 11
13.485968
 21
58.955682
 31
0.0
  0
ARC
  5
45
  8
0
 10
11.5
 20
59.5
 30
0.0
 40
0.5
 50
0.0
 51
90.0
  0
LINE
  5
46
  8
0
 10
12.0
 20
59.5
 30
0.0
 11
12.0
 21
57.5
 31
0.0
  0
LINE
  5
47
  8
0
 10
54.0
 20
54.734191
 30
0.0
 11
54.0
 21
38.004234
 31
0.0
  0
ARC
  5
48
  8
0
 10
55.0
 20
54.734191
 30
0.0
 40
1.0
 50
105.109575
 51
180.0
  0
LINE
  5
49
  8
1
 10
62.0
 20
63.0
 30
0.0
 11
62.0
 21
0.0
 31
0.0
  0
LINE
  5
4A
  8
0
 10
68.0
 20
33.5
 30
0.0
 11
68.0
 21
40.4625
 31
0.0
  0
LINE
  5
4B
  8
0
 10
56.0
 20
33.5
 30
0.0
 11
56.0
 21
37.2375
 31
0.0
  0
LINE
  5
4C
  8
0
 10
59.0
 20
33.5
 30
0.0
 11
59.0
 21
4.0
 31
0.0
  0
LINE
  5
4D
  8
0
 10
59.5
 20
3.5
 30
0.0
 11
59.5
 21
32.5
 31
0.0
  0
LINE
  5
4E
  8
0
 10
64.5
 20
3.5
 30
0.0
 11
64.5
 21
32.5
 31
0.0
  0
LINE
  5
4F
  8
0
 10
65.0
 20
33.5
 30
0.0
 11
65.0
 21
4.0
 31
0.0
  0
LINE
  5
50
  8
0
 10
64.5
 20
3.5
 30
0.0
 11
62.0
 21
3.5
 31
0.0
  0
LINE
  5
51
  8
0
 10
65.0
 20
4.0
 30
0.0
 11
62.0
 21
4.0
 31
0.0
  0
LINE
  5
52
  8
0
 10
59.5
 20
3.5
 30
0.0
 11
62.0
 21
3.5
 31
0.0
  0
LINE
  5
53
  8
0
 10
59.0
 20
4.0
 30
0.0
 11
62.0
 21
4.0
 31
0.0
  0
LINE
  5
54
  8
0
 10
59.0
 20
4.0
 30
0.0
 11
59.5
 21
3.5
 31
0.0
  0
LINE
  5
55
  8
0
 10
65.0
 20
4.0
 30
0.0
 11
64.5
 21
3.5
 31
0.0
  0
LINE
  5
56
  8
0
 10
65.0
 20
32.5
 30
0.0
 11
62.0
 21
32.5
 31
0.0
  0
LINE
  5
57
  8
0
 10
62.0
 20
33.5
 30
0.0
 11
68.0
 21
33.5
 31
0.0
  0
LINE
  5
58
  8
0
 10
62.0
 20
33.5
 30
0.0
 11
56.0
 21
33.5
 31
0.0
  0
LINE
  5
59
  8
0
 10
59.0
 20
32.5
 30
0.0
 11
62.0
 21
32.5
 31
0.0
  0
LINE
  5
5A
  8
0
 10
91.5
 20
57.0
 30
0.0
 11
68.0
 21
50.0
 31
0.0
  0
LINE
  5
5B
  8
0
 10
68.0
 20
50.0
 30
0.0
 11
68.0
 21
59.28
 31
0.0
  0
LINE
  5
5C
  8
0
 10
58.0
 20
56.58
 30
0.0
 11
58.0
 21
59.5
 31
0.0
  0
LINE
  5
5D
  8
0
 10
70.0
 20
41.766734
 30
0.0
 11
70.0
 21
50.595745
 31
0.0
  0
LINE
  5
5E
  8
0
 10
69.25954
 20
40.801001
 30
0.0
 11
55.25954
 21
37.038501
 31
0.0
  0
ARC
  5
5F
  8
0
 10
69.0
 20
41.766734
 30
0.0
 40
1.0
 50
285.042801
 51
0.0
  0
LINE
  5
60
  8
0
 10
58.5
 20
60.0
 30
0.0
 11
65.5
 21
60.0
 31
0.0
  0
ARC
  5
61
  8
0
 10
58.5
 20
59.5
 30
0.0
 40
0.5
 50
90.0
 51
180.0
  0
ARC
  5
62
  8
0
 10
65.5
 20
59.5
 30
0.0
 40
0.5
 50
0.0
 51
90.0
  0
LINE
  5
63
  8
0
 10
66.0
 20
59.5
 30
0.0
 11
66.0
 21
58.74
 31
0.0
  0
LINE
  5
64
  8
0
 10
103.252422
 20
58.80498
 30
0.0
 11
93.054394
 21
56.144624
 31
0.0
  0
ARC
  5
65
  8
0
 10
92.801972
 20
57.112242
 30
0.0
 40
1.0
 50
225.0
 51
284.620874
  0
LINE
  5
66
  8
0
 10
92.094865
 20
56.405135
 30
0.0
 11
91.5
 21
57.0
 31
0.0
  0
ARC
  5
67
  8
0
 10
103.0
 20
67.694191
 30
0.0
 40
1.0
 50
0.0
 51
105.109575
  0
LINE
  5
68
  8
0
 10
104.0
 20
67.694191
 30
0.0
 11
104.0
 21
59.772597
 31
0.0
  0
ARC
  5
69
  8
0
 10
103.0
 20
59.772597
 30
0.0
 40
1.0
 50
284.620874
 51
0.0
  0
ENDBLK
  5
6B
  8
0
  0
ENDSEC
  0
SECTION
  2
ENTITIES
  0
LINE
  5
123
  8
1
 10
38.5
 20
54.5
 30
0.0
 11
38.5
 21
125.5
 31
0.0
  0
LINE
  5
124
  8
0
 10
38.5
 20
60.0
 30
0.0
 11
28.5
 21
60.0
 31
0.0
  0
LINE
  5
125
  8
0
 10
28.5
 20
60.0
 30
0.0
 11
28.5
 21
68.7
 31
0.0
  0
LINE
  5
12D
  8
0
 10
48.5
 20
60.0
 30
0.0
 11
48.5
 21
68.7
 31
0.0
  0
LINE
  5
12E
  8
0
 10
38.5
 20
60.0
 30
0.0
 11
48.5
 21
60.0
 31
0.0
  0
POLYLINE
  5
130
  8
0
 10
26.0
 20
70.5
 30
0.0
 66
     1
 70
     8
  0
VERTEX
  8
0
  5
2BC
 10
26.0000
 20
70.5000
 30
0.000000
  70
    32
  0
VERTEX
  8
0
  5
2BD
 10
26.0038
 20
70.4264
 30
0.000000
  70
    32
  0
VERTEX
  8
0
  5
2BE
 10
26.0151
 20
70.3528
 30
0.000000
  70
    32
  0
VERTEX
  8
0
  5
2BF
 10
26.0339
 20
70.2793
 30
0.000000
  70
    32
  0
VERTEX
  8
0
  5
2C0
 10
26.0602
 20
70.2059
 30
0.000000
  70
    32
  0
VERTEX
  8
0
  5
2C1
 10
26.0940
 20
70.1328
 30
0.000000
  70
    32
  0
VERTEX
  8
0
  5
2C2
 10
26.1353
 20
70.0598
 30
0.000000
  70
    32
  0
VERTEX
  8
0
  5
2C3
 10
26.1840
 20
69.9871
 30
0.000000
  70
    32
  0
VERTEX
  8
0
  5
2C4
 10
26.2402
 20
69.9147
 30
0.000000
  70
    32
  0
VERTEX
  8
0
  5
2C5
 10
26.3037
 20
69.8427
 30
0.000000
  70
    32
  0
VERTEX
  8
0
  5
2C6
 10
26.3746
 20
69.7711
 30
0.000000
  70
    32
  0
VERTEX
  8
0
  5
2C7
 10
26.4528
 20
69.6999
 30
0.000000
  70
    32
  0
VERTEX
  8
0
  5
2C8
 10
26.5382
 20
69.6291
 30
0.000000
  70
    32
  0
VERTEX
  8
0
  5
2C9
 10
26.6309
 20
69.5590
 30
0.000000
  70
    32
  0
VERTEX
  8
0
  5
2CA
 10
26.7307
 20
69.4893
 30
0.000000
  70
    32
  0
VERTEX
  8
0
  5
2CB
 10
26.8376
 20
69.4203
 30
0.000000
  70
    32
  0
VERTEX
  8
0
  5
2CC
 10
26.9515
 20
69.3519
 30
0.000000
  70
    32
  0
VERTEX
  8
0
  5
2CD
 10
27.0724
 20
69.2843
 30
0.000000
  70
    32
  0
VERTEX
  8
0
  5
2CE
 10
27.2001
 20
69.2173
 30
0.000000
  70
    32
  0
VERTEX
  8
0
  5
2CF
 10
27.3347
 20
69.1512
 30
0.000000
  70
    32
  0
VERTEX
  8
0
  5
2D0
 10
27.4760
 20
69.0858
 30
0.000000
  70
    32
  0
VERTEX
  8
0
  5
2D1
 10
27.6239
 20
69.0213
 30
0.000000
  70
    32
  0
VERTEX
  8
0
  5
2D2
 10
27.7784
 20
68.9577
 30
0.000000
  70
    32
  0
VERTEX
  8
0
  5
2D3
 10
27.9393
 20
68.8950
 30
0.000000
  70
    32
  0
VERTEX
  8
0
  5
2D4
 10
28.1066
 20
68.8333
 30
0.000000
  70
    32
  0
VERTEX
  8
0
  5
2D5
 10
28.2802
 20
68.7726
 30
0.000000
  70
    32
  0
VERTEX
  8
0
  5
2D6
 10
28.4599
 20
68.7129
 30
0.000000
  70
    32
  0
VERTEX
  8
0
  5
2D7
 10
28.6457
 20
68.6543
 30
0.000000
  70
    32
  0
VERTEX
  8
0
  5
2D8
 10
28.8374
 20
68.5968
 30
0.000000
  70
    32
  0
VERTEX
  8
0
  5
2D9
 10
29.0349
 20
68.5405
 30
0.000000
  70
    32
  0
VERTEX
  8
0
  5
2DA
 10
29.2381
 20
68.4853
 30
0.000000
  70
    32
  0
VERTEX
  8
0
  5
2DB
 10
29.4469
 20
68.4314
 30
0.000000
  70
    32
  0
VERTEX
  8
0
  5
2DC
 10
29.6612
 20
68.3787
 30
0.000000
  70
    32
  0
VERTEX
  8
0
  5
2DD
 10
29.8807
 20
68.3273
 30
0.000000
  70
    32
  0
VERTEX
  8
0
  5
2DE
 10
30.1055
 20
68.2771
 30
0.000000
  70
    32
  0
VERTEX
  8
0
  5
2DF
 10
30.3353
 20
68.2284
 30
0.000000
  70
    32
  0
VERTEX
  8
0
  5
2E0
 10
30.5701
 20
68.1810
 30
0.000000
  70
    32
  0
VERTEX
  8
0
  5
2E1
 10
30.8096
 20
68.1350
 30
0.000000
  70
    32
  0
VERTEX
  8
0
  5
2E2
 10
31.0538
 20
68.0904
 30
0.000000
  70
    32
  0
VERTEX
  8
0
  5
2E3
 10
31.3024
 20
68.0472
 30
0.000000
  70
    32
  0
VERTEX
  8
0
  5
2E4
 10
31.5554
 20
68.0056
 30
0.000000
  70
    32
  0
VERTEX
  8
0
  5
2E5
 10
31.8125
 20
67.9654
 30
0.000000
  70
    32
  0
VERTEX
  8
0
  5
2E6
 10
32.0737
 20
67.9268
 30
0.000000
  70
    32
  0
VERTEX
  8
0
  5
2E7
 10
32.3388
 20
67.8897
 30
0.000000
  70
    32
  0
VERTEX
  8
0
  5
2E8
 10
32.6075
 20
67.8542
 30
0.000000
  70
    32
  0
VERTEX
  8
0
  5
2E9
 10
32.8799
 20
67.8203
 30
0.000000
  70
    32
  0
VERTEX
  8
0
  5
2EA
 10
33.1556
 20
67.7880
 30
0.000000
  70
    32
  0
VERTEX
  8
0
  5
2EB
 10
33.4345
 20
67.7574
 30
0.000000
  70
    32
  0
VERTEX
  8
0
  5
2EC
 10
33.7165
 20
67.7284
 30
0.000000
  70
    32
  0
VERTEX
  8
0
  5
2ED
 10
34.0013
 20
67.7010
 30
0.000000
  70
    32
  0
VERTEX
  8
0
  5
2EE
 10
34.2889
 20
67.6754
 30
0.000000
  70
    32
  0
VERTEX
  8
0
  5
2EF
 10
34.5790
 20
67.6514
 30
0.000000
  70
    32
  0
VERTEX
  8
0
  5
2F0
 10
34.8714
 20
67.6292
 30
0.000000
  70
    32
  0
VERTEX
  8
0
  5
2F1
 10
35.1661
 20
67.6087
 30
0.000000
  70
    32
  0
VERTEX
  8
0
  5
2F2
 10
35.4627
 20
67.5899
 30
0.000000
  70
    32
  0
VERTEX
  8
0
  5
2F3
 10
35.7612
 20
67.5729
 30
0.000000
  70
    32
  0
VERTEX
  8
0
  5
2F4
 10
36.0614
 20
67.5576
 30
0.000000
  70
    32
  0
VERTEX
  8
0
  5
2F5
 10
36.3630
 20
67.5442
 30
0.000000
  70
    32
  0
VERTEX
  8
0
  5
2F6
 10
36.6659
 20
67.5325
 30
0.000000
  70
    32
  0
VERTEX
  8
0
  5
2F7
 10
36.9699
 20
67.5226
 30
0.000000
  70
    32
  0
VERTEX
  8
0
  5
2F8
 10
37.2748
 20
67.5144
 30
0.000000
  70
    32
  0
VERTEX
  8
0
  5
2F9
 10
37.5804
 20
67.5081
 30
0.000000
  70
    32
  0
VERTEX
  8
0
  5
2FA
 10
37.8867
 20
67.5036
 30
0.000000
  70
    32
  0
VERTEX
  8
0
  5
2FB
 10
38.1932
 20
67.5009
 30
0.000000
  70
    32
  0
VERTEX
  8
0
  5
2FC
 10
38.5000
 20
67.5000
 30
0.000000
  70
    32
  0
VERTEX
  8
0
  5
2FD
 10
38.8068
 20
67.5009
 30
0.000000
  70
    32
  0
VERTEX
  8
0
  5
2FE
 10
39.1133
 20
67.5036
 30
0.000000
  70
    32
  0
VERTEX
  8
0
  5
2FF
 10
39.4196
 20
67.5081
 30
0.000000
  70
    32
  0
VERTEX
  8
0
  5
300
 10
39.7252
 20
67.5144
 30
0.000000
  70
    32
  0
VERTEX
  8
0
  5
301
 10
40.0301
 20
67.5226
 30
0.000000
  70
    32
  0
VERTEX
  8
0
  5
302
 10
40.3341
 20
67.5325
 30
0.000000
  70
    32
  0
VERTEX
  8
0
  5
303
 10
40.6370
 20
67.5442
 30
0.000000
  70
    32
  0
VERTEX
  8
0
  5
304
 10
40.9386
 20
67.5576
 30
0.000000
  70
    32
  0
VERTEX
  8
0
  5
305
 10
41.2388
 20
67.5729
 30
0.000000
  70
    32
  0
VERTEX
  8
0
  5
306
 10
41.5373
 20
67.5899
 30
0.000000
  70
    32
  0
VERTEX
  8
0
  5
307
 10
41.8339
 20
67.6087
 30
0.000000
  70
    32
  0
VERTEX
  8
0
  5
308
 10
42.1286
 20
67.6292
 30
0.000000
  70
    32
  0
VERTEX
  8
0
  5
309
 10
42.4210
 20
67.6514
 30
0.000000
  70
    32
  0
VERTEX
  8
0
  5
30A
 10
42.7111
 20
67.6754
 30
0.000000
  70
    32
  0
VERTEX
  8
0
  5
30B
 10
42.9987
 20
67.7010
 30
0.000000
  70
    32
  0
VERTEX
  8
0
  5
30C
 10
43.2835
 20
67.7284
 30
0.000000
  70
    32
  0
VERTEX
  8
0
  5
30D
 10
43.5655
 20
67.7574
 30
0.000000
  70
    32
  0
VERTEX
  8
0
  5
30E
 10
43.8444
 20
67.7880
 30
0.000000
  70
    32
  0
VERTEX
  8
0
  5
30F
 10
44.1201
 20
67.8203
 30
0.000000
  70
    32
  0
VERTEX
  8
0
  5
310
 10
44.3925
 20
67.8542
 30
0.000000
  70
    32
  0
VERTEX
  8
0
  5
311
 10
44.6612
 20
67.8897
 30
0.000000
  70
    32
  0
VERTEX
  8
0
  5
312
 10
44.9263
 20
67.9268
 30
0.000000
  70
    32
  0
VERTEX
  8
0
  5
313
 10
45.1875
 20
67.9654
 30
0.000000
  70
    32
  0
VERTEX
  8
0
  5
314
 10
45.4446
 20
68.0056
 30
0.000000
  70
    32
  0
VERTEX
  8
0
  5
315
 10
45.6976
 20
68.0472
 30
0.000000
  70
    32
  0
VERTEX
  8
0
  5
316
 10
45.9462
 20
68.0904
 30
0.000000
  70
    32
  0
VERTEX
  8
0
  5
317
 10
46.1904
 20
68.1350
 30
0.000000
  70
    32
  0
VERTEX
  8
0
  5
318
 10
46.4299
 20
68.1810
 30
0.000000
  70
    32
  0
VERTEX
  8
0
  5
319
 10
46.6647
 20
68.2284
 30
0.000000
  70
    32
  0
VERTEX
  8
0
  5
31A
 10
46.8945
 20
68.2771
 30
0.000000
  70
    32
  0
VERTEX
  8
0
  5
31B
 10
47.1193
 20
68.3273
 30
0.000000
  70
    32
  0
VERTEX
  8
0
  5
31C
 10
47.3388
 20
68.3787
 30
0.000000
  70
    32
  0
VERTEX
  8
0
  5
31D
 10
47.5531
 20
68.4314
 30
0.000000
  70
    32
  0
VERTEX
  8
0
  5
31E
 10
47.7619
 20
68.4853
 30
0.000000
  70
    32
  0
VERTEX
  8
0
  5
31F
 10
47.9651
 20
68.5405
 30
0.000000
  70
    32
  0
VERTEX
  8
0
  5
320
 10
48.1626
 20
68.5968
 30
0.000000
  70
    32
  0
VERTEX
  8
0
  5
321
 10
48.3543
 20
68.6543
 30
0.000000
  70
    32
  0
VERTEX
  8
0
  5
322
 10
48.5401
 20
68.7129
 30
0.000000
  70
    32
  0
VERTEX
  8
0
  5
323
 10
48.7198
 20
68.7726
 30
0.000000
  70
    32
  0
VERTEX
  8
0
  5
324
 10
48.8934
 20
68.8333
 30
0.000000
  70
    32
  0
VERTEX
  8
0
  5
325
 10
49.0607
 20
68.8950
 30
0.000000
  70
    32
  0
VERTEX
  8
0
  5
326
 10
49.2216
 20
68.9577
 30
0.000000
  70
    32
  0
VERTEX
  8
0
  5
327
 10
49.3761
 20
69.0213
 30
0.000000
  70
    32
  0
VERTEX
  8
0
  5
328
 10
49.5240
 20
69.0858
 30
0.000000
  70
    32
  0
VERTEX
  8
0
  5
329
 10
49.6653
 20
69.1512
 30
0.000000
  70
    32
  0
VERTEX
  8
0
  5
32A
 10
49.7999
 20
69.2173
 30
0.000000
  70
    32
  0
VERTEX
  8
0
  5
32B
 10
49.9276
 20
69.2843
 30
0.000000
  70
    32
  0
VERTEX
  8
0
  5
32C
 10
50.0485
 20
69.3519
 30
0.000000
  70
    32
  0
VERTEX
  8
0
  5
32D
 10
50.1624
 20
69.4203
 30
0.000000
  70
    32
  0
VERTEX
  8
0
  5
32E
 10
50.2693
 20
69.4893
 30
0.000000
  70
    32
  0
VERTEX
  8
0
  5
32F
 10
50.3691
 20
69.5590
 30
0.000000
  70
    32
  0
VERTEX
  8
0
  5
330
 10
50.4618
 20
69.6291
 30
0.000000
  70
    32
  0
VERTEX
  8
0
  5
331
 10
50.5472
 20
69.6999
 30
0.000000
  70
    32
  0
VERTEX
  8
0
  5
332
 10
50.6254
 20
69.7711
 30
0.000000
  70
    32
  0
VERTEX
  8
0
  5
333
 10
50.6963
 20
69.8427
 30
0.000000
  70
    32
  0
VERTEX
  8
0
  5
334
 10
50.7598
 20
69.9147
 30
0.000000
  70
    32
  0
VERTEX
  8
0
  5
335
 10
50.8160
 20
69.9871
 30
0.000000
  70
    32
  0
VERTEX
  8
0
  5
336
 10
50.8647
 20
70.0598
 30
0.000000
  70
    32
  0
VERTEX
  8
0
  5
337
 10
50.9060
 20
70.1328
 30
0.000000
  70
    32
  0
VERTEX
  8
0
  5
338
 10
50.9398
 20
70.2059
 30
0.000000
  70
    32
  0
VERTEX
  8
0
  5
339
 10
50.9661
 20
70.2793
 30
0.000000
  70
    32
  0
VERTEX
  8
0
  5
33A
 10
50.9849
 20
70.3528
 30
0.000000
  70
    32
  0
VERTEX
  8
0
  5
33B
 10
50.9962
 20
70.4264
 30
0.000000
  70
    32
  0
VERTEX
  8
0
  5
33C
 10
51.0000
 20
70.5000
 30
0.000000
  70
    32
  0
SEQEND
  8
0
  5
33D
  0
LINE
  5
135
  8
0
 10
51.0
 20
70.5
 30
0.0
 11
51.0
 21
102.0
 31
0.0
  0
LINE
  5
136
  8
0
 10
26.0
 20
70.5
 30
0.0
 11
26.0
 21
102.0
 31
0.0
  0
POLYLINE
  5
137
  8
0
 10
26.278414
 20
102.629644
 30
0.0
 66
     1
 70
     8
  0
VERTEX
  8
0
  5
33E
 10
26.2784
 20
102.630
 30
0.000000
  70
    32
  0
VERTEX
  8
0
  5
33F
 10
26.2101
 20
102.548
 30
0.000000
  70
    32
  0
VERTEX
  8
0
  5
340
 10
26.1513
 20
102.465
 30
0.000000
  70
    32
  0
VERTEX
  8
0
  5
341
 10
26.1021
 20
102.383
 30
0.000000
  70
    32
  0
VERTEX
  8
0
  5
342
 10
26.0625
 20
102.300
 30
0.000000
  70
    32
  0
VERTEX
  8
0
  5
343
 10
26.0326
 20
102.216
 30
0.000000
  70
    32
  0
VERTEX
  8
0
  5
344
 10
26.0123
 20
102.133
 30
0.000000
  70
    32
  0
VERTEX
  8
0
  5
345
 10
26.0017
 20
102.050
 30
0.000000
  70
    32
  0
VERTEX
  8
0
  5
346
 10
26.0008
 20
101.966
 30
0.000000
  70
    32
  0
VERTEX
  8
0
  5
347
 10
26.0096
 20
101.883
 30
0.000000
  70
    32
  0
VERTEX
  8
0
  5
348
 10
26.0281
 20
101.799
 30
0.000000
  70
    32
  0
VERTEX
  8
0
  5
349
 10
26.0562
 20
101.716
 30
0.000000
  70
    32
  0
VERTEX
  8
0
  5
34A
 10
26.0940
 20
101.633
 30
0.000000
  70
    32
  0
VERTEX
  8
0
  5
34B
 10
26.1414
 20
101.550
 30
0.000000
  70
    32
  0
VERTEX
  8
0
  5
34C
 10
26.1984
 20
101.468
 30
0.000000
  70
    32
  0
VERTEX
  8
0
  5
34D
 10
26.2650
 20
101.386
 30
0.000000
  70
    32
  0
VERTEX
  8
0
  5
34E
 10
26.3410
 20
101.304
 30
0.000000
  70
    32
  0
VERTEX
  8
0
  5
34F
 10
26.4264
 20
101.223
 30
0.000000
  70
    32
  0
VERTEX
  8
0
  5
350
 10
26.5213
 20
101.143
 30
0.000000
  70
    32
  0
VERTEX
  8
0
  5
351
 10
26.6254
 20
101.063
 30
0.000000
  70
    32
  0
VERTEX
  8
0
  5
352
 10
26.7387
 20
100.984
 30
0.000000
  70
    32
  0
VERTEX
  8
0
  5
353
 10
26.8611
 20
100.906
 30
0.000000
  70
    32
  0
VERTEX
  8
0
  5
354
 10
26.9926
 20
100.828
 30
0.000000
  70
    32
  0
VERTEX
  8
0
  5
355
 10
27.1329
 20
100.752
 30
0.000000
  70
    32
  0
VERTEX
  8
0
  5
356
 10
27.2821
 20
100.677
 30
0.000000
  70
    32
  0
VERTEX
  8
0
  5
357
 10
27.4400
 20
100.602
 30
0.000000
  70
    32
  0
VERTEX
  8
0
  5
358
 10
27.6065
 20
100.529
 30
0.000000
  70
    32
  0
VERTEX
  8
0
  5
359
 10
27.7814
 20
100.456
 30
0.000000
  70
    32
  0
VERTEX
  8
0
  5
35A
 10
27.9647
 20
100.385
 30
0.000000
  70
    32
  0
VERTEX
  8
0
  5
35B
 10
28.1561
 20
100.316
 30
0.000000
  70
    32
  0
VERTEX
  8
0
  5
35C
 10
28.3555
 20
100.247
 30
0.000000
  70
    32
  0
VERTEX
  8
0
  5
35D
 10
28.5628
 20
100.180
 30
0.000000
  70
    32
  0
VERTEX
  8
0
  5
35E
 10
28.7778
 20
100.114
 30
0.000000
  70
    32
  0
VERTEX
  8
0
  5
35F
 10
29.0003
 20
100.050
 30
0.000000
  70
    32
  0
VERTEX
  8
0
  5
360
 10
29.2302
 20
99.9874
 30
0.000000
  70
    32
  0
VERTEX
  8
0
  5
361
 10
29.4673
 20
99.9263
 30
0.000000
  70
    32
  0
VERTEX
  8
0
  5
362
 10
29.7114
 20
99.8667
 30
0.000000
  70
    32
  0
VERTEX
  8
0
  5
363
 10
29.9623
 20
99.8088
 30
0.000000
  70
    32
  0
VERTEX
  8
0
  5
364
 10
30.2198
 20
99.7526
 30
0.000000
  70
    32
  0
VERTEX
  8
0
  5
365
 10
30.4837
 20
99.6981
 30
0.000000
  70
    32
  0
VERTEX
  8
0
  5
366
 10
30.7539
 20
99.6455
 30
0.000000
  70
    32
  0
VERTEX
  8
0
  5
367
 10
31.0301
 20
99.5946
 30
0.000000
  70
    32
  0
VERTEX
  8
0
  5
368
 10
31.3120
 20
99.5456
 30
0.000000
  70
    32
  0
VERTEX
  8
0
  5
369
 10
31.5996
 20
99.4985
 30
0.000000
  70
    32
  0
VERTEX
  8
0
  5
36A
 10
31.8925
 20
99.4534
 30
0.000000
  70
    32
  0
VERTEX
  8
0
  5
36B
 10
32.1905
 20
99.4102
 30
0.000000
  70
    32
  0
VERTEX
  8
0
  5
36C
 10
32.4934
 20
99.3691
 30
0.000000
  70
    32
  0
VERTEX
  8
0
  5
36D
 10
32.8009
 20
99.3299
 30
0.000000
  70
    32
  0
VERTEX
  8
0
  5
36E
 10
33.1129
 20
99.2929
 30
0.000000
  70
    32
  0
VERTEX
  8
0
  5
36F
 10
33.4291
 20
99.2579
 30
0.000000
  70
    32
  0
VERTEX
  8
0
  5
370
 10
33.7492
 20
99.2251
 30
0.000000
  70
    32
  0
VERTEX
  8
0
  5
371
 10
34.0730
 20
99.1944
 30
0.000000
  70
    32
  0
VERTEX
  8
0
  5
372
 10
34.4002
 20
99.1660
 30
0.000000
  70
    32
  0
VERTEX
  8
0
  5
373
 10
34.7306
 20
99.1397
 30
0.000000
  70
    32
  0
VERTEX
  8
0
  5
374
 10
35.0639
 20
99.1156
 30
0.000000
  70
    32
  0
VERTEX
  8
0
  5
375
 10
35.3998
 20
99.0937
 30
0.000000
  70
    32
  0
VERTEX
  8
0
  5
376
 10
35.7382
 20
99.0741
 30
0.000000
  70
    32
  0
VERTEX
  8
0
  5
377
 10
36.0787
 20
99.0568
 30
0.000000
  70
    32
  0
VERTEX
  8
0
  5
378
 10
36.4211
 20
99.0418
 30
0.000000
  70
    32
  0
VERTEX
  8
0
  5
379
 10
36.7651
 20
99.0290
 30
0.000000
  70
    32
  0
VERTEX
  8
0
  5
37A
 10
37.1105
 20
99.0186
 30
0.000000
  70
    32
  0
VERTEX
  8
0
  5
37B
 10
37.4569
 20
99.0105
 30
0.000000
  70
    32
  0
VERTEX
  8
0
  5
37C
 10
37.8042
 20
99.0047
 30
0.000000
  70
    32
  0
VERTEX
  8
0
  5
37D
 10
38.1519
 20
99.0012
 30
0.000000
  70
    32
  0
VERTEX
  8
0
  5
37E
 10
38.5000
 20
99.0000
 30
0.000000
  70
    32
  0
VERTEX
  8
0
  5
37F
 10
38.8481
 20
99.0012
 30
0.000000
  70
    32
  0
VERTEX
  8
0
  5
380
 10
39.1958
 20
99.0047
 30
0.000000
  70
    32
  0
VERTEX
  8
0
  5
381
 10
39.5431
 20
99.0105
 30
0.000000
  70
    32
  0
VERTEX
  8
0
  5
382
 10
39.8895
 20
99.0186
 30
0.000000
  70
    32
  0
VERTEX
  8
0
  5
383
 10
40.2349
 20
99.0290
 30
0.000000
  70
    32
  0
VERTEX
  8
0
  5
384
 10
40.5789
 20
99.0418
 30
0.000000
  70
    32
  0
VERTEX
  8
0
  5
385
 10
40.9213
 20
99.0568
 30
0.000000
  70
    32
  0
VERTEX
  8
0
  5
386
 10
41.2618
 20
99.0741
 30
0.000000
  70
    32
  0
VERTEX
  8
0
  5
387
 10
41.6002
 20
99.0937
 30
0.000000
  70
    32
  0
VERTEX
  8
0
  5
388
 10
41.9361
 20
99.1156
 30
0.000000
  70
    32
  0
VERTEX
  8
0
  5
389
 10
42.2694
 20
99.1397
 30
0.000000
  70
    32
  0
VERTEX
  8
0
  5
38A
 10
42.5998
 20
99.1660
 30
0.000000
  70
    32
  0
VERTEX
  8
0
  5
38B
 10
42.9270
 20
99.1944
 30
0.000000
  70
    32
  0
VERTEX
  8
0
  5
38C
 10
43.2508
 20
99.2251
 30
0.000000
  70
    32
  0
VERTEX
  8
0
  5
38D
 10
43.5709
 20
99.2579
 30
0.000000
  70
    32
  0
VERTEX
  8
0
  5
38E
 10
43.8871
 20
99.2929
 30
0.000000
  70
    32
  0
VERTEX
  8
0
  5
38F
 10
44.1991
 20
99.3299
 30
0.000000
  70
    32
  0
VERTEX
  8
0
  5
390
 10
44.5066
 20
99.3691
 30
0.000000
  70
    32
  0
VERTEX
  8
0
  5
391
 10
44.8095
 20
99.4102
 30
0.000000
  70
    32
  0
VERTEX
  8
0
  5
392
 10
45.1075
 20
99.4534
 30
0.000000
  70
    32
  0
VERTEX
  8
0
  5
393
 10
45.4004
 20
99.4985
 30
0.000000
  70
    32
  0
VERTEX
  8
0
  5
394
 10
45.6880
 20
99.5456
 30
0.000000
  70
    32
  0
VERTEX
  8
0
  5
395
 10
45.9699
 20
99.5946
 30
0.000000
  70
    32
  0
VERTEX
  8
0
  5
396
 10
46.2461
 20
99.6455
 30
0.000000
  70
    32
  0
VERTEX
  8
0
  5
397
 10
46.5163
 20
99.6981
 30
0.000000
  70
    32
  0
VERTEX
  8
0
  5
398
 10
46.7802
 20
99.7526
 30
0.000000
  70
    32
  0
VERTEX
  8
0
  5
399
 10
47.0377
 20
99.8088
 30
0.000000
  70
    32
  0
VERTEX
  8
0
  5
39A
 10
47.2886
 20
99.8667
 30
0.000000
  70
    32
  0
VERTEX
  8
0
  5
39B
 10
47.5327
 20
99.9263
 30
0.000000
  70
    32
  0
VERTEX
  8
0
  5
39C
 10
47.7698
 20
99.9874
 30
0.000000
  70
    32
  0
VERTEX
  8
0
  5
39D
 10
47.9997
 20
100.050
 30
0.000000
  70
    32
  0
VERTEX
  8
0
  5
39E
 10
48.2222
 20
100.114
 30
0.000000
  70
    32
  0
VERTEX
  8
0
  5
39F
 10
48.4372
 20
100.180
 30
0.000000
  70
    32
  0
VERTEX
  8
0
  5
3A0
 10
48.6445
 20
100.247
 30
0.000000
  70
    32
  0
VERTEX
  8
0
  5
3A1
 10
48.8439
 20
100.316
 30
0.000000
  70
    32
  0
VERTEX
  8
0
  5
3A2
 10
49.0353
 20
100.385
 30
0.000000
  70
    32
  0
VERTEX
  8
0
  5
3A3
 10
49.2186
 20
100.456
 30
0.000000
  70
    32
  0
VERTEX
  8
0
  5
3A4
 10
49.3935
 20
100.529
 30
0.000000
  70
    32
  0
VERTEX
  8
0
  5
3A5
 10
49.5600
 20
100.602
 30
0.000000
  70
    32
  0
VERTEX
  8
0
  5
3A6
 10
49.7179
 20
100.677
 30
0.000000
  70
    32
  0
VERTEX
  8
0
  5
3A7
 10
49.8671
 20
100.752
 30
0.000000
  70
    32
  0
VERTEX
  8
0
  5
3A8
 10
50.0074
 20
100.828
 30
0.000000
  70
    32
  0
VERTEX
  8
0
  5
3A9
 10
50.1389
 20
100.906
 30
0.000000
  70
    32
  0
VERTEX
  8
0
  5
3AA
 10
50.2613
 20
100.984
 30
0.000000
  70
    32
  0
VERTEX
  8
0
  5
3AB
 10
50.3746
 20
101.063
 30
0.000000
  70
    32
  0
VERTEX
  8
0
  5
3AC
 10
50.4787
 20
101.143
 30
0.000000
  70
    32
  0
VERTEX
  8
0
  5
3AD
 10
50.5736
 20
101.223
 30
0.000000
  70
    32
  0
VERTEX
  8
0
  5
3AE
 10
50.6590
 20
101.304
 30
0.000000
  70
    32
  0
VERTEX
  8
0
  5
3AF
 10
50.7350
 20
101.386
 30
0.000000
  70
    32
  0
VERTEX
  8
0
  5
3B0
 10
50.8016
 20
101.468
 30
0.000000
  70
    32
  0
VERTEX
  8
0
  5
3B1
 10
50.8586
 20
101.550
 30
0.000000
  70
    32
  0
VERTEX
  8
0
  5
3B2
 10
50.9060
 20
101.633
 30
0.000000
  70
    32
  0
VERTEX
  8
0
  5
3B3
 10
50.9438
 20
101.716
 30
0.000000
  70
    32
  0
VERTEX
  8
0
  5
3B4
 10
50.9719
 20
101.799
 30
0.000000
  70
    32
  0
VERTEX
  8
0
  5
3B5
 10
50.9904
 20
101.883
 30
0.000000
  70
    32
  0
VERTEX
  8
0
  5
3B6
 10
50.9992
 20
101.966
 30
0.000000
  70
    32
  0
VERTEX
  8
0
  5
3B7
 10
50.9983
 20
102.050
 30
0.000000
  70
    32
  0
VERTEX
  8
0
  5
3B8
 10
50.9877
 20
102.133
 30
0.000000
  70
    32
  0
VERTEX
  8
0
  5
3B9
 10
50.9674
 20
102.216
 30
0.000000
  70
    32
  0
VERTEX
  8
0
  5
3BA
 10
50.9375
 20
102.300
 30
0.000000
  70
    32
  0
VERTEX
  8
0
  5
3BB
 10
50.8979
 20
102.383
 30
0.000000
  70
    32
  0
VERTEX
  8
0
  5
3BC
 10
50.8487
 20
102.465
 30
0.000000
  70
    32
  0
VERTEX
  8
0
  5
3BD
 10
50.7899
 20
102.548
 30
0.000000
  70
    32
  0
VERTEX
  8
0
  5
3BE
 10
50.7216
 20
102.630
 30
0.000000
  70
    32
  0
SEQEND
  8
0
  5
3BF
  0
ARC
  5
13A
  8
0
 10
38.5
 20
114.4375
 30
0.0
 40
8.5625
 50
50.033787
 51
129.966213
  0
LINE
  5
13E
  8
0
 10
44.0
 20
121.0
 30
0.0
 11
47.81695
 21
104.0
 31
0.0
  0
LINE
  5
13F
  8
0
 10
33.0
 20
121.0
 30
0.0
 11
29.18305
 21
104.0
 31
0.0
  0
LINE
  5
141
  8
0
 10
45.0
 20
102.0
 30
0.0
 11
45.0
 21
104.0
 31
0.0
  0
LINE
  5
142
  8
0
 10
44.0
 20
105.0
 30
0.0
 11
33.0
 21
105.0
 31
0.0
  0
LINE
  5
143
  8
0
 10
32.0
 20
104.0
 30
0.0
 11
32.0
 21
102.0
 31
0.0
  0
POLYLINE
  5
144
  8
0
 10
32.0
 20
102.0
 30
0.0
 66
     1
 70
     8
  0
VERTEX
  8
0
  5
3C0
 10
32.0000
 20
102.000
 30
0.000000
  70
    32
  0
VERTEX
  8
0
  5
3C1
 10
32.0020
 20
101.963
 30
0.000000
  70
    32
  0
VERTEX
  8
0
  5
3C2
 10
32.0078
 20
101.926
 30
0.000000
  70
    32
  0
VERTEX
  8
0
  5
3C3
 10
32.0176
 20
101.890
 30
0.000000
  70
    32
  0
VERTEX
  8
0
  5
3C4
 10
32.0313
 20
101.853
 30
0.000000
  70
    32
  0
VERTEX
  8
0
  5
3C5
 10
32.0489
 20
101.816
 30
0.000000
  70
    32
  0
VERTEX
  8
0
  5
3C6
 10
32.0704
 20
101.780
 30
0.000000
  70
    32
  0
VERTEX
  8
0
  5
3C7
 10
32.0957
 20
101.744
 30
0.000000
  70
    32
  0
VERTEX
  8
0
  5
3C8
 10
32.1249
 20
101.707
 30
0.000000
  70
    32
  0
VERTEX
  8
0
  5
3C9
 10
32.1579
 20
101.671
 30
0.000000
  70
    32
  0
VERTEX
  8
0
  5
3CA
 10
32.1948
 20
101.636
 30
0.000000
  70
    32
  0
VERTEX
  8
0
  5
3CB
 10
32.2355
 20
101.600
 30
0.000000
  70
    32
  0
VERTEX
  8
0
  5
3CC
 10
32.2799
 20
101.565
 30
0.000000
  70
    32
  0
VERTEX
  8
0
  5
3CD
 10
32.3281
 20
101.529
 30
0.000000
  70
    32
  0
VERTEX
  8
0
  5
3CE
 10
32.3800
 20
101.495
 30
0.000000
  70
    32
  0
VERTEX
  8
0
  5
3CF
 10
32.4355
 20
101.460
 30
0.000000
  70
    32
  0
VERTEX
  8
0
  5
3D0
 10
32.4948
 20
101.426
 30
0.000000
  70
    32
  0
VERTEX
  8
0
  5
3D1
 10
32.5576
 20
101.392
 30
0.000000
  70
    32
  0
VERTEX
  8
0
  5
3D2
 10
32.6241
 20
101.359
 30
0.000000
  70
    32
  0
VERTEX
  8
0
  5
3D3
 10
32.6940
 20
101.326
 30
0.000000
  70
    32
  0
VERTEX
  8
0
  5
3D4
 10
32.7675
 20
101.293
 30
0.000000
  70
    32
  0
VERTEX
  8
0
  5
3D5
 10
32.8444
 20
101.261
 30
0.000000
  70
    32
  0
VERTEX
  8
0
  5
3D6
 10
32.9248
 20
101.229
 30
0.000000
  70
    32
  0
VERTEX
  8
0
  5
3D7
 10
33.0085
 20
101.198
 30
0.000000
  70
    32
  0
VERTEX
  8
0
  5
3D8
 10
33.0954
 20
101.167
 30
0.000000
  70
    32
  0
VERTEX
  8
0
  5
3D9
 10
33.1857
 20
101.136
 30
0.000000
  70
    32
  0
VERTEX
  8
0
  5
3DA
 10
33.2792
 20
101.106
 30
0.000000
  70
    32
  0
VERTEX
  8
0
  5
3DB
 10
33.3757
 20
101.077
 30
0.000000
  70
    32
  0
VERTEX
  8
0
  5
3DC
 10
33.4754
 20
101.048
 30
0.000000
  70
    32
  0
VERTEX
  8
0
  5
3DD
 10
33.5781
 20
101.020
 30
0.000000
  70
    32
  0
VERTEX
  8
0
  5
3DE
 10
33.6838
 20
100.993
 30
0.000000
  70
    32
  0
VERTEX
  8
0
  5
3DF
 10
33.7924
 20
100.966
 30
0.000000
  70
    32
  0
VERTEX
  8
0
  5
3E0
 10
33.9038
 20
100.939
 30
0.000000
  70
    32
  0
VERTEX
  8
0
  5
3E1
 10
34.0180
 20
100.914
 30
0.000000
  70
    32
  0
VERTEX
  8
0
  5
3E2
 10
34.1349
 20
100.889
 30
0.000000
  70
    32
  0
VERTEX
  8
0
  5
3E3
 10
34.2544
 20
100.864
 30
0.000000
  70
    32
  0
VERTEX
  8
0
  5
3E4
 10
34.3764
 20
100.840
 30
0.000000
  70
    32
  0
VERTEX
  8
0
  5
3E5
 10
34.5010
 20
100.817
 30
0.000000
  70
    32
  0
VERTEX
  8
0
  5
3E6
 10
34.6280
 20
100.795
 30
0.000000
  70
    32
  0
VERTEX
  8
0
  5
3E7
 10
34.7572
 20
100.774
 30
0.000000
  70
    32
  0
VERTEX
  8
0
  5
3E8
 10
34.8888
 20
100.753
 30
0.000000
  70
    32
  0
VERTEX
  8
0
  5
3E9
 10
35.0225
 20
100.733
 30
0.000000
  70
    32
  0
VERTEX
  8
0
  5
3EA
 10
35.1583
 20
100.713
 30
0.000000
  70
    32
  0
VERTEX
  8
0
  5
3EB
 10
35.2962
 20
100.695
 30
0.000000
  70
    32
  0
VERTEX
  8
0
  5
3EC
 10
35.4359
 20
100.677
 30
0.000000
  70
    32
  0
VERTEX
  8
0
  5
3ED
 10
35.5775
 20
100.660
 30
0.000000
  70
    32
  0
VERTEX
  8
0
  5
3EE
 10
35.7209
 20
100.644
 30
0.000000
  70
    32
  0
VERTEX
  8
0
  5
3EF
 10
35.8659
 20
100.629
 30
0.000000
  70
    32
  0
VERTEX
  8
0
  5
3F0
 10
36.0126
 20
100.614
 30
0.000000
  70
    32
  0
VERTEX
  8
0
  5
3F1
 10
36.1607
 20
100.601
 30
0.000000
  70
    32
  0
VERTEX
  8
0
  5
3F2
 10
36.3102
 20
100.588
 30
0.000000
  70
    32
  0
VERTEX
  8
0
  5
3F3
 10
36.4611
 20
100.576
 30
0.000000
  70
    32
  0
VERTEX
  8
0
  5
3F4
 10
36.6131
 20
100.565
 30
0.000000
  70
    32
  0
VERTEX
  8
0
  5
3F5
 10
36.7664
 20
100.554
 30
0.000000
  70
    32
  0
VERTEX
  8
0
  5
3F6
 10
36.9206
 20
100.545
 30
0.000000
  70
    32
  0
VERTEX
  8
0
  5
3F7
 10
37.0758
 20
100.536
 30
0.000000
  70
    32
  0
VERTEX
  8
0
  5
3F8
 10
37.2319
 20
100.529
 30
0.000000
  70
    32
  0
VERTEX
  8
0
  5
3F9
 10
37.3887
 20
100.522
 30
0.000000
  70
    32
  0
VERTEX
  8
0
  5
3FA
 10
37.5463
 20
100.516
 30
0.000000
  70
    32
  0
VERTEX
  8
0
  5
3FB
 10
37.7043
 20
100.511
 30
0.000000
  70
    32
  0
VERTEX
  8
0
  5
3FC
 10
37.8629
 20
100.507
 30
0.000000
  70
    32
  0
VERTEX
  8
0
  5
3FD
 10
38.0218
 20
100.504
 30
0.000000
  70
    32
  0
VERTEX
  8
0
  5
3FE
 10
38.1811
 20
100.502
 30
0.000000
  70
    32
  0
VERTEX
  8
0
  5
3FF
 10
38.3405
 20
100.500
 30
0.000000
  70
    32
  0
VERTEX
  8
0
  5
400
 10
38.5000
 20
100.500
 30
0.000000
  70
    32
  0
VERTEX
  8
0
  5
401
 10
38.6595
 20
100.500
 30
0.000000
  70
    32
  0
VERTEX
  8
0
  5
402
 10
38.8189
 20
100.502
 30
0.000000
  70
    32
  0
VERTEX
  8
0
  5
403
 10
38.9782
 20
100.504
 30
0.000000
  70
    32
  0
VERTEX
  8
0
  5
404
 10
39.1371
 20
100.507
 30
0.000000
  70
    32
  0
VERTEX
  8
0
  5
405
 10
39.2957
 20
100.511
 30
0.000000
  70
    32
  0
VERTEX
  8
0
  5
406
 10
39.4537
 20
100.516
 30
0.000000
  70
    32
  0
VERTEX
  8
0
  5
407
 10
39.6113
 20
100.522
 30
0.000000
  70
    32
  0
VERTEX
  8
0
  5
408
 10
39.7681
 20
100.529
 30
0.000000
  70
    32
  0
VERTEX
  8
0
  5
409
 10
39.9242
 20
100.536
 30
0.000000
  70
    32
  0
VERTEX
  8
0
  5
40A
 10
40.0794
 20
100.545
 30
0.000000
  70
    32
  0
VERTEX
  8
0
  5
40B
 10
40.2336
 20
100.554
 30
0.000000
  70
    32
  0
VERTEX
  8
0
  5
40C
 10
40.3869
 20
100.565
 30
0.000000
  70
    32
  0
VERTEX
  8
0
  5
40D
 10
40.5389
 20
100.576
 30
0.000000
  70
    32
  0
VERTEX
  8
0
  5
40E
 10
40.6898
 20
100.588
 30
0.000000
  70
    32
  0
VERTEX
  8
0
  5
40F
 10
40.8393
 20
100.601
 30
0.000000
  70
    32
  0
VERTEX
  8
0
  5
410
 10
40.9874
 20
100.614
 30
0.000000
  70
    32
  0
VERTEX
  8
0
  5
411
 10
41.1341
 20
100.629
 30
0.000000
  70
    32
  0
VERTEX
  8
0
  5
412
 10
41.2791
 20
100.644
 30
0.000000
  70
    32
  0
VERTEX
  8
0
  5
413
 10
41.4225
 20
100.660
 30
0.000000
  70
    32
  0
VERTEX
  8
0
  5
414
 10
41.5641
 20
100.677
 30
0.000000
  70
    32
  0
VERTEX
  8
0
  5
415
 10
41.7038
 20
100.695
 30
0.000000
  70
    32
  0
VERTEX
  8
0
  5
416
 10
41.8417
 20
100.713
 30
0.000000
  70
    32
  0
VERTEX
  8
0
  5
417
 10
41.9775
 20
100.733
 30
0.000000
  70
    32
  0
VERTEX
  8
0
  5
418
 10
42.1112
 20
100.753
 30
0.000000
  70
    32
  0
VERTEX
  8
0
  5
419
 10
42.2428
 20
100.774
 30
0.000000
  70
    32
  0
VERTEX
  8
0
  5
41A
 10
42.3720
 20
100.795
 30
0.000000
  70
    32
  0
VERTEX
  8
0
  5
41B
 10
42.4990
 20
100.817
 30
0.000000
  70
    32
  0
VERTEX
  8
0
  5
41C
 10
42.6236
 20
100.840
 30
0.000000
  70
    32
  0
VERTEX
  8
0
  5
41D
 10
42.7456
 20
100.864
 30
0.000000
  70
    32
  0
VERTEX
  8
0
  5
41E
 10
42.8651
 20
100.889
 30
0.000000
  70
    32
  0
VERTEX
  8
0
  5
41F
 10
42.9820
 20
100.914
 30
0.000000
  70
    32
  0
VERTEX
  8
0
  5
420
 10
43.0962
 20
100.939
 30
0.000000
  70
    32
  0
VERTEX
  8
0
  5
421
 10
43.2076
 20
100.966
 30
0.000000
  70
    32
  0
VERTEX
  8
0
  5
422
 10
43.3162
 20
100.993
 30
0.000000
  70
    32
  0
VERTEX
  8
0
  5
423
 10
43.4219
 20
101.020
 30
0.000000
  70
    32
  0
VERTEX
  8
0
  5
424
 10
43.5246
 20
101.048
 30
0.000000
  70
    32
  0
VERTEX
  8
0
  5
425
 10
43.6243
 20
101.077
 30
0.000000
  70
    32
  0
VERTEX
  8
0
  5
426
 10
43.7208
 20
101.106
 30
0.000000
  70
    32
  0
VERTEX
  8
0
  5
427
 10
43.8143
 20
101.136
 30
0.000000
  70
    32
  0
VERTEX
  8
0
  5
428
 10
43.9046
 20
101.167
 30
0.000000
  70
    32
  0
VERTEX
  8
0
  5
429
 10
43.9915
 20
101.198
 30
0.000000
  70
    32
  0
VERTEX
  8
0
  5
42A
 10
44.0752
 20
101.229
 30
0.000000
  70
    32
  0
VERTEX
  8
0
  5
42B
 10
44.1556
 20
101.261
 30
0.000000
  70
    32
  0
VERTEX
  8
0
  5
42C
 10
44.2325
 20
101.293
 30
0.000000
  70
    32
  0
VERTEX
  8
0
  5
42D
 10
44.3060
 20
101.326
 30
0.000000
  70
    32
  0
VERTEX
  8
0
  5
42E
 10
44.3759
 20
101.359
 30
0.000000
  70
    32
  0
VERTEX
  8
0
  5
42F
 10
44.4424
 20
101.392
 30
0.000000
  70
    32
  0
VERTEX
  8
0
  5
430
 10
44.5052
 20
101.426
 30
0.000000
  70
    32
  0
VERTEX
  8
0
  5
431
 10
44.5645
 20
101.460
 30
0.000000
  70
    32
  0
VERTEX
  8
0
  5
432
 10
44.6200
 20
101.495
 30
0.000000
  70
    32
  0
VERTEX
  8
0
  5
433
 10
44.6719
 20
101.529
 30
0.000000
  70
    32
  0
VERTEX
  8
0
  5
434
 10
44.7201
 20
101.565
 30
0.000000
  70
    32
  0
VERTEX
  8
0
  5
435
 10
44.7645
 20
101.600
 30
0.000000
  70
    32
  0
VERTEX
  8
0
  5
436
 10
44.8052
 20
101.636
 30
0.000000
  70
    32
  0
VERTEX
  8
0
  5
437
 10
44.8421
 20
101.671
 30
0.000000
  70
    32
  0
VERTEX
  8
0
  5
438
 10
44.8751
 20
101.707
 30
0.000000
  70
    32
  0
VERTEX
  8
0
  5
439
 10
44.9043
 20
101.744
 30
0.000000
  70
    32
  0
VERTEX
  8
0
  5
43A
 10
44.9296
 20
101.780
 30
0.000000
  70
    32
  0
VERTEX
  8
0
  5
43B
 10
44.9511
 20
101.816
 30
0.000000
  70
    32
  0
VERTEX
  8
0
  5
43C
 10
44.9687
 20
101.853
 30
0.000000
  70
    32
  0
VERTEX
  8
0
  5
43D
 10
44.9824
 20
101.890
 30
0.000000
  70
    32
  0
VERTEX
  8
0
  5
43E
 10
44.9922
 20
101.926
 30
0.000000
  70
    32
  0
VERTEX
  8
0
  5
43F
 10
44.9980
 20
101.963
 30
0.000000
  70
    32
  0
VERTEX
  8
0
  5
440
 10
45.0000
 20
102.000
 30
0.000000
  70
    32
  0
SEQEND
  8
0
  5
441
  0
ARC
  5
145
  8
0
 10
33.0
 20
104.0
 30
0.0
 40
1.0
 50
90.0
 51
180.0
  0
ARC
  5
146
  8
0
 10
44.0
 20
104.0
 30
0.0
 40
1.0
 50
0.0
 51
90.0
  0
LINE
  5
153
  8
1
 10
109.5
 20
55.5
 30
0.0
 11
109.5
 21
110.5
 31
0.0
  0
LINE
  5
15E
  8
0
 10
109.5
 20
60.0
 30
0.0
 11
99.5
 21
60.0
 31
0.0
  0
LINE
  5
15F
  8
0
 10
109.5
 20
60.0
 30
0.0
 11
119.5
 21
60.0
 31
0.0
  0
LINE
  5
162
  8
0
 10
99.5
 20
60.0
 30
0.0
 11
99.5
 21
68.05
 31
0.0
  0
LINE
  5
163
  8
0
 10
119.5
 20
60.0
 30
0.0
 11
119.5
 21
72.45
 31
0.0
  0
LINE
  5
166
  8
0
 10
97.0
 20
68.743914
 30
0.0
 11
97.0
 21
97.452696
 31
0.0
  0
LINE
  5
167
  8
0
 10
109.5
 20
105.0
 30
0.0
 11
115.0
 21
105.0
 31
0.0
  0
LINE
  5
168
  8
0
 10
116.0
 20
104.0
 30
0.0
 11
116.0
 21
103.92973
 31
0.0
  0
LINE
  5
169
  8
0
 10
109.5
 20
105.0
 30
0.0
 11
104.0
 21
105.0
 31
0.0
  0
LINE
  5
16A
  8
0
 10
103.0
 20
104.0
 30
0.0
 11
103.0
 21
100.556757
 31
0.0
  0
ARC
  5
16B
  8
0
 10
104.0
 20
104.0
 30
0.0
 40
1.0
 50
90.0
 51
180.0
  0
ARC
  5
16C
  8
0
 10
115.0
 20
104.0
 30
0.0
 40
1.0
 50
0.0
 51
90.0
  0
LINE
  5
16F
  8
0
 10
98.497713
 20
99.388596
 30
0.0
 11
186.997713
 21
122.350758
 31
0.0
  0
LINE
  5
170
  8
0
 10
189.5
 20
120.414858
 30
0.0
 11
189.5
 21
109.584029
 31
0.0
  0
LINE
  5
171
  8
0
 10
187.958079
 20
107.637195
 30
0.0
 11
173.921655
 21
104.334507
 31
0.0
  0
LINE
  5
172
  8
0
 10
171.74859
 20
105.25235
 30
0.0
 11
171.0
 21
106.5
 31
0.0
  0
LINE
  5
173
  8
0
 10
171.0
 20
106.5
 30
0.0
 11
119.5
 21
87.5
 31
0.0
  0
LINE
  5
174
  8
0
 10
119.5
 20
87.5
 30
0.0
 11
119.5
 21
104.837838
 31
0.0
  0
LINE
  5
176
  8
0
 10
98.214862
 20
67.76727
 30
0.0
 11
121.214862
 21
72.82727
 31
0.0
  0
LINE
  5
177
  8
0
 10
122.0
 20
73.803914
 30
0.0
 11
122.0
 21
88.42233
 31
0.0
  0
ARC
  5
178
  8
0
 10
187.5
 20
120.414858
 30
0.0
 40
2.0
 50
0.0
 51
104.545203
  0
ARC
  5
179
  8
0
 10
187.5
 20
109.584029
 30
0.0
 40
2.0
 50
283.24052
 51
0.0
  0
ARC
  5
17A
  8
0
 10
173.463576
 20
106.281341
 30
0.0
 40
2.0
 50
210.963757
 51
283.24052
  0
ARC
  5
17B
  8
0
 10
99.0
 20
97.452696
 30
0.0
 40
2.0
 50
104.545203
 51
180.0
  0
ARC
  5
17C
  8
0
 10
98.0
 20
68.743914
 30
0.0
 40
1.0
 50
180.0
 51
282.407419
  0
ARC
  5
17D
  8
0
 10
121.0
 20
73.803914
 30
0.0
 40
1.0
 50
282.407419
 51
0.0
  0
LINE
  5
188
  8
2
 10
33.5
 20
60.0
 30
0.0
 11
33.5
 21
77.0
 31
0.0
  0
LINE
  5
189
  8
2
 10
33.5
 20
77.0
 30
0.0
 11
43.5
 21
77.0
 31
0.0
  0
LINE
  5
18A
  8
2
 10
43.5
 20
77.0
 30
0.0
 11
43.5
 21
60.0
 31
0.0
  0
LINE
  5
18B
  8
2
 10
42.5
 20
60.0
 30
0.0
 11
42.5
 21
82.5
 31
0.0
  0
LINE
  5
18C
  8
2
 10
42.5
 20
82.5
 30
0.0
 11
34.5
 21
82.5
 31
0.0
  0
LINE
  5
18D
  8
2
 10
34.5
 20
82.5
 30
0.0
 11
34.5
 21
60.0
 31
0.0
  0
LINE
  5
18E
  8
2
 10
43.5
 20
77.0
 30
0.0
 11
42.5
 21
78.0
 31
0.0
  0
LINE
  5
18F
  8
2
 10
42.5
 20
78.0
 30
0.0
 11
34.5
 21
78.0
 31
0.0
  0
LINE
  5
190
  8
2
 10
34.5
 20
78.0
 30
0.0
 11
33.5
 21
77.0
 31
0.0
  0
LINE
  5
191
  8
2
 10
42.5
 20
82.5
 30
0.0
 11
38.5
 21
85.0
 31
0.0
  0
LINE
  5
192
  8
2
 10
38.5
 20
85.0
 30
0.0
 11
34.5
 21
82.5
 31
0.0
  0
LINE
  5
193
  8
2
 10
105.5
 20
78.0
 30
0.0
 11
104.5
 21
77.0
 31
0.0
  0
LINE
  5
194
  8
2
 10
114.5
 20
77.0
 30
0.0
 11
113.5
 21
78.0
 31
0.0
  0
LINE
  5
195
  8
2
 10
105.5
 20
82.5
 30
0.0
 11
105.5
 21
60.0
 31
0.0
  0
LINE
  5
196
  8
2
 10
113.5
 20
60.0
 30
0.0
 11
113.5
 21
82.5
 31
0.0
  0
LINE
  5
197
  8
2
 10
104.5
 20
77.0
 30
0.0
 11
114.5
 21
77.0
 31
0.0
  0
LINE
  5
198
  8
2
 10
104.5
 20
60.0
 30
0.0
 11
104.5
 21
74.5
 31
0.0
  0
LINE
  5
199
  8
2
 10
114.5
 20
77.0
 30
0.0
 11
114.5
 21
60.0
 31
0.0
  0
LINE
  5
19A
  8
2
 10
109.5
 20
85.0
 30
0.0
 11
105.5
 21
82.5
 31
0.0
  0
LINE
  5
19B
  8
2
 10
113.5
 20
78.0
 30
0.0
 11
105.5
 21
78.0
 31
0.0
  0
LINE
  5
19C
  8
2
 10
113.5
 20
82.5
 30
0.0
 11
105.5
 21
82.5
 31
0.0
  0
LINE
  5
19D
  8
2
 10
113.5
 20
82.5
 30
0.0
 11
109.5
 21
85.0
 31
0.0
  0
ENDSEC
  0
EOF
