  0
SECTION
  2
HEADER
  9
$ACADVER
  1
AC1015
  9
$ACADMAINTVER
 70
    13
  9
$DWGCODEPAGE
  3
ANSI_932
  9
$INSBASE
 10
0.0
 20
0.0
 30
0.0
  9
$EXTMIN
 10
0.0
 20
0.0
 30
0.0
  9
$EXTMAX
 10
375.0
 20
270.0
 30
0.0
  9
$LIMMIN
 10
0.0
 20
0.0
  9
$LIMMAX
 10
375.0
 20
270.0
  9
$ORTHOMODE
 70
     0
  9
$REGENMODE
 70
     1
  9
$FILLMODE
 70
     1
  9
$QTEXTMODE
 70
     0
  9
$MIRRTEXT
 70
     1
  9
$LTSCALE
 40
10.0
  9
$ATTMODE
 70
     1
  9
$TEXTSIZE
 40
5.5
  9
$TRACEWID
 40
0.05
  9
$TEXTSTYLE
  7
BIGFONT
  9
$CLAYER
  8
0
  9
$CELTYPE
  6
ByLayer
  9
$CECOLOR
 62
   256
  9
$CELTSCALE
 40
1.0
  9
$DISPSILH
 70
     0
  9
$DIMSCALE
 40
1.0
  9
$DIMASZ
 40
3.0
  9
$DIMEXO
 40
2.0
  9
$DIMDLI
 40
0.38
  9
$DIMRND
 40
0.0
  9
$DIMDLE
 40
0.0
  9
$DIMEXE
 40
2.0
  9
$DIMTP
 40
0.0
  9
$DIMTM
 40
0.0
  9
$DIMTXT
 40
3.2
  9
$DIMCEN
 40
0.0
  9
$DIMTSZ
 40
0.0
  9
$DIMTOL
 70
     0
  9
$DIMLIM
 70
     0
  9
$DIMTIH
 70
     0
  9
$DIMTOH
 70
     0
  9
$DIMSE1
 70
     0
  9
$DIMSE2
 70
     0
  9
$DIMTAD
 70
     1
  9
$DIMZIN
 70
     0
  9
$DIMBLK
  1

  9
$DIMASO
 70
     0
  9
$DIMSHO
 70
     0
  9
$DIMPOST
  1

  9
$DIMAPOST
  1

  9
$DIMALT
 70
     0
  9
$DIMALTD
 70
     2
  9
$DIMALTF
 40
25.4
  9
$DIMLFAC
 40
1.0
  9
$DIMTOFL
 70
     1
  9
$DIMTVP
 40
1.6
  9
$DIMTIX
 70
     1
  9
$DIMSOXD
 70
     0
  9
$DIMSAH
 70
     0
  9
$DIMBLK1
  1

  9
$DIMBLK2
  1

  9
$DIMSTYLE
  2
STANDARD
  9
$DIMCLRD
 70
     0
  9
$DIMCLRE
 70
     0
  9
$DIMCLRT
 70
     0
  9
$DIMTFAC
 40
1.0
  9
$DIMGAP
 40
0.09
  9
$DIMJUST
 70
     0
  9
$DIMSD1
 70
     0
  9
$DIMSD2
 70
     0
  9
$DIMTOLJ
 70
     1
  9
$DIMTZIN
 70
     0
  9
$DIMALTZ
 70
     0
  9
$DIMALTTZ
 70
     0
  9
$DIMUPT
 70
     0
  9
$DIMDEC
 70
     4
  9
$DIMTDEC
 70
     4
  9
$DIMALTU
 70
     2
  9
$DIMALTTD
 70
     2
  9
$DIMTXSTY
  7
STANDARD
  9
$DIMAUNIT
 70
     0
  9
$DIMADEC
 70
     0
  9
$DIMALTRND
 40
0.0
  9
$DIMAZIN
 70
     0
  9
$DIMDSEP
 70
    46
  9
$DIMATFIT
 70
     3
  9
$DIMFRAC
 70
     0
  9
$DIMLDRBLK
  1

  9
$DIMLUNIT
 70
     2
  9
$DIMLWD
 70
    -2
  9
$DIMLWE
 70
    -2
  9
$DIMTMOVE
 70
     0
  9
$LUNITS
 70
     2
  9
$LUPREC
 70
     4
  9
$SKETCHINC
 40
0.1
  9
$FILLETRAD
 40
0.0
  9
$AUNITS
 70
     0
  9
$AUPREC
 70
     4
  9
$MENU
  1
ACAD
  9
$ELEVATION
 40
0.0
  9
$PELEVATION
 40
0.0
  9
$THICKNESS
 40
0.0
  9
$LIMCHECK
 70
     0
  9
$CHAMFERA
 40
0.0
  9
$CHAMFERB
 40
0.0
  9
$CHAMFERC
 40
0.0
  9
$CHAMFERD
 40
0.0
  9
$SKPOLY
 70
     0
  9
$TDCREATE
 40
2450683.567453704
  9
$TDUCREATE
 40
2450683.192453703
  9
$TDUPDATE
 40
2456449.454415509
  9
$TDUUPDATE
 40
2456449.079415509
  9
$TDINDWG
 40
0.0004139468
  9
$TDUSRTIMER
 40
0.0004139468
  9
$USRTIMER
 70
     1
  9
$ANGBASE
 50
0.0
  9
$ANGDIR
 70
     0
  9
$PDMODE
 70
     0
  9
$PDSIZE
 40
0.0
  9
$PLINEWID
 40
0.0
  9
$SPLFRAME
 70
     0
  9
$SPLINETYPE
 70
     6
  9
$SPLINESEGS
 70
     8
  9
$HANDSEED
  5
1F8
  9
$SURFTAB1
 70
     6
  9
$SURFTAB2
 70
     6
  9
$SURFTYPE
 70
     6
  9
$SURFU
 70
     6
  9
$SURFV
 70
     6
  9
$UCSBASE
  2

  9
$UCSNAME
  2

  9
$UCSORG
 10
0.0
 20
0.0
 30
0.0
  9
$UCSXDIR
 10
1.0
 20
0.0
 30
0.0
  9
$UCSYDIR
 10
0.0
 20
1.0
 30
0.0
  9
$UCSORTHOREF
  2

  9
$UCSORTHOVIEW
 70
     0
  9
$UCSORGTOP
 10
0.0
 20
0.0
 30
0.0
  9
$UCSORGBOTTOM
 10
0.0
 20
0.0
 30
0.0
  9
$UCSORGLEFT
 10
0.0
 20
0.0
 30
0.0
  9
$UCSORGRIGHT
 10
0.0
 20
0.0
 30
0.0
  9
$UCSORGFRONT
 10
0.0
 20
0.0
 30
0.0
  9
$UCSORGBACK
 10
0.0
 20
0.0
 30
0.0
  9
$PUCSBASE
  2

  9
$PUCSNAME
  2

  9
$PUCSORG
 10
0.0
 20
0.0
 30
0.0
  9
$PUCSXDIR
 10
1.0
 20
0.0
 30
0.0
  9
$PUCSYDIR
 10
0.0
 20
1.0
 30
0.0
  9
$PUCSORTHOREF
  2

  9
$PUCSORTHOVIEW
 70
     0
  9
$PUCSORGTOP
 10
0.0
 20
0.0
 30
0.0
  9
$PUCSORGBOTTOM
 10
0.0
 20
0.0
 30
0.0
  9
$PUCSORGLEFT
 10
0.0
 20
0.0
 30
0.0
  9
$PUCSORGRIGHT
 10
0.0
 20
0.0
 30
0.0
  9
$PUCSORGFRONT
 10
0.0
 20
0.0
 30
0.0
  9
$PUCSORGBACK
 10
0.0
 20
0.0
 30
0.0
  9
$USERI1
 70
     0
  9
$USERI2
 70
     0
  9
$USERI3
 70
     0
  9
$USERI4
 70
     0
  9
$USERI5
 70
     0
  9
$USERR1
 40
0.0
  9
$USERR2
 40
0.0
  9
$USERR3
 40
0.0
  9
$USERR4
 40
0.0
  9
$USERR5
 40
0.0
  9
$WORLDVIEW
 70
     1
  9
$SHADEDGE
 70
     3
  9
$SHADEDIF
 70
    70
  9
$TILEMODE
 70
     1
  9
$MAXACTVP
 70
    16
  9
$PINSBASE
 10
0.0
 20
0.0
 30
0.0
  9
$PLIMCHECK
 70
     0
  9
$PEXTMIN
 10
1.000000000000000E+20
 20
1.000000000000000E+20
 30
1.000000000000000E+20
  9
$PEXTMAX
 10
-1.000000000000000E+20
 20
-1.000000000000000E+20
 30
-1.000000000000000E+20
  9
$PLIMMIN
 10
0.0
 20
0.0
  9
$PLIMMAX
 10
12.0
 20
9.0
  9
$UNITMODE
 70
     0
  9
$VISRETAIN
 70
     0
  9
$PLINEGEN
 70
     1
  9
$PSLTSCALE
 70
     0
  9
$TREEDEPTH
 70
  3020
  9
$CMLSTYLE
  2
Standard
  9
$CMLJUST
 70
     0
  9
$CMLSCALE
 40
1.0
  9
$PROXYGRAPHICS
 70
     1
  9
$MEASUREMENT
 70
     0
  9
$CELWEIGHT
370
    -1
  9
$ENDCAPS
280
     0
  9
$JOINSTYLE
280
     0
  9
$LWDISPLAY
290
     0
  9
$INSUNITS
 70
     0
  9
$HYPERLINKBASE
  1

  9
$STYLESHEET
  1

  9
$XEDIT
290
     1
  9
$CEPSNTYPE
380
     0
  9
$PSTYLEMODE
290
     1
  9
$FINGERPRINTGUID
  2
{C990740D-5884-4F18-A3A2-7B17972C8641}
  9
$VERSIONGUID
  2
{4A8953F7-B763-4340-9E99-E1979D7A3CF7}
  9
$EXTNAMES
290
     1
  9
$PSVPSCALE
 40
0.0
  9
$OLESTARTUP
290
     0
  0
ENDSEC
  0
SECTION
  2
CLASSES
  0
CLASS
  1
ACDBDICTIONARYWDFLT
  2
AcDbDictionaryWithDefault
  3
AutoCAD 2000
 90
        0
280
     0
281
     0
  0
CLASS
  1
ACDBPLACEHOLDER
  2
AcDbPlaceHolder
  3
AutoCAD 2000
 90
        0
280
     0
281
     0
  0
CLASS
  1
LAYOUT
  2
AcDbLayout
  3
AutoCAD 2000
 90
        0
280
     0
281
     0
  0
CLASS
  1
AMGSETTINGSOBJ
  2
AmgSettingsObj
  3
"AcadM|Product Description: AutoCAD Mechanical 2000|Company: Autodesk"
 90
        0
280
     0
281
     0
  0
CLASS
  1
ACME_DOCUMENT
  2
AcMeDbDoc
  3
AcMeServices
 90
        0
280
     0
281
     0
  0
CLASS
  1
ACMESCOPE
  2
AcMeScope
  3
AcMeServices
 90
        0
280
     0
281
     0
  0
CLASS
  1
ACMECOMMANDHISTORY
  2
AcMeCommandHistory
  3
AcMeServices
 90
        0
280
     0
281
     0
  0
CLASS
  1
ACIMSYSVARMAN
  2
AcImSysVarManager
  3
AcMeServices
 90
        0
280
     0
281
     0
  0
CLASS
  1
ACIMREALSYSVAR
  2
AcImRealSysVar
  3
AcMeServices
 90
        0
280
     0
281
     0
  0
CLASS
  1
ACIMINTSYSVAR
  2
AcImIntSysVar
  3
AcMeServices
 90
        0
280
     0
281
     0
  0
CLASS
  1
ACMEDRAWINGMAN
  2
AcMeDrawingMan
  3
AcMeServices
 90
        0
280
     0
281
     0
  0
CLASS
  1
ACMEVIEW
  2
AcMeView
  3
AcMeServices
 90
        0
280
     0
281
     0
  0
CLASS
  1
ACDBENTITYCACHE
  2
AcMeEntityCache
  3
AcMeServices
 90
        0
280
     0
281
     0
  0
CLASS
  1
GSMANAGER
  2
AcMeGSManager
  3
AcMeServices
 90
        0
280
     0
281
     0
  0
CLASS
  1
AMDTINTERNALREACTOR
  2
AmdtInternalReactor
  3
AcMeServices
 90
        0
280
     0
281
     0
  0
CLASS
  1
ACMESTATEMGR
  2
AcMeStateMgr
  3
AcMeServices
 90
        0
280
     0
281
     0
  0
CLASS
  1
ACGREFMASTER
  2
AcGrefMaster
  3
AcAttribServices
 90
        0
280
     0
281
     0
  0
CLASS
  1
AM_DRAWING_MGR
  2
AcDmDwgMgr
  3
AcMechDwgViewMgmt
 90
        0
280
     0
281
     0
  0
CLASS
  1
AM_DWG_DOCUMENT
  2
AcDmDwgDocument
  3
AcMechDwgViewMgmt
 90
        0
280
     0
281
     0
  0
CLASS
  1
AM_DWG_SHEET
  2
AcDmSheet
  3
AcMechDwgViewMgmt
 90
        0
280
     0
281
     0
  0
CLASS
  1
AM_VIEWDIMPARMAP
  2
AcDmViewDimParMap
  3
AcMechDwgViewMgmt
 90
        0
280
     0
281
     0
  0
CLASS
  1
AM_DWGMGR_NAME
  2
AcDmDwgMgrName
  3
AcMechDwgViewMgmt
 90
        0
280
     0
281
     0
  0
CLASS
  1
ACME_DATABASE
  2
AcMeDbDatabase
  3
AcMeServices
 90
        0
280
     0
281
     0
  0
CLASS
  1
ACRFINSADJUSTERMGR
  2
AcRfInsAdjusterMgr
  3
AcMeServices
 90
        0
280
     0
281
     0
  0
CLASS
  1
ACGREFACADMASTER
  2
AcGrefacadMaster
  3
AcGrefServices
 90
        0
280
     0
281
     0
  0
CLASS
  1
AMDTMENUSTATEMGR
  2
AmdtMenuStateMgr
  3
McadcomServices
 90
        0
280
     0
281
     0
  0
CLASS
  1
AMDTMCOMMENUSTATE
  2
AmdtMcomMenuState
  3
McadcomServices
 90
        0
280
     0
281
     0
  0
CLASS
  1
AMIMASTER
  2
AmiMaster
  3
AmiServices
 90
        0
280
     0
281
     0
  0
CLASS
  1
ASAPP
  2
AcAsAppObject
  3
AutoSurfServices
 90
        0
280
     0
281
     0
  0
CLASS
  1
IM_STATIC_MAN
  2
AcImStaticVarManager
  3
AcMeServices
 90
        0
280
     0
281
     0
  0
CLASS
  1
ACIMSTRSYSVAR
  2
AcImStrSysVar
  3
AcMeServices
 90
        0
280
     0
281
     0
  0
CLASS
  1
ACIMDBLSTATICVAR
  2
AcImDblStaticVar
  3
AcMeServices
 90
        0
280
     0
281
     0
  0
CLASS
  1
ACIMSTRSTATICVAR
  2
AcImStrStaticVar
  3
AcMeServices
 90
        0
280
     0
281
     0
  0
CLASS
  1
ACIMINTSTATICVAR
  2
AcImIntStaticVar
  3
AcMeServices
 90
        0
280
     0
281
     0
  0
CLASS
  1
ACASGREFMASTER
  2
AcAsGrefMaster
  3
AutoSurfResolverServices
 90
        0
280
     0
281
     0
  0
CLASS
  1
ACADGREFMODULE
  2
AcAdGrefModule
  3
AdGrefServices
 90
        0
280
     0
281
     0
  0
CLASS
  1
AMDTMAPISURFMOUDULE
  2
AmdtMApiSurfModule
  3
MApiSurfServices
 90
        0
280
     0
281
     0
  0
CLASS
  1
MAPIAMMOUDLE
  2
MApiAmModule
  3
MApiAmServices
 90
        0
280
     0
281
     0
  0
CLASS
  1
AMDTADMENUSTATE
  2
AmdtAdMenuState
  3
DesignerServices
 90
        0
280
     0
281
     0
  0
CLASS
  1
ADAPPL
  2
AcAdAppl
  3
DesignerServices
 90
        0
280
     0
281
     0
  0
CLASS
  1
DEPMGR
  2
AcAdDepMgr
  3
DesignerServices
 90
        0
280
     0
281
     0
  0
CLASS
  1
PARAMMGR
  2
AcAdParamMgr
  3
DesignerServices
 90
        0
280
     0
281
     0
  0
CLASS
  1
PARAMSCOPE
  2
AcAdParamScope
  3
DesignerServices
 90
        0
280
     0
281
     0
  0
CLASS
  1
NAMEDAPPL
  2
AcAdNamedAppl
  3
DesignerServices
 90
        0
280
     0
281
     0
  0
CLASS
  1
AMDTDMMENUSTATE
  2
AmdtDmMenuState
  3
AcMechDwgViewMgmt
 90
        0
280
     0
281
     0
  0
CLASS
  1
MAPIADMODULE
  2
MApiAdModule
  3
MApiAdServices
 90
        0
280
     0
281
     0
  0
CLASS
  1
AMDTAMMENUSTATE
  2
AmdtAmMenuState
  3
DesignerAssemblies
 90
        0
280
     0
281
     0
  0
CLASS
  1
ACAMPROJECT
  2
AcAmProject
  3
DesignerAssemblies
 90
        0
280
     0
281
     0
  0
CLASS
  1
ACAMGRCOMPDEF
  2
AcAmGrCompDef
  3
DesignerAssemblies
 90
        0
280
     0
281
     0
  0
CLASS
  1
ACCMCONTEXT
  2
AcCmContext
  3
DesignerAssemblies
 90
        0
280
     0
281
     0
  0
CLASS
  1
ACAMCOMPDEF
  2
AcAmCompDef
  3
DesignerAssemblies
 90
        0
280
     0
281
     0
  0
CLASS
  1
ACAMCOMPDEFMGR
  2
AcAmCompDefMgr
  3
DesignerAssemblies
 90
        0
280
     0
281
     0
  0
CLASS
  1
AMCONTEXTMGR
  2
AcAmContextMgr
  3
DesignerAssemblies
 90
        0
280
     0
281
     0
  0
CLASS
  1
ACAMCONTEXTMODELER
  2
AcAmContextModeler
  3
DesignerAssemblies
 90
        0
280
     0
281
     0
  0
CLASS
  1
ACMDATADICTIONARY
  2
AcmDataDictionary
  3
"AcmSymBB|Product Description: AutoCAD Mechanical 2000|Company: Autodesk"
 90
        0
280
     0
281
     0
  0
CLASS
  1
ACMDATAENTRYBLOCK
  2
AcmDataEntryBlock
  3
"AcmSymBB|Product Description: AutoCAD Mechanical 2000|Company: Autodesk"
 90
        0
280
     0
281
     0
  0
CLASS
  1
CATALOGSTATE
  2
AcAmCatalogState
  3
DesignerAssemblies
 90
        0
280
     0
281
     0
  0
CLASS
  1
ACAMGRCOMPDEFSET
  2
AcAmGrCompDefSet
  3
DesignerAssemblies
 90
        0
280
     0
281
     0
  0
CLASS
  1
AMDTBROWSERDBTAB
  2
AmdtBrowserDbTab
  3
McadcomServices
 90
        0
280
     0
281
     0
  0
CLASS
  1
CBROWSERAPPOBJECT
  2
CBrowserAppObject
  3
McadcomServices
 90
        0
280
     0
281
     0
  0
CLASS
  1
DM_PLACEHOLDER
  2
AcDmSelsetPlaceholder
  3
AcMechDwgViewMgmt
 90
        0
280
     0
281
     0
  0
CLASS
  1
AMGOBJPROPCFG
  2
AmgObjPropCfg
  3
"AmgLay|Product Description: AutoCAD Mechanical 2000|Company: Autodesk"
 90
        1
280
     0
281
     0
  0
CLASS
  1
ACAMGFILTERDAT
  2
AcAmgFilterDat
  3
"AcadM|Product Description: AutoCAD Mechanical 2000|Company: Autodesk"
 90
        0
280
     0
281
     0
  0
CLASS
  1
LAYER_INDEX
  2
AcDbLayerIndex
  3
AutoCAD 2000
 90
        0
280
     0
281
     0
  0
CLASS
  1
IDBUFFER
  2
AcDbIdBuffer
  3
AutoCAD 2000
 90
        0
280
     0
281
     0
  0
CLASS
  1
DICTIONARYVAR
  2
AcDbDictionaryVar
  3
AutoCAD 2000
 90
        0
280
     0
281
     0
  0
ENDSEC
  0
SECTION
  2
TABLES
  0
TABLE
  2
VPORT
  5
8
330
0
100
AcDbSymbolTable
 70
     4
  0
VPORT
  5
1F7
330
8
100
AcDbSymbolTableRecord
100
AcDbViewportTableRecord
  2
*Active
 70
     0
 10
0.0
 20
0.0
 11
1.0
 21
1.0
 12
0.0
 22
0.0
 13
0.0
 23
0.0
 14
10.0
 24
10.0
 15
10.0
 25
10.0
 16
0.0
 26
0.0
 36
1.0
 17
237.4214250019724
 27
159.3729857764863
 37
0.0
 40
637.4919431059453
 41
1.489721886336154
 42
50.0
 43
0.0
 44
0.0
 50
0.0
 51
0.0
 71
     0
 72
   500
 73
     1
 74
     1
 75
     0
 76
     0
 77
     0
 78
     2
281
     0
 65
     0
110
0.0
120
0.0
130
0.0
111
1.0
121
0.0
131
0.0
112
0.0
122
1.0
132
0.0
 79
     0
146
0.0
  0
ENDTAB
  0
TABLE
  2
LTYPE
  5
5
330
0
100
AcDbSymbolTable
 70
    17
  0
LTYPE
  5
13
330
5
100
AcDbSymbolTableRecord
100
AcDbLinetypeTableRecord
  2
ByBlock
 70
     0
  3

 72
    65
 73
     0
 40
0.0
  0
LTYPE
  5
14
330
5
100
AcDbSymbolTableRecord
100
AcDbLinetypeTableRecord
  2
ByLayer
 70
     0
  3

 72
    65
 73
     0
 40
0.0
  0
LTYPE
  5
15
330
5
100
AcDbSymbolTableRecord
100
AcDbLinetypeTableRecord
  2
CONTINUOUS
 70
     0
  3
実線
 72
    65
 73
     0
 40
0.0
  0
LTYPE
  5
23
330
5
100
AcDbSymbolTableRecord
100
AcDbLinetypeTableRecord
  2
BYLAYER
 70
     0
  3

 72
    65
 73
     0
 40
0.0
  0
LTYPE
  5
24
330
5
100
AcDbSymbolTableRecord
100
AcDbLinetypeTableRecord
  2
CENTER
 70
     0
  3
____ _ ____ _ ____ _ ____ _ ____ _ ____ _ ____
 72
    65
 73
     4
 40
2.0
 49
1.25
 74
     0
 49
-0.25
 74
     0
 49
0.25
 74
     0
 49
-0.25
 74
     0
  0
LTYPE
  5
25
330
5
100
AcDbSymbolTableRecord
100
AcDbLinetypeTableRecord
  2
HIDDEN
 70
     0
  3
_ _ _ _ _ _ _ _ _ _ _ _ _ _ _ _ _ _ _ _ _ _ _
 72
    65
 73
     2
 40
0.375
 49
0.25
 74
     0
 49
-0.125
 74
     0
  0
LTYPE
  5
132
330
5
100
AcDbSymbolTableRecord
100
AcDbLinetypeTableRecord
  2
PHANTOM2
 70
     0
  3
Phantom (.5x) ___ _ _ ___ _ _ ___ _ _ ___ _ _
 72
    65
 73
     6
 40
1.25
 49
0.625
 74
     0
 49
-0.125
 74
     0
 49
0.125
 74
     0
 49
-0.125
 74
     0
 49
0.125
 74
     0
 49
-0.125
 74
     0
  0
LTYPE
  5
194
330
5
100
AcDbSymbolTableRecord
100
AcDbLinetypeTableRecord
  2
ASULTYPE
 70
     0
  3
実線
 72
    65
 73
     2
 40
3.0
 49
2.5
 74
     0
 49
0.5
 74
     0
  0
LTYPE
  5
195
330
5
100
AcDbSymbolTableRecord
100
AcDbLinetypeTableRecord
  2
ASVLTYPE
 70
     0
  3
__ __ __ __ __ __ __ __ __ __ __ __ __ __ __ __ __ __ __ __ __
 72
    65
 73
     2
 40
0.75
 49
0.5
 74
     0
 49
-0.25
 74
     0
  0
LTYPE
  5
1D6
330
5
100
AcDbSymbolTableRecord
100
AcDbLinetypeTableRecord
  2
AM_ISO02W050
 70
     0
  3
__ __ __ __ __ __ __ __ __ __ __ __ __ __ __
 72
    65
 73
     2
 40
7.5
 49
6.0
 74
     0
 49
-1.5
 74
     0
  0
LTYPE
  5
1D7
330
5
100
AcDbSymbolTableRecord
100
AcDbLinetypeTableRecord
  2
AM_ISO08W050
 70
     0
  3
____ . ____ . ____ . ____ . ____ . ____ . ____
 72
    65
 73
     4
 40
18.0
 49
12.0
 74
     0
 49
-1.5
 74
     0
 49
3.0
 74
     0
 49
-1.5
 74
     0
  0
LTYPE
  5
1D8
330
5
100
AcDbSymbolTableRecord
100
AcDbLinetypeTableRecord
  2
AM_ISO09W050
 70
     0
  3
_____ . . _____ . . _____ . . ____ .. ____
 72
    65
 73
     6
 40
22.5
 49
12.0
 74
     0
 49
-1.5
 74
     0
 49
3.0
 74
     0
 49
-1.5
 74
     0
 49
3.0
 74
     0
 49
-1.5
 74
     0
  0
LTYPE
  5
1D9
330
5
100
AcDbSymbolTableRecord
100
AcDbLinetypeTableRecord
  2
Amconstr
 70
     0
  3
_______________________
 72
    65
 73
     2
 40
9999.0
 49
9999.0
 74
     0
 49
0.0
 74
     0
  0
LTYPE
  5
1DA
330
5
100
AcDbSymbolTableRecord
100
AcDbLinetypeTableRecord
  2
AM_ISO08W050x2
 70
     0
  3
__ . __ . __ . __ . __ . __
 72
    65
 73
     4
 40
9.0
 49
6.0
 74
     0
 49
-0.75
 74
     0
 49
1.5
 74
     0
 49
-0.75
 74
     0
  0
LTYPE
  5
1DB
330
5
100
AcDbSymbolTableRecord
100
AcDbLinetypeTableRecord
  2
AM_ISO02W050x2
 70
     0
  3
 _ _ _ _ _ _ _ _ _ _ _ _
 72
    65
 73
     2
 40
3.75
 49
3.0
 74
     0
 49
-0.75
 74
     0
  0
LTYPE
  5
1DE
330
5
100
AcDbSymbolTableRecord
100
AcDbLinetypeTableRecord
  2
Amzigzag
 70
     0
  3
/\/-/\/-/\/-/\/-/\/-/\/
 72
    65
 73
     2
 40
11.00009999999999
 49
0.0001
 74
     4
 75
   135
340
1DD
 46
0.04
 50
0.0
 44
0.0
 45
0.0
 49
-11.0
 74
     0
  0
LTYPE
  5
1DF
330
5
100
AcDbSymbolTableRecord
100
AcDbLinetypeTableRecord
  2
CENTER2
 70
     0
  3
Center (.5x) ___ _ ___ _ ___ _ ___ _ ___ _ ___
 72
    65
 73
     4
 40
1.125
 49
0.75
 74
     0
 49
-0.125
 74
     0
 49
0.125
 74
     0
 49
-0.125
 74
     0
  0
LTYPE
  5
1E0
330
5
100
AcDbSymbolTableRecord
100
AcDbLinetypeTableRecord
  2
HIDDEN2
 70
     0
  3
Hidden (.5x) _ _ _ _ _ _ _ _ _ _ _ _ _ _ _ _ _
 72
    65
 73
     2
 40
0.1875
 49
0.125
 74
     0
 49
-0.0625
 74
     0
  0
LTYPE
  5
1E1
330
5
100
AcDbSymbolTableRecord
100
AcDbLinetypeTableRecord
  2
Amzigzag2
 70
     0
  3
/\/-/\/-/\/-/\/-/\/-/\/
 72
    65
 73
     2
 40
0.4401
 49
0.0001
 74
     4
 75
   135
340
1DD
 46
0.0016
 50
0.0
 44
0.0
 45
0.0
 49
-0.4400000000000001
 74
     0
  0
ENDTAB
  0
TABLE
  2
LAYER
  5
2
330
0
100
AcDbSymbolTable
 70
     6
  0
LAYER
  5
10
330
2
100
AcDbSymbolTableRecord
100
AcDbLayerTableRecord
  2
0
 70
     0
 62
     7
  6
CONTINUOUS
370
    -3
390
F
  0
LAYER
  5
26
330
2
100
AcDbSymbolTableRecord
100
AcDbLayerTableRecord
  2
1
 70
     0
 62
     1
  6
CENTER
370
    -3
390
F
  0
LAYER
  5
27
330
2
100
AcDbSymbolTableRecord
100
AcDbLayerTableRecord
  2
3
 70
     0
 62
     3
  6
CONTINUOUS
370
    -3
390
F
  0
LAYER
  5
28
330
2
100
AcDbSymbolTableRecord
100
AcDbLayerTableRecord
  2
10
 70
     0
 62
     7
  6
CONTINUOUS
370
    -3
390
F
  0
LAYER
  5
29
330
2
100
AcDbSymbolTableRecord
100
AcDbLayerTableRecord
  2
11
 70
     0
 62
     3
  6
CONTINUOUS
370
    -3
390
F
  0
LAYER
  5
2A
330
2
100
AcDbSymbolTableRecord
100
AcDbLayerTableRecord
  2
2
 70
     0
 62
     2
  6
HIDDEN
370
    -3
390
F
  0
ENDTAB
  0
TABLE
  2
STYLE
  5
3
330
0
100
AcDbSymbolTable
 70
     4
  0
STYLE
  5
11
330
3
100
AcDbSymbolTableRecord
100
AcDbTextStyleTableRecord
  2
STANDARD
 70
     0
 40
0.0
 41
1.0
 50
0.0
 71
     0
 42
4.000000000000047
  3
TXT
  4
BIGFONT
  0
STYLE
  5
22
330
3
100
AcDbSymbolTableRecord
100
AcDbTextStyleTableRecord
  2
BIGFONT
 70
     0
 40
5.5
 41
1.0
 50
0.0
 71
     0
 42
5.5
  3

  4
bigfont
  0
STYLE
  5
2B
330
3
100
AcDbSymbolTableRecord
100
AcDbTextStyleTableRecord
  2
07500
 70
     0
 40
0.0
 41
0.75
 50
0.0
 71
     0
 42
3.00000000000005
  3
TXT
  4
BIGFONT
  0
STYLE
  5
1DD
330
3
100
AcDbSymbolTableRecord
100
AcDbTextStyleTableRecord
  2

 70
     1
 40
0.0
 41
1.0
 50
0.0
 71
     0
 42
5.5
  3
ltypeshp.shx
  4

  0
ENDTAB
  0
TABLE
  2
VIEW
  5
6
330
0
100
AcDbSymbolTable
 70
     1
  0
VIEW
  5
2D
330
6
100
AcDbSymbolTableRecord
100
AcDbViewTableRecord
  2
ALL
 70
     0
 40
270.0
 10
220.9915966386553
 20
135.0
 41
0.0
 11
0.0
 21
0.0
 31
1.0
 12
0.0
 22
0.0
 32
0.0
 42
0.0
 43
0.0
 44
0.0
 50
0.0
 71
     0
281
     0
 72
     0
  0
ENDTAB
  0
TABLE
  2
UCS
  5
7
330
0
100
AcDbSymbolTable
 70
     0
  0
ENDTAB
  0
TABLE
  2
APPID
  5
9
330
0
100
AcDbSymbolTable
 70
    12
  0
APPID
  5
12
330
9
100
AcDbSymbolTableRecord
100
AcDbRegAppTableRecord
  2
ACAD
 70
     0
  0
APPID
  5
111
330
9
100
AcDbSymbolTableRecord
100
AcDbRegAppTableRecord
  2
GENIUS_GENDIM_13
 70
     0
  0
APPID
  5
112
330
9
100
AcDbSymbolTableRecord
100
AcDbRegAppTableRecord
  2
GENIUS_GENDTOL_13
 70
     0
  0
APPID
  5
113
330
9
100
AcDbSymbolTableRecord
100
AcDbRegAppTableRecord
  2
GENIUS_GE3DTOL_13
 70
     0
  0
APPID
  5
115
330
9
100
AcDbSymbolTableRecord
100
AcDbRegAppTableRecord
  2
MCAD_NO_VIS
 70
     0
  0
APPID
  5
116
330
9
100
AcDbSymbolTableRecord
100
AcDbRegAppTableRecord
  2
ACAD_TEMP_GRAPHIC
 70
     0
  0
APPID
  5
147
330
9
100
AcDbSymbolTableRecord
100
AcDbRegAppTableRecord
  2
AD_DRAW
 70
     0
  0
APPID
  5
14A
330
9
100
AcDbSymbolTableRecord
100
AcDbRegAppTableRecord
  2
ACATTRIBSERVICES
 70
     0
  0
APPID
  5
196
330
9
100
AcDbSymbolTableRecord
100
AcDbRegAppTableRecord
  2
ASURF_PCURVE_APPNAME
 70
     0
  0
APPID
  5
1C5
330
9
100
AcDbSymbolTableRecord
100
AcDbRegAppTableRecord
  2
DESIGNERASSEMBLIES
 70
     0
  0
APPID
  5
1CD
330
9
100
AcDbSymbolTableRecord
100
AcDbRegAppTableRecord
  2
ACADM_DIM_EDIT
 70
     0
  0
APPID
  5
1CE
330
9
100
AcDbSymbolTableRecord
100
AcDbRegAppTableRecord
  2
AMDT_DM_ADJ
 70
     0
  0
ENDTAB
  0
TABLE
  2
DIMSTYLE
  5
A
330
0
100
AcDbSymbolTable
 70
     1
100
AcDbDimStyleTable
 71
     0
  0
DIMSTYLE
105
2C
330
A
100
AcDbSymbolTableRecord
100
AcDbDimStyleTableRecord
  2
STANDARD
 70
     0
279
     2
340
22
  0
ENDTAB
  0
TABLE
  2
BLOCK_RECORD
  5
1
330
0
100
AcDbSymbolTable
 70
     2
  0
BLOCK_RECORD
  5
1E
102
{ACAD_XDICTIONARY
360
1EA
102
}
330
1
100
AcDbSymbolTableRecord
100
AcDbBlockTableRecord
  2
*Model_Space
340
21
  0
BLOCK_RECORD
  5
1A
330
1
100
AcDbSymbolTableRecord
100
AcDbBlockTableRecord
  2
*Paper_Space
340
1D
  0
BLOCK_RECORD
  5
31
330
1
100
AcDbSymbolTableRecord
100
AcDbBlockTableRecord
  2
WWW
340
0
102
{BLKREFS
331
EC
102
}
  0
BLOCK_RECORD
  5
1BC
330
1
100
AcDbSymbolTableRecord
100
AcDbBlockTableRecord
  2
*U1
340
0
  0
ENDTAB
  0
ENDSEC
  0
SECTION
  2
BLOCKS
  0
BLOCK
  5
1F
330
1E
100
AcDbEntity
  8
0
100
AcDbBlockBegin
  2
*Model_Space
 70
     0
 10
0.0
 20
0.0
 30
0.0
  3
*Model_Space
  1

  0
ENDBLK
  5
20
330
1E
100
AcDbEntity
  8
0
100
AcDbBlockEnd
  0
BLOCK
  5
1B
330
1A
100
AcDbEntity
 67
     1
  8
0
100
AcDbBlockBegin
  2
*Paper_Space
 70
     0
 10
0.0
 20
0.0
 30
0.0
  3
*Paper_Space
  1

  0
ENDBLK
  5
1C
330
1A
100
AcDbEntity
 67
     1
  8
0
100
AcDbBlockEnd
  0
BLOCK
  5
32
330
31
100
AcDbEntity
  8
0
100
AcDbBlockBegin
  2
WWW
 70
     0
 10
375.0
 20
0.0
 30
0.0
  3
WWW
  1

  0
LINE
  5
33
330
31
100
AcDbEntity
  8
11
100
AcDbLine
 10
278.0
 20
36.0
 30
0.0
 11
375.0
 21
36.0
 31
0.0
  0
TEXT
  5
34
330
31
100
AcDbEntity
  8
11
100
AcDbText
 10
280.0
 20
32.5
 30
0.0
 40
2.5
  1
部品名称
100
AcDbText
  0
LINE
  5
35
330
31
100
AcDbEntity
  8
11
100
AcDbLine
 10
278.0
 20
36.0
 30
0.0
 11
278.0
 21
0.0
 31
0.0
  0
LINE
  5
36
330
31
100
AcDbEntity
  8
11
100
AcDbLine
 10
278.0
 20
24.0
 30
0.0
 11
375.0
 21
24.0
 31
0.0
  0
TEXT
  5
37
330
31
100
AcDbEntity
  8
11
100
AcDbText
 10
280.0
 20
20.5
 30
0.0
 40
2.5
  1
品番
100
AcDbText
  0
TEXT
  5
38
330
31
100
AcDbEntity
  8
11
100
AcDbText
 10
280.0
 20
8.5
 30
0.0
 40
2.5
  1
尺度
100
AcDbText
  0
LINE
  5
39
330
31
100
AcDbEntity
  8
11
100
AcDbLine
 10
278.0
 20
12.0
 30
0.0
 11
375.0
 21
12.0
 31
0.0
  0
TEXT
  5
3A
330
31
100
AcDbEntity
  8
11
100
AcDbText
 10
305.0
 20
8.5
 30
0.0
 40
2.5
  1
図番
100
AcDbText
  0
LINE
  5
3B
330
31
100
AcDbEntity
  8
11
100
AcDbLine
 10
303.0
 20
0.0
 30
0.0
 11
303.0
 21
12.0
 31
0.0
  0
ENDBLK
  5
3C
330
31
100
AcDbEntity
  8
0
100
AcDbBlockEnd
  0
BLOCK
  5
1BD
330
1BC
100
AcDbEntity
  8
0
100
AcDbBlockBegin
  2
*U1
 70
     1
 10
0.0
 20
0.0
 30
0.0
  3
*U1
  1

  0
ENDBLK
  5
1BE
330
1BC
100
AcDbEntity
  8
0
100
AcDbBlockEnd
  0
ENDSEC
  0
SECTION
  2
ENTITIES
  0
LINE
  5
3D
330
1E
100
AcDbEntity
  8
0
100
AcDbLine
 10
154.0
 20
128.8633093525195
 30
0.0
 11
154.0
 21
96.56330935254381
 31
0.0
  0
LINE
  5
3E
330
1E
100
AcDbEntity
  8
0
100
AcDbLine
 10
154.0
 20
96.56330935254381
 30
0.0
 11
153.2999999999741
 21
95.86330935251794
 31
0.0
  0
LINE
  5
3F
330
1E
100
AcDbEntity
  8
0
100
AcDbLine
 10
150.0
 20
95.86330935251794
 30
0.0
 11
150.0
 21
91.3633093525483
 31
0.0
  0
LINE
  5
40
330
1E
100
AcDbEntity
  8
0
100
AcDbLine
 10
150.0
 20
91.3633093525483
 30
0.0
 11
149.4999999999695
 21
90.86330935251794
 31
0.0
  0
LINE
  5
41
330
1E
100
AcDbEntity
  8
0
100
AcDbLine
 10
130.0
 20
91.3633093525483
 30
0.0
 11
130.5000000000303
 21
90.86330935251794
 31
0.0
  0
LINE
  5
42
330
1E
100
AcDbEntity
  8
0
100
AcDbLine
 10
130.0
 20
95.86330935251794
 30
0.0
 11
130.0
 21
91.3633093525483
 31
0.0
  0
LINE
  5
43
330
1E
100
AcDbEntity
  8
0
100
AcDbLine
 10
126.0
 20
96.56330935254381
 30
0.0
 11
126.7000000000257
 21
95.86330935251794
 31
0.0
  0
LINE
  5
44
330
1E
100
AcDbEntity
  8
0
100
AcDbLine
 10
126.0
 20
128.8633093525195
 30
0.0
 11
126.0
 21
96.56330935254381
 31
0.0
  0
LINE
  5
45
330
1E
100
AcDbEntity
  8
0
100
AcDbLine
 10
130.367642811186
 20
140.8633093524968
 30
0.0
 11
126.0
 21
128.8633093525195
 31
0.0
  0
LINE
  5
46
330
1E
100
AcDbEntity
  8
0
100
AcDbLine
 10
131.7957908179585
 20
141.8633093525178
 30
0.0
 11
130.367642811186
 21
140.8633093524968
 31
0.0
  0
LINE
  5
47
330
1E
100
AcDbEntity
  8
0
100
AcDbLine
 10
130.5000000000303
 20
90.86330935251794
 30
0.0
 11
149.4999999999695
 21
90.86330935251794
 31
0.0
  0
LINE
  5
48
330
1E
100
AcDbEntity
  8
0
100
AcDbLine
 10
126.7000000000257
 20
95.86330935251794
 30
0.0
 11
153.2999999999741
 21
95.86330935251794
 31
0.0
  0
LINE
  5
49
330
1E
100
AcDbEntity
  8
0
100
AcDbLine
 10
125.9999999999994
 20
128.8633093525178
 30
0.0
 11
153.9999999999998
 21
128.8633093525178
 31
0.0
  0
LINE
  5
4A
330
1E
100
AcDbEntity
  8
0
100
AcDbLine
 10
131.7957908179586
 20
141.863309352518
 30
0.0
 11
148.2042091820414
 21
141.863309352518
 31
0.0
  0
LINE
  5
4B
330
1E
100
AcDbEntity
  8
0
100
AcDbLine
 10
130.3676428112163
 20
140.8633093525178
 30
0.0
 11
149.6323571888138
 21
140.8633093524967
 31
0.0
  0
LINE
  5
4C
330
1E
100
AcDbEntity
  8
1
100
AcDbLine
 10
140.0
 20
250.8030575539567
 30
0.0
 11
140.0
 21
212.8030575539567
 31
0.0
  0
LINE
  5
4D
330
1E
100
AcDbEntity
  8
1
100
AcDbLine
 10
239.0
 20
251.8030575539567
 30
0.0
 11
239.0
 21
211.8030575539568
 31
0.0
  0
LINE
  5
4E
330
1E
100
AcDbEntity
  8
1
100
AcDbLine
 10
120.9999999999999
 20
231.8030575539567
 30
0.0
 11
258.9999999999998
 21
231.8030575539567
 31
0.0
  0
CIRCLE
  5
4F
330
1E
100
AcDbEntity
  8
0
100
AcDbCircle
 10
140.0
 20
231.8030575539567
 30
0.0
 40
8.204209182041365
  0
CIRCLE
  5
50
330
1E
100
AcDbEntity
  8
0
100
AcDbCircle
 10
140.0
 20
231.8030575539567
 30
0.0
 40
9.632357188813923
  0
ARC
  5
51
330
1E
100
AcDbEntity
  8
0
100
AcDbCircle
 10
140.0
 20
231.8030575539567
 30
0.0
 40
14.0
100
AcDbArc
 50
23.13239639929725
 51
336.8676036007026
  0
LINE
  5
52
330
1E
100
AcDbEntity
  8
1
100
AcDbLine
 10
139.9999999999998
 20
152.8633093525178
 30
0.0
 11
140.0
 21
85.86330935251798
 31
0.0
  0
CIRCLE
  5
53
330
1E
100
AcDbEntity
  8
0
100
AcDbCircle
 10
140.0
 20
231.8030575539567
 30
0.0
 40
6.5
  0
LINE
  5
54
330
1E
100
AcDbEntity
  8
0
100
AcDbLine
 10
148.2042091820414
 20
141.8633093525178
 30
0.0
 11
149.6323571888139
 21
140.8633093524968
 31
0.0
  0
LINE
  5
55
330
1E
100
AcDbEntity
  8
0
100
AcDbLine
 10
149.6323571888139
 20
140.8633093524968
 30
0.0
 11
149.9350678060631
 21
140.0316187669749
 31
0.0
  0
LINE
  5
56
330
1E
100
AcDbEntity
  8
1
100
AcDbLine
 10
257.7938524157185
 20
173.4360281203088
 30
0.0
 11
140.0
 21
130.5625720614412
 31
0.0
  0
LINE
  5
57
330
1E
100
AcDbEntity
  8
1
100
AcDbLine
 10
232.1595971334664
 20
185.3894776695061
 30
0.0
 11
245.8404028664931
 21
147.8017728380698
 31
0.0
  0
LINE
  5
58
330
1E
100
AcDbEntity
  8
0
100
AcDbLine
 10
224.2245515383757
 20
169.1813790622404
 30
0.0
 11
229.3434403211503
 21
155.1173477188679
 31
0.0
  0
ARC
  5
59
330
1E
100
AcDbEntity
  8
0
100
AcDbCircle
 10
238.9999999999997
 20
166.5956252537951
 30
0.0
 40
14.99999999999995
100
AcDbArc
 50
229.9264348664504
 51
170.0735651335491
  0
LINE
  5
5A
330
1E
100
AcDbEntity
  8
0
100
AcDbLine
 10
149.9350678060631
 20
140.0316187669749
 30
0.0
 11
224.9028851414419
 21
167.3176728049586
 31
0.0
  0
LINE
  5
5B
330
1E
100
AcDbEntity
  8
0
100
AcDbLine
 10
228.6651067180392
 20
156.9810539762726
 30
0.0
 11
153.6972893826605
 21
129.6949999382889
 31
0.0
  0
ARC
  5
5C
330
1E
100
AcDbEntity
  8
0
100
AcDbCircle
 10
240.3061668345642
 20
231.8030575539567
 30
0.0
 40
16.08161529618903
100
AcDbArc
 50
147.2296225470776
 51
212.7703774529225
  0
ARC
  5
5D
330
1E
100
AcDbEntity
  8
0
100
AcDbCircle
 10
239.0
 20
231.8030575539567
 30
0.0
 40
15.0
100
AcDbArc
 50
215.4718948267217
 51
144.5281051732782
  0
ARC
  5
5E
330
1E
100
AcDbEntity
  8
0
100
AcDbCircle
 10
158.9160853005448
 20
231.8030575539567
 30
0.0
 40
8.981017494481669
100
AcDbArc
 50
142.2365575376306
 51
217.7634424623692
  0
LINE
  5
5F
330
1E
100
AcDbEntity
  8
0
100
AcDbLine
 10
151.8161785943841
 20
237.3030575539567
 30
0.0
 11
225.1943055814085
 21
237.3030575539567
 31
0.0
  0
LINE
  5
60
330
1E
100
AcDbEntity
  8
0
100
AcDbLine
 10
151.8161785943841
 20
226.303057553958
 30
0.0
 11
225.1943055814085
 21
226.3030575539568
 31
0.0
  0
ARC
  5
61
330
1E
100
AcDbEntity
  8
0
100
AcDbCircle
 10
160.6718661569179
 20
138.0865160293637
 30
0.0
 40
10.91156558367215
100
AcDbArc
 50
169.7315362387971
 51
230.2684637612026
  0
LINE
  5
62
330
1E
100
AcDbEntity
  8
0
100
AcDbLine
 10
153.6972893826605
 20
129.6949999382889
 30
0.0
 11
154.0
 21
128.8633093525195
 31
0.0
  0
LINE
  5
63
330
1E
100
AcDbEntity
  8
0
100
AcDbLine
 10
126.0
 20
96.56330935254381
 30
0.0
 11
154.0
 21
96.56330935254381
 31
0.0
  0
LINE
  5
64
330
1E
100
AcDbEntity
  8
0
100
AcDbLine
 10
130.0
 20
91.3633093525483
 30
0.0
 11
150.0
 21
91.3633093525483
 31
0.0
  0
LINE
  5
65
330
1E
100
AcDbEntity
  8
0
100
AcDbLine
 10
152.874393189584
 20
35.71402877697973
 30
0.0
 11
226.7839959297629
 21
35.71402877697838
 31
0.0
  0
LINE
  5
66
330
1E
100
AcDbEntity
  8
0
100
AcDbLine
 10
152.8743931895837
 20
46.71402877697842
 30
0.0
 11
226.7839959297629
 21
46.71402877697842
 31
0.0
  0
ARC
  5
67
330
1E
100
AcDbEntity
  8
0
100
AcDbCircle
 10
239.0
 20
41.21402877697842
 30
0.0
 40
15.0
100
AcDbArc
 50
215.4718948267186
 51
144.5281051732813
  0
LINE
  5
68
330
1E
100
AcDbEntity
  8
1
100
AcDbLine
 10
120.9999999999999
 20
41.21402877697842
 30
0.0
 11
258.9999999999998
 21
41.21402877697842
 31
0.0
  0
LINE
  5
69
330
1E
100
AcDbEntity
  8
1
100
AcDbLine
 10
239.0
 20
61.21402877697843
 30
0.0
 11
239.0
 21
21.2140287769784
 31
0.0
  0
LINE
  5
6A
330
1E
100
AcDbEntity
  8
1
100
AcDbLine
 10
140.0
 20
60.21402877697841
 30
0.0
 11
140.0
 21
22.2140287769784
 31
0.0
  0
CIRCLE
  5
6B
330
1E
100
AcDbEntity
  8
0
100
AcDbCircle
 10
140.0
 20
41.21402877697842
 30
0.0
 40
14.0
  0
CIRCLE
  5
6C
330
1E
100
AcDbEntity
  8
0
100
AcDbCircle
 10
140.0
 20
41.21402877697842
 30
0.0
 40
13.3
  0
CIRCLE
  5
6D
330
1E
100
AcDbEntity
  8
0
100
AcDbCircle
 10
140.0
 20
41.21402877697842
 30
0.0
 40
10.0
  0
CIRCLE
  5
6E
330
1E
100
AcDbEntity
  8
0
100
AcDbCircle
 10
140.0
 20
41.21402877697842
 30
0.0
 40
9.5
  0
CIRCLE
  5
6F
330
1E
100
AcDbEntity
  8
3
100
AcDbCircle
 10
140.0
 20
41.21402877697842
 30
0.0
 40
6.0
  0
CIRCLE
  5
70
330
1E
100
AcDbEntity
  8
0
100
AcDbCircle
 10
140.0
 20
41.21402877697842
 30
0.0
 40
5.052999999999999
  0
CIRCLE
  5
71
330
1E
100
AcDbEntity
  8
0
100
AcDbCircle
 10
317.5868980809683
 20
166.5956252537878
 30
0.0
 40
15.0
  0
LINE
  5
72
330
1E
100
AcDbEntity
  8
1
100
AcDbLine
 10
337.5868980809682
 20
166.5956252537878
 30
0.0
 11
297.5868980809682
 21
166.5956252537878
 31
0.0
  0
LINE
  5
73
330
1E
100
AcDbEntity
  8
1
100
AcDbLine
 10
317.5868980809683
 20
186.5956252537879
 30
0.0
 11
317.5868980809683
 21
85.86330935251798
 31
0.0
  0
LINE
  5
74
330
1E
100
AcDbEntity
  8
0
100
AcDbLine
 10
307.5868980809683
 20
91.3633093525483
 30
0.0
 11
327.5868980809683
 21
91.3633093525483
 31
0.0
  0
LINE
  5
75
330
1E
100
AcDbEntity
  8
0
100
AcDbLine
 10
303.5868980809683
 20
96.56330935254381
 30
0.0
 11
331.5868980809682
 21
96.56330935254381
 31
0.0
  0
LINE
  5
76
330
1E
100
AcDbEntity
  8
0
100
AcDbLine
 10
304.2868980809942
 20
95.86330935251794
 30
0.0
 11
330.8868980809425
 21
95.86330935251794
 31
0.0
  0
LINE
  5
77
330
1E
100
AcDbEntity
  8
0
100
AcDbLine
 10
308.0868980809985
 20
90.86330935251794
 30
0.0
 11
327.086898080938
 21
90.86330935251794
 31
0.0
  0
LINE
  5
78
330
1E
100
AcDbEntity
  8
0
100
AcDbLine
 10
303.5868980809683
 20
128.8633093525195
 30
0.0
 11
303.5868980809683
 21
96.56330935254381
 31
0.0
  0
LINE
  5
79
330
1E
100
AcDbEntity
  8
0
100
AcDbLine
 10
303.5868980809683
 20
96.56330935254381
 30
0.0
 11
304.2868980809941
 21
95.86330935251794
 31
0.0
  0
LINE
  5
7A
330
1E
100
AcDbEntity
  8
0
100
AcDbLine
 10
307.5868980809683
 20
95.86330935251794
 30
0.0
 11
307.5868980809683
 21
91.3633093525483
 31
0.0
  0
LINE
  5
7B
330
1E
100
AcDbEntity
  8
0
100
AcDbLine
 10
307.5868980809683
 20
91.3633093525483
 30
0.0
 11
308.0868980809985
 21
90.86330935251794
 31
0.0
  0
LINE
  5
7C
330
1E
100
AcDbEntity
  8
0
100
AcDbLine
 10
327.5868980809683
 20
91.3633093525483
 30
0.0
 11
327.086898080938
 21
90.86330935251794
 31
0.0
  0
LINE
  5
7D
330
1E
100
AcDbEntity
  8
0
100
AcDbLine
 10
327.5868980809683
 20
95.86330935251794
 30
0.0
 11
327.5868980809683
 21
91.3633093525483
 31
0.0
  0
LINE
  5
7E
330
1E
100
AcDbEntity
  8
0
100
AcDbLine
 10
331.5868980809682
 20
96.56330935254381
 30
0.0
 11
330.8868980809425
 21
95.86330935251794
 31
0.0
  0
LINE
  5
7F
330
1E
100
AcDbEntity
  8
0
100
AcDbLine
 10
331.5868980809682
 20
128.8633093525195
 30
0.0
 11
331.5868980809682
 21
96.56330935254381
 31
0.0
  0
LINE
  5
80
330
1E
100
AcDbEntity
  8
0
100
AcDbLine
 10
303.5868980809677
 20
128.8633093525178
 30
0.0
 11
331.5868980809681
 21
128.8633093525178
 31
0.0
  0
POLYLINE
  5
81
330
1E
100
AcDbEntity
  8
0
100
AcDb2dPolyline
 66
     1
 10
0.0
 20
0.0
 30
0.0
  0
VERTEX
  5
82
330
81
100
AcDbEntity
  8
0
100
AcDbVertex
100
AcDb2dVertex
 10
312.0868980809696
 20
134.3545408044672
 30
0.0
 42
0.1141798192928102
  0
VERTEX
  5
83
330
81
100
AcDbEntity
  8
0
100
AcDbVertex
100
AcDb2dVertex
 10
312.4902175368932
 20
132.6114071662929
 30
0.0
 42
0.1036655751737173
  0
VERTEX
  5
84
330
81
100
AcDbEntity
  8
0
100
AcDbVertex
100
AcDb2dVertex
 10
313.6978107844431
 20
131.0597478607768
 30
0.0
 42
0.091596947959034
 70
     2
 50
319.7290876603497
  0
VERTEX
  5
85
330
81
100
AcDbEntity
  8
0
100
AcDbVertex
100
AcDb2dVertex
 10
315.6105710066484
 20
129.9641276048186
 30
0.0
 42
0.1014198956808472
 50
319.7290876603497
  0
VERTEX
  5
86
330
81
100
AcDbEntity
  8
0
100
AcDbVertex
100
AcDb2dVertex
 10
317.5868980809683
 20
129.6949999382889
 30
0.0
 42
0.0845737225278588
  0
VERTEX
  5
87
330
81
100
AcDbEntity
  8
0
100
AcDbVertex
100
AcDb2dVertex
 10
319.7311336744255
 20
130.0603048321465
 30
0.0
 42
0.0915969479590276
  0
VERTEX
  5
88
330
81
100
AcDbEntity
  8
0
100
AcDbVertex
100
AcDb2dVertex
 10
321.4759853774933
 20
131.0597478607768
 30
0.0
 42
0.1036655751737352
 70
     2
 50
40.27091233965032
  0
VERTEX
  5
89
330
81
100
AcDbEntity
  8
0
100
AcDbVertex
100
AcDb2dVertex
 10
322.6835786250432
 20
132.611407166293
 30
0.0
 42
0.1141798192928172
 50
40.27091233965032
  0
VERTEX
  5
8A
330
81
100
AcDbEntity
  8
0
100
AcDbVertex
100
AcDb2dVertex
 10
323.0868980809669
 20
134.3545408044672
 30
0.0
 42
0.1141798192928102
  0
SEQEND
  5
8B
330
81
100
AcDbEntity
  8
0
  0
LINE
  5
8C
330
1E
100
AcDbEntity
  8
0
100
AcDbLine
 10
312.0868980809696
 20
134.3545408044672
 30
0.0
 11
312.0868980809696
 21
152.6403395168345
 31
0.0
  0
LINE
  5
8D
330
1E
100
AcDbEntity
  8
0
100
AcDbLine
 10
323.0868980809669
 20
134.3545408044672
 30
0.0
 11
323.0868980809669
 21
152.640339516835
 31
0.0
  0
LINE
  5
8E
330
1E
100
AcDbEntity
  8
0
100
AcDbLine
 10
307.9545408921847
 20
140.863309352518
 30
0.0
 11
312.0868980809696
 21
140.8633093525135
 31
0.0
  0
LINE
  5
8F
330
1E
100
AcDbEntity
  8
0
100
AcDbLine
 10
309.3826888989269
 20
141.8633093525181
 30
0.0
 11
312.0868980809696
 21
141.863309352518
 31
0.0
  0
LINE
  5
90
330
1E
100
AcDbEntity
  8
0
100
AcDbLine
 10
309.3826888989269
 20
141.863309352518
 30
0.0
 11
307.9545408921545
 21
140.8633093524968
 31
0.0
  0
LINE
  5
91
330
1E
100
AcDbEntity
  8
0
100
AcDbLine
 10
307.9545408921545
 20
140.8633093524968
 30
0.0
 11
303.5868980809683
 21
128.8633093525195
 31
0.0
  0
LINE
  5
92
330
1E
100
AcDbEntity
  8
0
100
AcDbLine
 10
325.7911072630099
 20
141.863309352518
 30
0.0
 11
327.2192552697823
 21
140.8633093524968
 31
0.0
  0
LINE
  5
93
330
1E
100
AcDbEntity
  8
0
100
AcDbLine
 10
327.2192552697822
 20
140.8633093524968
 30
0.0
 11
331.5868980809681
 21
128.8633093525195
 31
0.0
  0
LINE
  5
94
330
1E
100
AcDbEntity
  8
0
100
AcDbLine
 10
323.0868980809669
 20
140.8633093525012
 30
0.0
 11
327.2192552697823
 21
140.8633093524968
 31
0.0
  0
LINE
  5
95
330
1E
100
AcDbEntity
  8
0
100
AcDbLine
 10
323.0868980809669
 20
141.8633093525181
 30
0.0
 11
325.7911072630097
 21
141.8633093525181
 31
0.0
  0
LINE
  5
96
330
1E
100
AcDbEntity
  8
0
100
AcDbLine
 10
64.02032750237414
 20
140.8633093524968
 30
0.0
 11
68.38797031356024
 21
128.8633093525195
 31
0.0
  0
LINE
  5
97
330
1E
100
AcDbEntity
  8
0
100
AcDbLine
 10
62.59217949560185
 20
141.863309352518
 30
0.0
 11
64.02032750237433
 21
140.8633093524968
 31
0.0
  0
LINE
  5
98
330
1E
100
AcDbEntity
  8
0
100
AcDbLine
 10
44.75561312474646
 20
140.8633093524968
 30
0.0
 11
40.38797031356035
 21
128.8633093525195
 31
0.0
  0
LINE
  5
99
330
1E
100
AcDbEntity
  8
0
100
AcDbLine
 10
46.18376113151898
 20
141.863309352518
 30
0.0
 11
44.75561312474646
 21
140.8633093524968
 31
0.0
  0
LINE
  5
9A
330
1E
100
AcDbEntity
  8
0
100
AcDbLine
 10
46.18376113151898
 20
141.8633093525181
 30
0.0
 11
62.59217949560197
 21
141.8633093525178
 31
0.0
  0
LINE
  5
9B
330
1E
100
AcDbEntity
  8
0
100
AcDbLine
 10
44.75561312477671
 20
140.863309352518
 30
0.0
 11
64.02032750237411
 21
140.863309352497
 31
0.0
  0
LINE
  5
9C
330
1E
100
AcDbEntity
  8
0
100
AcDbLine
 10
59.887970313559
 20
141.8633093525178
 30
0.0
 11
59.887970313559
 21
162.1493633905543
 31
0.0
  0
LINE
  5
9D
330
1E
100
AcDbEntity
  8
0
100
AcDbLine
 10
48.88797031356162
 20
141.8633093525181
 30
0.0
 11
48.88797031356161
 21
162.1493633905543
 31
0.0
  0
LINE
  5
9E
330
1E
100
AcDbEntity
  8
0
100
AcDbLine
 10
40.38797031355974
 20
128.8633093525178
 30
0.0
 11
68.38797031356024
 21
128.8633093525178
 31
0.0
  0
LINE
  5
9F
330
1E
100
AcDbEntity
  8
0
100
AcDbLine
 10
68.38797031356029
 20
128.8633093525195
 30
0.0
 11
68.38797031356029
 21
96.56330935254381
 31
0.0
  0
LINE
  5
A0
330
1E
100
AcDbEntity
  8
0
100
AcDbLine
 10
68.38797031356029
 20
96.56330935254381
 30
0.0
 11
67.68797031353449
 21
95.86330935251794
 31
0.0
  0
LINE
  5
A1
330
1E
100
AcDbEntity
  8
0
100
AcDbLine
 10
64.38797031356028
 20
95.86330935251794
 30
0.0
 11
64.38797031356028
 21
91.3633093525483
 31
0.0
  0
LINE
  5
A2
330
1E
100
AcDbEntity
  8
0
100
AcDbLine
 10
64.38797031356028
 20
91.3633093525483
 30
0.0
 11
63.88797031353
 21
90.86330935251794
 31
0.0
  0
LINE
  5
A3
330
1E
100
AcDbEntity
  8
0
100
AcDbLine
 10
44.3879703135603
 20
91.3633093525483
 30
0.0
 11
44.88797031359061
 21
90.86330935251794
 31
0.0
  0
LINE
  5
A4
330
1E
100
AcDbEntity
  8
0
100
AcDbLine
 10
44.3879703135603
 20
95.86330935251794
 30
0.0
 11
44.3879703135603
 21
91.3633093525483
 31
0.0
  0
LINE
  5
A5
330
1E
100
AcDbEntity
  8
0
100
AcDbLine
 10
40.38797031356032
 20
96.56330935254381
 30
0.0
 11
41.08797031358609
 21
95.86330935251794
 31
0.0
  0
LINE
  5
A6
330
1E
100
AcDbEntity
  8
0
100
AcDbLine
 10
40.38797031356032
 20
128.8633093525195
 30
0.0
 11
40.38797031356032
 21
96.56330935254381
 31
0.0
  0
LINE
  5
A7
330
1E
100
AcDbEntity
  8
0
100
AcDbLine
 10
44.88797031359061
 20
90.86330935251794
 30
0.0
 11
63.88797031353
 21
90.86330935251794
 31
0.0
  0
LINE
  5
A8
330
1E
100
AcDbEntity
  8
0
100
AcDbLine
 10
41.08797031358615
 20
95.86330935251794
 30
0.0
 11
67.68797031353449
 21
95.86330935251794
 31
0.0
  0
LINE
  5
A9
330
1E
100
AcDbEntity
  8
0
100
AcDbLine
 10
40.38797031356032
 20
96.56330935254381
 30
0.0
 11
68.38797031356029
 21
96.56330935254381
 31
0.0
  0
LINE
  5
AA
330
1E
100
AcDbEntity
  8
0
100
AcDbLine
 10
44.3879703135603
 20
91.3633093525483
 30
0.0
 11
64.38797031356036
 21
91.3633093525483
 31
0.0
  0
LINE
  5
AB
330
1E
100
AcDbEntity
  8
1
100
AcDbLine
 10
54.38797031356031
 20
186.5956252537879
 30
0.0
 11
54.38797031356036
 21
85.86330935251798
 31
0.0
  0
LINE
  5
AC
330
1E
100
AcDbEntity
  8
1
100
AcDbLine
 10
74.38797031356028
 20
166.5956252537878
 30
0.0
 11
34.38797031356031
 21
166.5956252537878
 31
0.0
  0
ARC
  5
AD
330
1E
100
AcDbEntity
  8
0
100
AcDbCircle
 10
54.38797031356031
 20
166.5956252537878
 30
0.0
 40
15.0
100
AcDbArc
 50
291.5101882668821
 51
248.4898117331179
  0
POLYLINE
  5
AE
330
1E
100
AcDbEntity
  8
0
100
AcDb2dPolyline
 66
     1
 10
0.0
 20
0.0
 30
0.0
  0
VERTEX
  5
AF
330
AE
100
AcDbEntity
  8
0
100
AcDbVertex
100
AcDb2dVertex
 10
45.6834172201521
 20
162.1493633905541
 30
0.0
 42
0.1190024684030902
  0
VERTEX
  5
B0
330
AE
100
AcDbEntity
  8
0
100
AcDbVertex
100
AcDb2dVertex
 10
46.31391344986425
 20
159.5377898218024
 30
0.0
 42
0.1047562874250018
  0
VERTEX
  5
B1
330
AE
100
AcDbEntity
  8
0
100
AcDbVertex
100
AcDb2dVertex
 10
48.23292179401303
 20
157.176977423695
 30
0.0
 42
0.0210184703065792
 70
     2
 50
321.0668197562519
  0
VERTEX
  5
B2
330
AE
100
AcDbEntity
  8
0
100
AcDbVertex
100
AcDb2dVertex
 10
48.88797031356162
 20
156.6918246361554
 30
0.0
 42
0.0973533554750373
 50
321.0668197562519
  0
SEQEND
  5
B3
330
AE
100
AcDbEntity
  8
0
  0
POLYLINE
  5
B4
330
1E
100
AcDbEntity
  8
0
100
AcDb2dPolyline
 66
     1
 10
0.0
 20
0.0
 30
0.0
  0
VERTEX
  5
B5
330
B4
100
AcDbEntity
  8
0
100
AcDbVertex
100
AcDb2dVertex
 10
59.887970313559
 20
156.6958951853474
 30
0.0
 42
0.0230318587996901
  0
VERTEX
  5
B6
330
B4
100
AcDbEntity
  8
0
100
AcDbVertex
100
AcDb2dVertex
 10
60.54301883310757
 20
157.176977423695
 30
0.0
 42
0.1047562874250049
 70
     2
 50
38.93318024374796
  0
VERTEX
  5
B7
330
B4
100
AcDbEntity
  8
0
100
AcDbVertex
100
AcDb2dVertex
 10
62.46202717725635
 20
159.5377898218024
 30
0.0
 42
0.119002468403088
 50
38.93318024374796
  0
VERTEX
  5
B8
330
B4
100
AcDbEntity
  8
0
100
AcDbVertex
100
AcDb2dVertex
 10
63.09252340696848
 20
162.1493633905541
 30
0.0
 42
0.1190024684030842
  0
VERTEX
  5
B9
330
B4
100
AcDbEntity
  8
0
100
AcDbVertex
100
AcDb2dVertex
 10
62.46202717725635
 20
164.760936959306
 30
0.0
 42
0.1047562874249957
  0
VERTEX
  5
BA
330
B4
100
AcDbEntity
  8
0
100
AcDbVertex
100
AcDb2dVertex
 10
60.54301883310757
 20
167.1217493574133
 30
0.0
 42
0.0893869526337153
 70
     2
 50
141.066819756252
  0
VERTEX
  5
BB
330
B4
100
AcDbEntity
  8
0
100
AcDbVertex
100
AcDb2dVertex
 10
57.79724319874354
 20
168.6260978787037
 30
0.0
 42
0.0809038534103345
 50
141.066819756252
  0
VERTEX
  5
BC
330
B4
100
AcDbEntity
  8
0
100
AcDbVertex
100
AcDb2dVertex
 10
54.38797031356031
 20
169.18137906224
 30
0.0
 42
0.0809038534103342
  0
VERTEX
  5
BD
330
B4
100
AcDbEntity
  8
0
100
AcDbVertex
100
AcDb2dVertex
 10
50.97869742837711
 20
168.6260978787037
 30
0.0
 42
0.0893869526337183
  0
VERTEX
  5
BE
330
B4
100
AcDbEntity
  8
0
100
AcDbVertex
100
AcDb2dVertex
 10
48.23292179401304
 20
167.1217493574133
 30
0.0
 42
0.1047562874250031
 70
     2
 50
218.9331802437479
  0
VERTEX
  5
BF
330
B4
100
AcDbEntity
  8
0
100
AcDbVertex
100
AcDb2dVertex
 10
46.31391344986425
 20
164.7609369593059
 30
0.0
 42
0.1190024684030898
 50
218.9331802437479
  0
VERTEX
  5
C0
330
B4
100
AcDbEntity
  8
0
100
AcDbVertex
100
AcDb2dVertex
 10
45.6834172201521
 20
162.1493633905541
 30
0.0
 42
0.1190024684030902
  0
SEQEND
  5
C1
330
B4
100
AcDbEntity
  8
0
  0
POLYLINE
  5
C2
330
1E
100
AcDbEntity
  8
0
100
AcDb2dPolyline
 66
     1
 10
0.0
 20
0.0
 30
0.0
  0
VERTEX
  5
C3
330
C2
100
AcDbEntity
  8
0
100
AcDbVertex
100
AcDb2dVertex
 10
59.887970313559
 20
162.1493633905543
 30
0.0
 42
0.1041679131282657
  0
VERTEX
  5
C4
330
C2
100
AcDbEntity
  8
0
100
AcDbVertex
100
AcDb2dVertex
 10
59.47472337292666
 20
164.1114014345231
 30
0.0
 42
0.100664232644868
  0
VERTEX
  5
C5
330
C2
100
AcDbEntity
  8
0
100
AcDbVertex
100
AcDb2dVertex
 10
58.27705761008538
 20
165.8039100247499
 30
0.0
 42
0.096075592701634
 70
     2
 50
136.7808211058257
  0
VERTEX
  5
C6
330
C2
100
AcDbEntity
  8
0
100
AcDbVertex
100
AcDb2dVertex
 10
56.50843685946774
 20
166.9195424403677
 30
0.0
 42
0.0930649262577974
 50
136.7808211058257
  0
VERTEX
  5
C7
330
C2
100
AcDbEntity
  8
0
100
AcDbVertex
100
AcDb2dVertex
 10
54.38797031356029
 20
167.3176728049586
 30
0.0
 42
0.0930649262577921
  0
VERTEX
  5
C8
330
C2
100
AcDbEntity
  8
0
100
AcDbVertex
100
AcDb2dVertex
 10
52.2675037676529
 20
166.9195424403677
 30
0.0
 42
0.0960755927016313
  0
VERTEX
  5
C9
330
C2
100
AcDbEntity
  8
0
100
AcDbVertex
100
AcDb2dVertex
 10
50.4988830170352
 20
165.8039100247499
 30
0.0
 42
0.1006642326448726
 70
     2
 50
223.2191788941741
  0
VERTEX
  5
CA
330
C2
100
AcDbEntity
  8
0
100
AcDbVertex
100
AcDb2dVertex
 10
49.30121725419393
 20
164.1114014345231
 30
0.0
 42
0.1041679131282666
 50
223.2191788941741
  0
VERTEX
  5
CB
330
C2
100
AcDbEntity
  8
0
100
AcDbVertex
100
AcDb2dVertex
 10
48.88797031356161
 20
162.1493633905543
 30
0.0
 42
0.1041679131282663
  0
SEQEND
  5
CC
330
C2
100
AcDbEntity
  8
0
  0
POLYLINE
  5
CD
330
1E
100
AcDbEntity
  8
0
100
AcDb2dPolyline
 66
     1
 10
0.0
 20
0.0
 30
0.0
  0
VERTEX
  5
CE
330
CD
100
AcDbEntity
  8
0
100
AcDbVertex
100
AcDb2dVertex
 10
226.7839959297631
 20
49.91858187038616
 30
0.0
 42
0.2429900743127683
  0
VERTEX
  5
CF
330
CD
100
AcDbEntity
  8
0
100
AcDbVertex
100
AcDb2dVertex
 10
226.0193552280262
 20
49.52366407245989
 30
0.0
 42
0.0830249087022989
  0
VERTEX
  5
D0
330
CD
100
AcDbEntity
  8
0
100
AcDbVertex
100
AcDb2dVertex
 10
224.9741954445434
 20
47.36907729652536
 30
0.0
 42
0.0092667718201213
 70
     2
 50
253.6148112735417
  0
VERTEX
  5
D1
330
CD
100
AcDbEntity
  8
0
100
AcDbVertex
100
AcDb2dVertex
 10
224.7947077858767
 20
46.71402877697842
 30
0.0
 42
0.0387910806414877
 50
253.6148112735417
  0
SEQEND
  5
D2
330
CD
100
AcDbEntity
  8
0
  0
POLYLINE
  5
D3
330
1E
100
AcDbEntity
  8
0
100
AcDb2dPolyline
 66
     1
 10
0.0
 20
0.0
 30
0.0
  0
VERTEX
  5
D4
330
D3
100
AcDbEntity
  8
0
100
AcDbVertex
100
AcDb2dVertex
 10
224.7965828943508
 20
35.71402877697841
 30
0.0
 42
0.0105991918168016
  0
VERTEX
  5
D5
330
D3
100
AcDbEntity
  8
0
100
AcDbVertex
100
AcDb2dVertex
 10
224.9741954445434
 20
35.05898025743146
 30
0.0
 42
0.0830249087023019
 70
     2
 50
286.3851887264581
  0
VERTEX
  5
D6
330
D3
100
AcDbEntity
  8
0
100
AcDbVertex
100
AcDb2dVertex
 10
226.0193552280262
 20
32.90439348149689
 30
0.0
 42
0.2429900743127733
 50
286.3851887264581
  0
VERTEX
  5
D7
330
D3
100
AcDbEntity
  8
0
100
AcDbVertex
100
AcDb2dVertex
 10
226.7839959297631
 20
32.50947568357068
 30
0.0
 42
0.2429900743127646
  0
VERTEX
  5
D8
330
D3
100
AcDbEntity
  8
0
100
AcDbVertex
100
AcDb2dVertex
 10
227.5486366314999
 20
32.90439348149691
 30
0.0
 42
0.0830249087023029
  0
VERTEX
  5
D9
330
D3
100
AcDbEntity
  8
0
100
AcDbVertex
100
AcDb2dVertex
 10
228.5937964149827
 20
35.05898025743146
 30
0.0
 42
0.0412180839240497
 70
     2
 50
73.61481127354179
  0
VERTEX
  5
DA
330
D3
100
AcDbEntity
  8
0
100
AcDbVertex
100
AcDb2dVertex
 10
229.1265772655321
 20
37.63970666332466
 30
0.0
 42
0.0303083827848828
 50
73.61481127354179
  0
VERTEX
  5
DB
330
D3
100
AcDbEntity
  8
0
100
AcDbVertex
100
AcDb2dVertex
 10
229.3434403211501
 20
41.21402877697841
 30
0.0
 42
0.0303083827848832
  0
VERTEX
  5
DC
330
D3
100
AcDbEntity
  8
0
100
AcDbVertex
100
AcDb2dVertex
 10
229.1265772655321
 20
44.78835089063204
 30
0.0
 42
0.0412180839240538
  0
VERTEX
  5
DD
330
D3
100
AcDbEntity
  8
0
100
AcDbVertex
100
AcDb2dVertex
 10
228.5937964149827
 20
47.36907729652536
 30
0.0
 42
0.0830249087023019
 70
     2
 50
106.3851887264581
  0
VERTEX
  5
DE
330
D3
100
AcDbEntity
  8
0
100
AcDbVertex
100
AcDb2dVertex
 10
227.5486366314999
 20
49.52366407245992
 30
0.0
 42
0.2429900743127771
 50
106.3851887264581
  0
VERTEX
  5
DF
330
D3
100
AcDbEntity
  8
0
100
AcDbVertex
100
AcDb2dVertex
 10
226.7839959297631
 20
49.91858187038616
 30
0.0
 42
0.2429900743127683
  0
SEQEND
  5
E0
330
D3
100
AcDbEntity
  8
0
  0
POLYLINE
  5
E1
330
1E
100
AcDbEntity
  8
0
100
AcDb2dPolyline
 66
     1
 10
0.0
 20
0.0
 30
0.0
  0
VERTEX
  5
E2
330
E1
100
AcDbEntity
  8
0
100
AcDbVertex
100
AcDb2dVertex
 10
226.7839959297631
 20
35.71402877697838
 30
0.0
 42
0.2237701453327554
  0
VERTEX
  5
E3
330
E1
100
AcDbEntity
  8
0
100
AcDbVertex
100
AcDb2dVertex
 10
227.3668714935679
 20
35.98863968987047
 30
0.0
 42
0.0904136542731567
  0
VERTEX
  5
E4
330
E1
100
AcDbEntity
  8
0
100
AcDbVertex
100
AcDb2dVertex
 10
228.1141421243164
 20
37.32494148045236
 30
0.0
 42
0.0472389281875431
 70
     2
 50
71.11827876923206
  0
VERTEX
  5
E5
330
E1
100
AcDbEntity
  8
0
100
AcDbVertex
100
AcDb2dVertex
 10
228.5063947062112
 20
38.96224508870681
 30
0.0
 42
0.0351977384397381
 50
71.11827876923206
  0
VERTEX
  5
E6
330
E1
100
AcDbEntity
  8
0
100
AcDbVertex
100
AcDb2dVertex
 10
228.6651067180392
 20
41.21402877697839
 30
0.0
 42
0.0351977384397329
  0
VERTEX
  5
E7
330
E1
100
AcDbEntity
  8
0
100
AcDbVertex
100
AcDb2dVertex
 10
228.5063947062112
 20
43.46581246524988
 30
0.0
 42
0.0472389281875404
  0
VERTEX
  5
E8
330
E1
100
AcDbEntity
  8
0
100
AcDbVertex
100
AcDb2dVertex
 10
228.1141421243164
 20
45.10311607350441
 30
0.0
 42
0.0904136542731583
 70
     2
 50
108.8817212307678
  0
VERTEX
  5
E9
330
E1
100
AcDbEntity
  8
0
100
AcDbVertex
100
AcDb2dVertex
 10
227.3668714935679
 20
46.43941786408634
 30
0.0
 42
0.2237701453327391
 50
108.8817212307678
  0
VERTEX
  5
EA
330
E1
100
AcDbEntity
  8
0
100
AcDbVertex
100
AcDb2dVertex
 10
226.7839959297631
 20
46.71402877697842
 30
0.0
 42
0.2237701453327495
  0
SEQEND
  5
EB
330
E1
100
AcDbEntity
  8
0
  0
LINE
  5
F3
330
1E
100
AcDbEntity
  8
2
100
AcDbLine
 10
132.9469999999998
 20
90.86330935251799
 30
0.0
 11
134.9469999999999
 21
92.86330935251799
 31
0.0
  0
LINE
  5
F4
330
1E
100
AcDbEntity
  8
2
100
AcDbLine
 10
145.053
 20
92.86330935251799
 30
0.0
 11
134.9469999999999
 21
92.86330935251799
 31
0.0
  0
LINE
  5
F5
330
1E
100
AcDbEntity
  8
2
100
AcDbLine
 10
147.0529999999999
 20
90.86330935251799
 30
0.0
 11
145.053
 21
92.86330935251799
 31
0.0
  0
LINE
  5
F6
330
1E
100
AcDbEntity
  8
2
100
AcDbLine
 10
134.0
 20
116.8633093525179
 30
0.0
 11
146.0
 21
116.8633093525179
 31
0.0
  0
LINE
  5
F7
330
1E
100
AcDbEntity
  8
2
100
AcDbLine
 10
146.0
 20
91.91630935251799
 30
0.0
 11
146.0
 21
116.8633093525179
 31
0.0
  0
LINE
  5
F8
330
1E
100
AcDbEntity
  8
2
100
AcDbLine
 10
145.053
 20
92.86330935251799
 30
0.0
 11
145.053
 21
116.8633093525179
 31
0.0
  0
LINE
  5
F9
330
1E
100
AcDbEntity
  8
2
100
AcDbLine
 10
134.9469999999999
 20
92.86330935251799
 30
0.0
 11
134.9469999999999
 21
116.8633093525179
 31
0.0
  0
LINE
  5
FA
330
1E
100
AcDbEntity
  8
2
100
AcDbLine
 10
134.0
 20
91.91630935251799
 30
0.0
 11
134.0
 21
116.8633093525179
 31
0.0
  0
LINE
  5
FB
330
1E
100
AcDbEntity
  8
2
100
AcDbLine
 10
48.38797031356039
 20
91.91630935251794
 30
0.0
 11
48.38797031356039
 21
116.8633093525179
 31
0.0
  0
LINE
  5
FC
330
1E
100
AcDbEntity
  8
2
100
AcDbLine
 10
49.33497031356039
 20
92.86330935251793
 30
0.0
 11
49.33497031356042
 21
116.8633093525179
 31
0.0
  0
LINE
  5
FD
330
1E
100
AcDbEntity
  8
2
100
AcDbLine
 10
59.44097031356044
 20
92.86330935251793
 30
0.0
 11
59.44097031356044
 21
116.8633093525179
 31
0.0
  0
LINE
  5
FE
330
1E
100
AcDbEntity
  8
2
100
AcDbLine
 10
60.38797031356039
 20
91.91630935251794
 30
0.0
 11
60.38797031356039
 21
116.8633093525179
 31
0.0
  0
LINE
  5
FF
330
1E
100
AcDbEntity
  8
2
100
AcDbLine
 10
48.38797031356039
 20
116.8633093525179
 30
0.0
 11
60.38797031356039
 21
116.8633093525179
 31
0.0
  0
LINE
  5
100
330
1E
100
AcDbEntity
  8
2
100
AcDbLine
 10
61.44097031356044
 20
90.86330935251794
 30
0.0
 11
59.44097031356037
 21
92.86330935251793
 31
0.0
  0
LINE
  5
101
330
1E
100
AcDbEntity
  8
2
100
AcDbLine
 10
59.44097031356037
 20
92.86330935251793
 30
0.0
 11
49.33497031356039
 21
92.86330935251793
 31
0.0
  0
LINE
  5
102
330
1E
100
AcDbEntity
  8
2
100
AcDbLine
 10
47.33497031356033
 20
90.86330935251794
 30
0.0
 11
49.33497031356039
 21
92.86330935251793
 31
0.0
  0
LINE
  5
103
330
1E
100
AcDbEntity
  8
2
100
AcDbLine
 10
311.5868980809683
 20
91.91630935251808
 30
0.0
 11
311.5868980809683
 21
116.863309352518
 31
0.0
  0
LINE
  5
104
330
1E
100
AcDbEntity
  8
2
100
AcDbLine
 10
312.5338980809683
 20
92.86330935251809
 30
0.0
 11
312.5338980809683
 21
116.863309352518
 31
0.0
  0
LINE
  5
105
330
1E
100
AcDbEntity
  8
2
100
AcDbLine
 10
322.6398980809683
 20
92.86330935251809
 30
0.0
 11
322.6398980809683
 21
116.863309352518
 31
0.0
  0
LINE
  5
106
330
1E
100
AcDbEntity
  8
2
100
AcDbLine
 10
323.5868980809683
 20
91.91630935251808
 30
0.0
 11
323.5868980809683
 21
116.863309352518
 31
0.0
  0
LINE
  5
107
330
1E
100
AcDbEntity
  8
2
100
AcDbLine
 10
311.5868980809683
 20
116.863309352518
 30
0.0
 11
323.5868980809683
 21
116.863309352518
 31
0.0
  0
LINE
  5
108
330
1E
100
AcDbEntity
  8
2
100
AcDbLine
 10
324.6398980809683
 20
90.86330935251808
 30
0.0
 11
322.6398980809683
 21
92.86330935251809
 31
0.0
  0
LINE
  5
109
330
1E
100
AcDbEntity
  8
2
100
AcDbLine
 10
322.6398980809683
 20
92.86330935251809
 30
0.0
 11
312.5338980809683
 21
92.86330935251809
 31
0.0
  0
LINE
  5
10A
330
1E
100
AcDbEntity
  8
2
100
AcDbLine
 10
310.5338980809682
 20
90.86330935251808
 30
0.0
 11
312.5338980809683
 21
92.86330935251809
 31
0.0
  0
ENDSEC
  0
SECTION
  2
OBJECTS
  0
DICTIONARY
  5
C
330
0
100
AcDbDictionary
281
     1
  3
ACAD_GROUP
350
D
  3
ACAD_LAYOUT
350
19
  3
ACAD_MLINESTYLE
350
16
  3
ACAD_PLOTSETTINGS
350
18
  3
ACAD_PLOTSTYLENAME
350
E
  3
AcDbVariableDictionary
350
1F3
  3
AcmDictionary
350
1C6
  3
AMG
350
10E
  3
AMGSNAPSETTINGS
350
1E3
  3
DWGPROPS
350
1C9
  3
MAPISURF_MODULE
350
199
  0
DICTIONARY
  5
1EA
330
1E
100
AcDbDictionary
280
     1
281
     1
  3
ACAD_INDEX
360
1EB
  0
DICTIONARY
  5
D
102
{ACAD_REACTORS
330
C
102
}
330
C
100
AcDbDictionary
281
     1
  0
DICTIONARY
  5
19
102
{ACAD_REACTORS
330
C
102
}
330
C
100
AcDbDictionary
281
     1
  3
Model
350
21
  3
ﾚｲｱｳﾄ1
350
1D
  0
DICTIONARY
  5
16
102
{ACAD_REACTORS
330
C
102
}
330
C
100
AcDbDictionary
281
     1
  3
Standard
350
17
  0
DICTIONARY
  5
18
102
{ACAD_REACTORS
330
C
102
}
330
C
100
AcDbDictionary
281
     1
  0
ACDBDICTIONARYWDFLT
  5
E
102
{ACAD_REACTORS
330
C
102
}
330
C
100
AcDbDictionary
281
     1
  3
Normal
350
F
100
AcDbDictionaryWithDefault
340
F
  0
DICTIONARY
  5
1F3
102
{ACAD_REACTORS
330
C
102
}
330
C
100
AcDbDictionary
281
     1
  3
DIMASSOC
350
1F5
  3
INDEXCTL
350
1F4
  0
DICTIONARY
  5
1C6
102
{ACAD_REACTORS
330
C
102
}
330
C
100
AcDbDictionary
281
     1
  3
AcmBOMDATA
350
1C7
  0
DICTIONARY
  5
10E
102
{ACAD_REACTORS
330
C
102
}
330
C
100
AcDbDictionary
281
     1
  3
AcMgSettings
350
10F
  3
AMGLAYCFG
350
1D3
  0
DICTIONARY
  5
1E3
102
{ACAD_REACTORS
330
C
102
}
330
C
100
AcDbDictionary
281
     1
  3
DIMENSION
350
1E8
  3
FEA
350
1E7
  3
HATCH (1)
350
1E4
  3
HATCH (2)
350
1E5
  3
SIMPLE WELD
350
1E9
  3
SYMBOLS
350
1E6
  0
XRECORD
  5
1C9
102
{ACAD_REACTORS
330
C
102
}
330
C
100
AcDbXrecord
280
     1
  1
DWGPROPS COOKIE
  2

  3

  4

  6

  7

  8

  9

300
AmdtFileType=84
301
=
302
=
303
=
304
=
305
=
306
=
307
=
308
=
309
=
 40
0.000002349537037
 41
2450683.567453704
 42
2450683.567453704
  1

 90
        1
  0
DICTIONARY
  5
1EB
102
{ACAD_REACTORS
330
1EA
102
}
330
1EA
100
AcDbDictionary
281
     1
  3
*A1
350
1EC
  0
LAYOUT
  5
21
102
{ACAD_REACTORS
330
19
102
}
330
19
100
AcDbPlotSettings
  1

  2
\\KONISHIDENXP\SHARP MX-2700FG
  4

  6

 40
0.0
 41
0.0
 42
0.0
 43
0.0
 44
0.0
 45
0.0
 46
0.0
 47
0.0
 48
0.0
 49
0.0
140
0.0
141
0.0
142
1.0
143
1.0
 70
  1712
 72
     0
 73
     0
 74
     0
  7

 75
     0
147
1.0
148
0.0
149
0.0
100
AcDbLayout
  1
Model
 70
     1
 71
     0
 10
0.0
 20
0.0
 11
12.0
 21
9.0
 12
0.0
 22
0.0
 32
0.0
 14
0.0
 24
0.0
 34
0.0
 15
0.0
 25
0.0
 35
0.0
146
0.0
 13
0.0
 23
0.0
 33
0.0
 16
1.0
 26
0.0
 36
0.0
 17
0.0
 27
1.0
 37
0.0
 76
     0
330
1E
  0
LAYOUT
  5
1D
102
{ACAD_REACTORS
330
19
102
}
330
19
100
AcDbPlotSettings
  1

  2
\\KONISHIDENXP\SHARP MX-2700FG
  4

  6

 40
0.0
 41
0.0
 42
0.0
 43
0.0
 44
0.0
 45
0.0
 46
0.0
 47
0.0
 48
0.0
 49
0.0
140
0.0
141
0.0
142
1.0
143
1.0
 70
   688
 72
     0
 73
     0
 74
     5
  7

 75
    16
147
1.0
148
0.0
149
0.0
100
AcDbLayout
  1
ﾚｲｱｳﾄ1
 70
     0
 71
     1
 10
0.0
 20
0.0
 11
12.0
 21
9.0
 12
0.0
 22
0.0
 32
0.0
 14
1.000000000000000E+20
 24
1.000000000000000E+20
 34
1.000000000000000E+20
 15
-1.000000000000000E+20
 25
-1.000000000000000E+20
 35
-1.000000000000000E+20
146
0.0
 13
0.0
 23
0.0
 33
0.0
 16
1.0
 26
0.0
 36
0.0
 17
0.0
 27
1.0
 37
0.0
 76
     0
330
1A
  0
MLINESTYLE
  5
17
102
{ACAD_REACTORS
330
16
102
}
330
16
100
AcDbMlineStyle
  2
STANDARD
 70
     0
  3

 62
   256
 51
90.0
 52
90.0
 71
     2
 49
0.5
 62
   256
  6
BYLAYER
 49
-0.5
 62
   256
  6
BYLAYER
  0
ACDBPLACEHOLDER
  5
F
102
{ACAD_REACTORS
330
E
102
}
330
E
  0
DICTIONARYVAR
  5
1F5
102
{ACAD_REACTORS
330
1F3
102
}
330
1F3
100
DictionaryVariables
280
     0
  1
0
  0
DICTIONARYVAR
  5
1F4
102
{ACAD_REACTORS
330
1F3
102
}
330
1F3
100
DictionaryVariables
280
     0
  1
1
  0
ACMDATADICTIONARY
  5
1C7
102
{ACAD_REACTORS
330
1C6
102
}
330
1C6
100
AcDbDictionary
281
     1
  3
*A1
350
1C8
100
AcmDataDictionary
  0
DICTIONARY
  5
10F
102
{ACAD_REACTORS
330
10E
102
}
330
10E
100
AcDbDictionary
281
     1
  3
DWGSETTINGS
350
110
  0
ACAMGFILTERDAT
  5
1E8
102
{ACAD_REACTORS
330
1E3
102
}
330
1E3
100
AcAmgFilterDat
 70
    15
  1
DIMENSION,AMDT_*_DIM
  2
*
  3
*
  4
*
  5
*
290
     1
  0
ACAMGFILTERDAT
  5
1E7
102
{ACAD_REACTORS
330
1E3
102
}
330
1E3
100
AcAmgFilterDat
 70
    15
  1
*
  2
AM_FEA-AM_*
  3
*
  4
*
  5
*
290
     1
  0
ACAMGFILTERDAT
  5
1E4
102
{ACAD_REACTORS
330
1E3
102
}
330
1E3
100
AcAmgFilterDat
 70
    15
  1
HATCH
  2
*
  3
*
  4
*
  5
*
290
     1
  0
ACAMGFILTERDAT
  5
1E5
102
{ACAD_REACTORS
330
1E3
102
}
330
1E3
100
AcAmgFilterDat
 70
    15
  1
LINE
  2
8,8N,*-8,*-8N,AM_8,AM_8N,*-AM_8,*-AM_8N
  3
*
  4
*
  5
INSERT,STDPART2D
290
     1
  0
ACAMGFILTERDAT
  5
1E9
102
{ACAD_REACTORS
330
1E3
102
}
330
1E3
100
AcAmgFilterDat
 70
    15
  1
ARC
  2
AM_5
  3
*
  4
2
  5
INSERT
290
     0
  0
ACAMGFILTERDAT
  5
1E6
102
{ACAD_REACTORS
330
1E3
102
}
330
1E3
100
AcAmgFilterDat
 70
    15
  1
ACMFCFRAME,ACMDATUMTARGET,ACMDATUMID,ACMWELDSYM,ACMSURFSYM,ACMFEATID,ACMPARTREF,ACMBALLOON,AMDTEDGESYM,AMGSCREWCALCTABLE
  2
*
  3
*
  4
*
  5
*
290
     1
  0
LAYER_INDEX
  5
1EC
102
{ACAD_REACTORS
330
1EB
102
}
330
1EB
100
AcDbIndex
 40
2456449.454415509
100
AcDbLayerIndex
  8
0
360
1ED
 90
       95
  8
1
360
1EE
 90
       13
  8
3
360
1EF
 90
        1
  8
10
360
1F0
 90
        0
  8
11
360
1F1
 90
        0
  8
2
360
1F2
 90
       24
  0
ACMDATAENTRYBLOCK
  5
1C8
102
{ACAD_REACTORS
330
1C7
102
}
330
1C7
100
AcmDataEntry
100
AcmDataEntryBlock
  0
IDBUFFER
  5
1ED
330
0
100
AcDbIdBuffer
330
79
330
7A
330
7B
330
7C
330
7D
330
7E
330
7F
330
80
330
81
330
8C
330
8D
330
8E
330
8F
330
90
330
91
330
92
330
93
330
94
330
95
330
96
330
97
330
98
330
99
330
9A
330
9B
330
9C
330
9D
330
9E
330
9F
330
A0
330
A1
330
A2
330
A3
330
A4
330
A5
330
A6
330
A7
330
A8
330
A9
330
AA
330
AD
330
AE
330
B4
330
C2
330
CD
330
D3
330
E1
330
3D
330
3E
330
3F
330
40
330
41
330
42
330
43
330
44
330
45
330
46
330
47
330
48
330
49
330
4A
330
4B
330
4F
330
50
330
51
330
53
330
54
330
55
330
58
330
59
330
5A
330
5B
330
5C
330
5D
330
5E
330
5F
330
60
330
61
330
62
330
63
330
64
330
65
330
66
330
67
330
6B
330
6C
330
6D
330
6E
330
70
330
71
330
74
330
75
330
76
330
77
330
78
  0
IDBUFFER
  5
1EE
330
0
100
AcDbIdBuffer
330
4C
330
4D
330
4E
330
52
330
56
330
57
330
68
330
69
330
6A
330
72
330
73
330
AB
330
AC
  0
IDBUFFER
  5
1EF
330
0
100
AcDbIdBuffer
330
6F
  0
IDBUFFER
  5
1F0
330
0
100
AcDbIdBuffer
  0
IDBUFFER
  5
1F1
330
0
100
AcDbIdBuffer
  0
IDBUFFER
  5
1F2
330
0
100
AcDbIdBuffer
330
103
330
104
330
105
330
106
330
107
330
108
330
109
330
10A
330
F3
330
F4
330
F5
330
F6
330
F7
330
F8
330
F9
330
FA
330
FB
330
FC
330
FD
330
FE
330
FF
330
100
330
101
330
102
  0
ENDSEC
  0
EOF
