  0
SECTION
  2
HEADER
  9
$ACADVER
  1
AC1015
  9
$ACADMAINTVER
 70
    13
  9
$DWGCODEPAGE
  3
ANSI_932
  9
$INSBASE
 10
0.0
 20
0.0
 30
0.0
  9
$EXTMIN
 10
0.0
 20
0.0
 30
0.0
  9
$EXTMAX
 10
375.0
 20
270.0
 30
0.0
  9
$LIMMIN
 10
0.0
 20
0.0
  9
$LIMMAX
 10
375.0
 20
270.0
  9
$ORTHOMODE
 70
     0
  9
$REGENMODE
 70
     1
  9
$FILLMODE
 70
     1
  9
$QTEXTMODE
 70
     0
  9
$MIRRTEXT
 70
     1
  9
$LTSCALE
 40
10.0
  9
$ATTMODE
 70
     1
  9
$TEXTSIZE
 40
6.0
  9
$TRACEWID
 40
0.05
  9
$TEXTSTYLE
  7
BIGFONT
  9
$CLAYER
  8
0
  9
$CELTYPE
  6
ByLayer
  9
$CECOLOR
 62
   256
  9
$CELTSCALE
 40
1.0
  9
$DISPSILH
 70
     0
  9
$DIMSCALE
 40
1.0
  9
$DIMASZ
 40
3.0
  9
$DIMEXO
 40
2.0
  9
$DIMDLI
 40
0.38
  9
$DIMRND
 40
0.0
  9
$DIMDLE
 40
0.0
  9
$DIMEXE
 40
2.0
  9
$DIMTP
 40
0.0
  9
$DIMTM
 40
0.0
  9
$DIMTXT
 40
3.2
  9
$DIMCEN
 40
0.0
  9
$DIMTSZ
 40
0.0
  9
$DIMTOL
 70
     0
  9
$DIMLIM
 70
     0
  9
$DIMTIH
 70
     0
  9
$DIMTOH
 70
     0
  9
$DIMSE1
 70
     0
  9
$DIMSE2
 70
     0
  9
$DIMTAD
 70
     1
  9
$DIMZIN
 70
     0
  9
$DIMBLK
  1

  9
$DIMASO
 70
     0
  9
$DIMSHO
 70
     0
  9
$DIMPOST
  1

  9
$DIMAPOST
  1

  9
$DIMALT
 70
     0
  9
$DIMALTD
 70
     2
  9
$DIMALTF
 40
25.4
  9
$DIMLFAC
 40
1.0
  9
$DIMTOFL
 70
     1
  9
$DIMTVP
 40
1.6
  9
$DIMTIX
 70
     1
  9
$DIMSOXD
 70
     0
  9
$DIMSAH
 70
     0
  9
$DIMBLK1
  1

  9
$DIMBLK2
  1

  9
$DIMSTYLE
  2
STANDARD
  9
$DIMCLRD
 70
     0
  9
$DIMCLRE
 70
     0
  9
$DIMCLRT
 70
     0
  9
$DIMTFAC
 40
1.0
  9
$DIMGAP
 40
0.09
  9
$DIMJUST
 70
     0
  9
$DIMSD1
 70
     0
  9
$DIMSD2
 70
     0
  9
$DIMTOLJ
 70
     1
  9
$DIMTZIN
 70
     0
  9
$DIMALTZ
 70
     0
  9
$DIMALTTZ
 70
     0
  9
$DIMUPT
 70
     0
  9
$DIMDEC
 70
     4
  9
$DIMTDEC
 70
     4
  9
$DIMALTU
 70
     2
  9
$DIMALTTD
 70
     2
  9
$DIMTXSTY
  7
STANDARD
  9
$DIMAUNIT
 70
     0
  9
$DIMADEC
 70
     0
  9
$DIMALTRND
 40
0.0
  9
$DIMAZIN
 70
     0
  9
$DIMDSEP
 70
    46
  9
$DIMATFIT
 70
     3
  9
$DIMFRAC
 70
     0
  9
$DIMLDRBLK
  1

  9
$DIMLUNIT
 70
     2
  9
$DIMLWD
 70
    -2
  9
$DIMLWE
 70
    -2
  9
$DIMTMOVE
 70
     0
  9
$LUNITS
 70
     2
  9
$LUPREC
 70
     4
  9
$SKETCHINC
 40
0.1
  9
$FILLETRAD
 40
0.0
  9
$AUNITS
 70
     0
  9
$AUPREC
 70
     4
  9
$MENU
  1
ACAD
  9
$ELEVATION
 40
0.0
  9
$PELEVATION
 40
0.0
  9
$THICKNESS
 40
0.0
  9
$LIMCHECK
 70
     0
  9
$CHAMFERA
 40
0.0
  9
$CHAMFERB
 40
0.0
  9
$CHAMFERC
 40
0.0
  9
$CHAMFERD
 40
0.0
  9
$SKPOLY
 70
     0
  9
$TDCREATE
 40
2450683.567118055
  9
$TDUCREATE
 40
2450683.192118055
  9
$TDUPDATE
 40
2456449.453838252
  9
$TDUUPDATE
 40
2456449.078838252
  9
$TDINDWG
 40
0.0006401852
  9
$TDUSRTIMER
 40
0.0006400116
  9
$USRTIMER
 70
     1
  9
$ANGBASE
 50
0.0
  9
$ANGDIR
 70
     0
  9
$PDMODE
 70
     0
  9
$PDSIZE
 40
0.0
  9
$PLINEWID
 40
0.0
  9
$SPLFRAME
 70
     0
  9
$SPLINETYPE
 70
     6
  9
$SPLINESEGS
 70
     8
  9
$HANDSEED
  5
1F7
  9
$SURFTAB1
 70
     6
  9
$SURFTAB2
 70
     6
  9
$SURFTYPE
 70
     6
  9
$SURFU
 70
     6
  9
$SURFV
 70
     6
  9
$UCSBASE
  2

  9
$UCSNAME
  2

  9
$UCSORG
 10
0.0
 20
0.0
 30
0.0
  9
$UCSXDIR
 10
1.0
 20
0.0
 30
0.0
  9
$UCSYDIR
 10
0.0
 20
1.0
 30
0.0
  9
$UCSORTHOREF
  2

  9
$UCSORTHOVIEW
 70
     0
  9
$UCSORGTOP
 10
0.0
 20
0.0
 30
0.0
  9
$UCSORGBOTTOM
 10
0.0
 20
0.0
 30
0.0
  9
$UCSORGLEFT
 10
0.0
 20
0.0
 30
0.0
  9
$UCSORGRIGHT
 10
0.0
 20
0.0
 30
0.0
  9
$UCSORGFRONT
 10
0.0
 20
0.0
 30
0.0
  9
$UCSORGBACK
 10
0.0
 20
0.0
 30
0.0
  9
$PUCSBASE
  2

  9
$PUCSNAME
  2

  9
$PUCSORG
 10
0.0
 20
0.0
 30
0.0
  9
$PUCSXDIR
 10
1.0
 20
0.0
 30
0.0
  9
$PUCSYDIR
 10
0.0
 20
1.0
 30
0.0
  9
$PUCSORTHOREF
  2

  9
$PUCSORTHOVIEW
 70
     0
  9
$PUCSORGTOP
 10
0.0
 20
0.0
 30
0.0
  9
$PUCSORGBOTTOM
 10
0.0
 20
0.0
 30
0.0
  9
$PUCSORGLEFT
 10
0.0
 20
0.0
 30
0.0
  9
$PUCSORGRIGHT
 10
0.0
 20
0.0
 30
0.0
  9
$PUCSORGFRONT
 10
0.0
 20
0.0
 30
0.0
  9
$PUCSORGBACK
 10
0.0
 20
0.0
 30
0.0
  9
$USERI1
 70
     0
  9
$USERI2
 70
     0
  9
$USERI3
 70
     0
  9
$USERI4
 70
     0
  9
$USERI5
 70
     0
  9
$USERR1
 40
0.0
  9
$USERR2
 40
0.0
  9
$USERR3
 40
0.0
  9
$USERR4
 40
0.0
  9
$USERR5
 40
0.0
  9
$WORLDVIEW
 70
     1
  9
$SHADEDGE
 70
     3
  9
$SHADEDIF
 70
    70
  9
$TILEMODE
 70
     1
  9
$MAXACTVP
 70
    16
  9
$PINSBASE
 10
0.0
 20
0.0
 30
0.0
  9
$PLIMCHECK
 70
     0
  9
$PEXTMIN
 10
1.000000000000000E+20
 20
1.000000000000000E+20
 30
1.000000000000000E+20
  9
$PEXTMAX
 10
-1.000000000000000E+20
 20
-1.000000000000000E+20
 30
-1.000000000000000E+20
  9
$PLIMMIN
 10
0.0
 20
0.0
  9
$PLIMMAX
 10
12.0
 20
9.0
  9
$UNITMODE
 70
     0
  9
$VISRETAIN
 70
     0
  9
$PLINEGEN
 70
     1
  9
$PSLTSCALE
 70
     0
  9
$TREEDEPTH
 70
  3020
  9
$CMLSTYLE
  2
Standard
  9
$CMLJUST
 70
     0
  9
$CMLSCALE
 40
1.0
  9
$PROXYGRAPHICS
 70
     1
  9
$MEASUREMENT
 70
     0
  9
$CELWEIGHT
370
    -1
  9
$ENDCAPS
280
     0
  9
$JOINSTYLE
280
     0
  9
$LWDISPLAY
290
     0
  9
$INSUNITS
 70
     0
  9
$HYPERLINKBASE
  1

  9
$STYLESHEET
  1

  9
$XEDIT
290
     1
  9
$CEPSNTYPE
380
     0
  9
$PSTYLEMODE
290
     1
  9
$FINGERPRINTGUID
  2
{CDA01CDA-E7B1-4337-9DCA-C9431F00C9AB}
  9
$VERSIONGUID
  2
{C7BA2D5E-8EE5-409B-AD01-970589FD6FC9}
  9
$EXTNAMES
290
     1
  9
$PSVPSCALE
 40
0.0
  9
$OLESTARTUP
290
     0
  0
ENDSEC
  0
SECTION
  2
CLASSES
  0
CLASS
  1
ACDBDICTIONARYWDFLT
  2
AcDbDictionaryWithDefault
  3
AutoCAD 2000
 90
        0
280
     0
281
     0
  0
CLASS
  1
ACDBPLACEHOLDER
  2
AcDbPlaceHolder
  3
AutoCAD 2000
 90
        0
280
     0
281
     0
  0
CLASS
  1
LAYOUT
  2
AcDbLayout
  3
AutoCAD 2000
 90
        0
280
     0
281
     0
  0
CLASS
  1
AMGSETTINGSOBJ
  2
AmgSettingsObj
  3
"AcadM|Product Description: AutoCAD Mechanical 2000|Company: Autodesk"
 90
        0
280
     0
281
     0
  0
CLASS
  1
ACME_DOCUMENT
  2
AcMeDbDoc
  3
AcMeServices
 90
        0
280
     0
281
     0
  0
CLASS
  1
ACMESCOPE
  2
AcMeScope
  3
AcMeServices
 90
        0
280
     0
281
     0
  0
CLASS
  1
ACMECOMMANDHISTORY
  2
AcMeCommandHistory
  3
AcMeServices
 90
        0
280
     0
281
     0
  0
CLASS
  1
ACIMSYSVARMAN
  2
AcImSysVarManager
  3
AcMeServices
 90
        0
280
     0
281
     0
  0
CLASS
  1
ACIMREALSYSVAR
  2
AcImRealSysVar
  3
AcMeServices
 90
        0
280
     0
281
     0
  0
CLASS
  1
ACIMINTSYSVAR
  2
AcImIntSysVar
  3
AcMeServices
 90
        0
280
     0
281
     0
  0
CLASS
  1
ACMEDRAWINGMAN
  2
AcMeDrawingMan
  3
AcMeServices
 90
        0
280
     0
281
     0
  0
CLASS
  1
ACMEVIEW
  2
AcMeView
  3
AcMeServices
 90
        0
280
     0
281
     0
  0
CLASS
  1
ACDBENTITYCACHE
  2
AcMeEntityCache
  3
AcMeServices
 90
        0
280
     0
281
     0
  0
CLASS
  1
GSMANAGER
  2
AcMeGSManager
  3
AcMeServices
 90
        0
280
     0
281
     0
  0
CLASS
  1
AMDTINTERNALREACTOR
  2
AmdtInternalReactor
  3
AcMeServices
 90
        0
280
     0
281
     0
  0
CLASS
  1
ACMESTATEMGR
  2
AcMeStateMgr
  3
AcMeServices
 90
        0
280
     0
281
     0
  0
CLASS
  1
ACGREFMASTER
  2
AcGrefMaster
  3
AcAttribServices
 90
        0
280
     0
281
     0
  0
CLASS
  1
AM_DRAWING_MGR
  2
AcDmDwgMgr
  3
AcMechDwgViewMgmt
 90
        0
280
     0
281
     0
  0
CLASS
  1
AM_DWG_DOCUMENT
  2
AcDmDwgDocument
  3
AcMechDwgViewMgmt
 90
        0
280
     0
281
     0
  0
CLASS
  1
AM_DWG_SHEET
  2
AcDmSheet
  3
AcMechDwgViewMgmt
 90
        0
280
     0
281
     0
  0
CLASS
  1
AM_VIEWDIMPARMAP
  2
AcDmViewDimParMap
  3
AcMechDwgViewMgmt
 90
        0
280
     0
281
     0
  0
CLASS
  1
AM_DWGMGR_NAME
  2
AcDmDwgMgrName
  3
AcMechDwgViewMgmt
 90
        0
280
     0
281
     0
  0
CLASS
  1
ACME_DATABASE
  2
AcMeDbDatabase
  3
AcMeServices
 90
        0
280
     0
281
     0
  0
CLASS
  1
ACRFINSADJUSTERMGR
  2
AcRfInsAdjusterMgr
  3
AcMeServices
 90
        0
280
     0
281
     0
  0
CLASS
  1
ACGREFACADMASTER
  2
AcGrefacadMaster
  3
AcGrefServices
 90
        0
280
     0
281
     0
  0
CLASS
  1
AMDTMENUSTATEMGR
  2
AmdtMenuStateMgr
  3
McadcomServices
 90
        0
280
     0
281
     0
  0
CLASS
  1
AMDTMCOMMENUSTATE
  2
AmdtMcomMenuState
  3
McadcomServices
 90
        0
280
     0
281
     0
  0
CLASS
  1
AMIMASTER
  2
AmiMaster
  3
AmiServices
 90
        0
280
     0
281
     0
  0
CLASS
  1
ASAPP
  2
AcAsAppObject
  3
AutoSurfServices
 90
        0
280
     0
281
     0
  0
CLASS
  1
IM_STATIC_MAN
  2
AcImStaticVarManager
  3
AcMeServices
 90
        0
280
     0
281
     0
  0
CLASS
  1
ACIMSTRSYSVAR
  2
AcImStrSysVar
  3
AcMeServices
 90
        0
280
     0
281
     0
  0
CLASS
  1
ACIMDBLSTATICVAR
  2
AcImDblStaticVar
  3
AcMeServices
 90
        0
280
     0
281
     0
  0
CLASS
  1
ACIMSTRSTATICVAR
  2
AcImStrStaticVar
  3
AcMeServices
 90
        0
280
     0
281
     0
  0
CLASS
  1
ACIMINTSTATICVAR
  2
AcImIntStaticVar
  3
AcMeServices
 90
        0
280
     0
281
     0
  0
CLASS
  1
ACASGREFMASTER
  2
AcAsGrefMaster
  3
AutoSurfResolverServices
 90
        0
280
     0
281
     0
  0
CLASS
  1
ACADGREFMODULE
  2
AcAdGrefModule
  3
AdGrefServices
 90
        0
280
     0
281
     0
  0
CLASS
  1
AMDTMAPISURFMOUDULE
  2
AmdtMApiSurfModule
  3
MApiSurfServices
 90
        0
280
     0
281
     0
  0
CLASS
  1
MAPIAMMOUDLE
  2
MApiAmModule
  3
MApiAmServices
 90
        0
280
     0
281
     0
  0
CLASS
  1
AMDTADMENUSTATE
  2
AmdtAdMenuState
  3
DesignerServices
 90
        0
280
     0
281
     0
  0
CLASS
  1
ADAPPL
  2
AcAdAppl
  3
DesignerServices
 90
        0
280
     0
281
     0
  0
CLASS
  1
DEPMGR
  2
AcAdDepMgr
  3
DesignerServices
 90
        0
280
     0
281
     0
  0
CLASS
  1
PARAMMGR
  2
AcAdParamMgr
  3
DesignerServices
 90
        0
280
     0
281
     0
  0
CLASS
  1
PARAMSCOPE
  2
AcAdParamScope
  3
DesignerServices
 90
        0
280
     0
281
     0
  0
CLASS
  1
NAMEDAPPL
  2
AcAdNamedAppl
  3
DesignerServices
 90
        0
280
     0
281
     0
  0
CLASS
  1
AMDTDMMENUSTATE
  2
AmdtDmMenuState
  3
AcMechDwgViewMgmt
 90
        0
280
     0
281
     0
  0
CLASS
  1
MAPIADMODULE
  2
MApiAdModule
  3
MApiAdServices
 90
        0
280
     0
281
     0
  0
CLASS
  1
AMDTAMMENUSTATE
  2
AmdtAmMenuState
  3
DesignerAssemblies
 90
        0
280
     0
281
     0
  0
CLASS
  1
ACAMPROJECT
  2
AcAmProject
  3
DesignerAssemblies
 90
        0
280
     0
281
     0
  0
CLASS
  1
ACAMGRCOMPDEF
  2
AcAmGrCompDef
  3
DesignerAssemblies
 90
        0
280
     0
281
     0
  0
CLASS
  1
ACCMCONTEXT
  2
AcCmContext
  3
DesignerAssemblies
 90
        0
280
     0
281
     0
  0
CLASS
  1
ACAMCOMPDEF
  2
AcAmCompDef
  3
DesignerAssemblies
 90
        0
280
     0
281
     0
  0
CLASS
  1
ACAMCOMPDEFMGR
  2
AcAmCompDefMgr
  3
DesignerAssemblies
 90
        0
280
     0
281
     0
  0
CLASS
  1
AMCONTEXTMGR
  2
AcAmContextMgr
  3
DesignerAssemblies
 90
        0
280
     0
281
     0
  0
CLASS
  1
ACAMCONTEXTMODELER
  2
AcAmContextModeler
  3
DesignerAssemblies
 90
        0
280
     0
281
     0
  0
CLASS
  1
ACMDATADICTIONARY
  2
AcmDataDictionary
  3
"AcmSymBB|Product Description: AutoCAD Mechanical 2000|Company: Autodesk"
 90
        0
280
     0
281
     0
  0
CLASS
  1
ACMDATAENTRYBLOCK
  2
AcmDataEntryBlock
  3
"AcmSymBB|Product Description: AutoCAD Mechanical 2000|Company: Autodesk"
 90
        0
280
     0
281
     0
  0
CLASS
  1
CATALOGSTATE
  2
AcAmCatalogState
  3
DesignerAssemblies
 90
        0
280
     0
281
     0
  0
CLASS
  1
ACAMGRCOMPDEFSET
  2
AcAmGrCompDefSet
  3
DesignerAssemblies
 90
        0
280
     0
281
     0
  0
CLASS
  1
AMDTBROWSERDBTAB
  2
AmdtBrowserDbTab
  3
McadcomServices
 90
        0
280
     0
281
     0
  0
CLASS
  1
CBROWSERAPPOBJECT
  2
CBrowserAppObject
  3
McadcomServices
 90
        0
280
     0
281
     0
  0
CLASS
  1
DM_PLACEHOLDER
  2
AcDmSelsetPlaceholder
  3
AcMechDwgViewMgmt
 90
        0
280
     0
281
     0
  0
CLASS
  1
AMGOBJPROPCFG
  2
AmgObjPropCfg
  3
"AmgLay|Product Description: AutoCAD Mechanical 2000|Company: Autodesk"
 90
        1
280
     0
281
     0
  0
CLASS
  1
ACAMGFILTERDAT
  2
AcAmgFilterDat
  3
"AcadM|Product Description: AutoCAD Mechanical 2000|Company: Autodesk"
 90
        0
280
     0
281
     0
  0
CLASS
  1
LAYER_INDEX
  2
AcDbLayerIndex
  3
AutoCAD 2000
 90
        0
280
     0
281
     0
  0
CLASS
  1
IDBUFFER
  2
AcDbIdBuffer
  3
AutoCAD 2000
 90
        0
280
     0
281
     0
  0
CLASS
  1
DICTIONARYVAR
  2
AcDbDictionaryVar
  3
AutoCAD 2000
 90
        0
280
     0
281
     0
  0
ENDSEC
  0
SECTION
  2
TABLES
  0
TABLE
  2
VPORT
  5
8
330
0
100
AcDbSymbolTable
 70
     4
  0
VPORT
  5
1F6
330
8
100
AcDbSymbolTableRecord
100
AcDbViewportTableRecord
  2
*Active
 70
     0
 10
0.0
 20
0.0
 11
1.0
 21
1.0
 12
0.0
 22
0.0
 13
0.0
 23
0.0
 14
10.0
 24
10.0
 15
10.0
 25
10.0
 16
0.0
 26
0.0
 36
1.0
 17
229.1116751269034
 27
153.7949312743092
 37
0.0
 40
307.5898625486185
 41
1.489721886336154
 42
50.0
 43
0.0
 44
0.0
 50
0.0
 51
0.0
 71
     0
 72
   500
 73
     1
 74
     1
 75
     0
 76
     0
 77
     0
 78
     2
281
     0
 65
     0
110
0.0
120
0.0
130
0.0
111
1.0
121
0.0
131
0.0
112
0.0
122
1.0
132
0.0
 79
     0
146
0.0
  0
ENDTAB
  0
TABLE
  2
LTYPE
  5
5
330
0
100
AcDbSymbolTable
 70
    17
  0
LTYPE
  5
13
330
5
100
AcDbSymbolTableRecord
100
AcDbLinetypeTableRecord
  2
ByBlock
 70
     0
  3

 72
    65
 73
     0
 40
0.0
  0
LTYPE
  5
14
330
5
100
AcDbSymbolTableRecord
100
AcDbLinetypeTableRecord
  2
ByLayer
 70
     0
  3

 72
    65
 73
     0
 40
0.0
  0
LTYPE
  5
15
330
5
100
AcDbSymbolTableRecord
100
AcDbLinetypeTableRecord
  2
CONTINUOUS
 70
     0
  3
実線
 72
    65
 73
     0
 40
0.0
  0
LTYPE
  5
23
330
5
100
AcDbSymbolTableRecord
100
AcDbLinetypeTableRecord
  2
BYLAYER
 70
     0
  3

 72
    65
 73
     0
 40
0.0
  0
LTYPE
  5
24
330
5
100
AcDbSymbolTableRecord
100
AcDbLinetypeTableRecord
  2
CENTER
 70
     0
  3
____ _ ____ _ ____ _ ____ _ ____ _ ____ _ ____
 72
    65
 73
     4
 40
2.0
 49
1.25
 74
     0
 49
-0.25
 74
     0
 49
0.25
 74
     0
 49
-0.25
 74
     0
  0
LTYPE
  5
25
330
5
100
AcDbSymbolTableRecord
100
AcDbLinetypeTableRecord
  2
HIDDEN
 70
     0
  3
_ _ _ _ _ _ _ _ _ _ _ _ _ _ _ _ _ _ _ _ _ _ _
 72
    65
 73
     2
 40
0.375
 49
0.25
 74
     0
 49
-0.125
 74
     0
  0
LTYPE
  5
131
330
5
100
AcDbSymbolTableRecord
100
AcDbLinetypeTableRecord
  2
PHANTOM2
 70
     0
  3
Phantom (.5x) ___ _ _ ___ _ _ ___ _ _ ___ _ _
 72
    65
 73
     6
 40
1.25
 49
0.625
 74
     0
 49
-0.125
 74
     0
 49
0.125
 74
     0
 49
-0.125
 74
     0
 49
0.125
 74
     0
 49
-0.125
 74
     0
  0
LTYPE
  5
193
330
5
100
AcDbSymbolTableRecord
100
AcDbLinetypeTableRecord
  2
ASULTYPE
 70
     0
  3
実線
 72
    65
 73
     2
 40
3.0
 49
2.5
 74
     0
 49
0.5
 74
     0
  0
LTYPE
  5
194
330
5
100
AcDbSymbolTableRecord
100
AcDbLinetypeTableRecord
  2
ASVLTYPE
 70
     0
  3
__ __ __ __ __ __ __ __ __ __ __ __ __ __ __ __ __ __ __ __ __
 72
    65
 73
     2
 40
0.75
 49
0.5
 74
     0
 49
-0.25
 74
     0
  0
LTYPE
  5
1D5
330
5
100
AcDbSymbolTableRecord
100
AcDbLinetypeTableRecord
  2
AM_ISO02W050
 70
     0
  3
__ __ __ __ __ __ __ __ __ __ __ __ __ __ __
 72
    65
 73
     2
 40
7.5
 49
6.0
 74
     0
 49
-1.5
 74
     0
  0
LTYPE
  5
1D6
330
5
100
AcDbSymbolTableRecord
100
AcDbLinetypeTableRecord
  2
AM_ISO08W050
 70
     0
  3
____ . ____ . ____ . ____ . ____ . ____ . ____
 72
    65
 73
     4
 40
18.0
 49
12.0
 74
     0
 49
-1.5
 74
     0
 49
3.0
 74
     0
 49
-1.5
 74
     0
  0
LTYPE
  5
1D7
330
5
100
AcDbSymbolTableRecord
100
AcDbLinetypeTableRecord
  2
AM_ISO09W050
 70
     0
  3
_____ . . _____ . . _____ . . ____ .. ____
 72
    65
 73
     6
 40
22.5
 49
12.0
 74
     0
 49
-1.5
 74
     0
 49
3.0
 74
     0
 49
-1.5
 74
     0
 49
3.0
 74
     0
 49
-1.5
 74
     0
  0
LTYPE
  5
1D8
330
5
100
AcDbSymbolTableRecord
100
AcDbLinetypeTableRecord
  2
Amconstr
 70
     0
  3
_______________________
 72
    65
 73
     2
 40
9999.0
 49
9999.0
 74
     0
 49
0.0
 74
     0
  0
LTYPE
  5
1D9
330
5
100
AcDbSymbolTableRecord
100
AcDbLinetypeTableRecord
  2
AM_ISO08W050x2
 70
     0
  3
__ . __ . __ . __ . __ . __
 72
    65
 73
     4
 40
9.0
 49
6.0
 74
     0
 49
-0.75
 74
     0
 49
1.5
 74
     0
 49
-0.75
 74
     0
  0
LTYPE
  5
1DA
330
5
100
AcDbSymbolTableRecord
100
AcDbLinetypeTableRecord
  2
AM_ISO02W050x2
 70
     0
  3
 _ _ _ _ _ _ _ _ _ _ _ _
 72
    65
 73
     2
 40
3.75
 49
3.0
 74
     0
 49
-0.75
 74
     0
  0
LTYPE
  5
1DD
330
5
100
AcDbSymbolTableRecord
100
AcDbLinetypeTableRecord
  2
Amzigzag
 70
     0
  3
/\/-/\/-/\/-/\/-/\/-/\/
 72
    65
 73
     2
 40
11.00009999999999
 49
0.0001
 74
     4
 75
   135
340
1DC
 46
0.04
 50
0.0
 44
0.0
 45
0.0
 49
-11.0
 74
     0
  0
LTYPE
  5
1DE
330
5
100
AcDbSymbolTableRecord
100
AcDbLinetypeTableRecord
  2
CENTER2
 70
     0
  3
Center (.5x) ___ _ ___ _ ___ _ ___ _ ___ _ ___
 72
    65
 73
     4
 40
1.125
 49
0.75
 74
     0
 49
-0.125
 74
     0
 49
0.125
 74
     0
 49
-0.125
 74
     0
  0
LTYPE
  5
1DF
330
5
100
AcDbSymbolTableRecord
100
AcDbLinetypeTableRecord
  2
HIDDEN2
 70
     0
  3
Hidden (.5x) _ _ _ _ _ _ _ _ _ _ _ _ _ _ _ _ _
 72
    65
 73
     2
 40
0.1875
 49
0.125
 74
     0
 49
-0.0625
 74
     0
  0
LTYPE
  5
1E0
330
5
100
AcDbSymbolTableRecord
100
AcDbLinetypeTableRecord
  2
Amzigzag2
 70
     0
  3
/\/-/\/-/\/-/\/-/\/-/\/
 72
    65
 73
     2
 40
0.4401
 49
0.0001
 74
     4
 75
   135
340
1DC
 46
0.0016
 50
0.0
 44
0.0
 45
0.0
 49
-0.4400000000000001
 74
     0
  0
ENDTAB
  0
TABLE
  2
LAYER
  5
2
330
0
100
AcDbSymbolTable
 70
     6
  0
LAYER
  5
10
330
2
100
AcDbSymbolTableRecord
100
AcDbLayerTableRecord
  2
0
 70
     0
 62
     7
  6
CONTINUOUS
370
    -3
390
F
  0
LAYER
  5
26
330
2
100
AcDbSymbolTableRecord
100
AcDbLayerTableRecord
  2
1
 70
     0
 62
     1
  6
CENTER
370
    -3
390
F
  0
LAYER
  5
27
330
2
100
AcDbSymbolTableRecord
100
AcDbLayerTableRecord
  2
3
 70
     0
 62
     3
  6
CONTINUOUS
370
    -3
390
F
  0
LAYER
  5
28
330
2
100
AcDbSymbolTableRecord
100
AcDbLayerTableRecord
  2
10
 70
     0
 62
     7
  6
CONTINUOUS
370
    -3
390
F
  0
LAYER
  5
29
330
2
100
AcDbSymbolTableRecord
100
AcDbLayerTableRecord
  2
11
 70
     0
 62
     3
  6
CONTINUOUS
370
    -3
390
F
  0
LAYER
  5
2A
330
2
100
AcDbSymbolTableRecord
100
AcDbLayerTableRecord
  2
2
 70
     0
 62
     2
  6
HIDDEN
370
    -3
390
F
  0
ENDTAB
  0
TABLE
  2
STYLE
  5
3
330
0
100
AcDbSymbolTable
 70
     4
  0
STYLE
  5
11
330
3
100
AcDbSymbolTableRecord
100
AcDbTextStyleTableRecord
  2
STANDARD
 70
     0
 40
0.0
 41
1.0
 50
0.0
 71
     0
 42
4.000000000000047
  3
TXT
  4
BIGFONT
  0
STYLE
  5
22
330
3
100
AcDbSymbolTableRecord
100
AcDbTextStyleTableRecord
  2
BIGFONT
 70
     0
 40
6.0
 41
1.0
 50
0.0
 71
     0
 42
6.0
  3

  4
bigfont
  0
STYLE
  5
2B
330
3
100
AcDbSymbolTableRecord
100
AcDbTextStyleTableRecord
  2
07500
 70
     0
 40
0.0
 41
0.75
 50
0.0
 71
     0
 42
3.00000000000005
  3
TXT
  4
BIGFONT
  0
STYLE
  5
1DC
330
3
100
AcDbSymbolTableRecord
100
AcDbTextStyleTableRecord
  2

 70
     1
 40
0.0
 41
1.0
 50
0.0
 71
     0
 42
6.0
  3
ltypeshp.shx
  4

  0
ENDTAB
  0
TABLE
  2
VIEW
  5
6
330
0
100
AcDbSymbolTable
 70
     1
  0
VIEW
  5
2D
330
6
100
AcDbSymbolTableRecord
100
AcDbViewTableRecord
  2
ALL
 70
     0
 40
270.0
 10
220.9915966386553
 20
135.0
 41
0.0
 11
0.0
 21
0.0
 31
1.0
 12
0.0
 22
0.0
 32
0.0
 42
0.0
 43
0.0
 44
0.0
 50
0.0
 71
     0
281
     0
 72
     0
  0
ENDTAB
  0
TABLE
  2
UCS
  5
7
330
0
100
AcDbSymbolTable
 70
     0
  0
ENDTAB
  0
TABLE
  2
APPID
  5
9
330
0
100
AcDbSymbolTable
 70
    12
  0
APPID
  5
12
330
9
100
AcDbSymbolTableRecord
100
AcDbRegAppTableRecord
  2
ACAD
 70
     0
  0
APPID
  5
110
330
9
100
AcDbSymbolTableRecord
100
AcDbRegAppTableRecord
  2
GENIUS_GENDIM_13
 70
     0
  0
APPID
  5
111
330
9
100
AcDbSymbolTableRecord
100
AcDbRegAppTableRecord
  2
GENIUS_GENDTOL_13
 70
     0
  0
APPID
  5
112
330
9
100
AcDbSymbolTableRecord
100
AcDbRegAppTableRecord
  2
GENIUS_GE3DTOL_13
 70
     0
  0
APPID
  5
114
330
9
100
AcDbSymbolTableRecord
100
AcDbRegAppTableRecord
  2
MCAD_NO_VIS
 70
     0
  0
APPID
  5
115
330
9
100
AcDbSymbolTableRecord
100
AcDbRegAppTableRecord
  2
ACAD_TEMP_GRAPHIC
 70
     0
  0
APPID
  5
146
330
9
100
AcDbSymbolTableRecord
100
AcDbRegAppTableRecord
  2
AD_DRAW
 70
     0
  0
APPID
  5
149
330
9
100
AcDbSymbolTableRecord
100
AcDbRegAppTableRecord
  2
ACATTRIBSERVICES
 70
     0
  0
APPID
  5
195
330
9
100
AcDbSymbolTableRecord
100
AcDbRegAppTableRecord
  2
ASURF_PCURVE_APPNAME
 70
     0
  0
APPID
  5
1C4
330
9
100
AcDbSymbolTableRecord
100
AcDbRegAppTableRecord
  2
DESIGNERASSEMBLIES
 70
     0
  0
APPID
  5
1CC
330
9
100
AcDbSymbolTableRecord
100
AcDbRegAppTableRecord
  2
ACADM_DIM_EDIT
 70
     0
  0
APPID
  5
1CD
330
9
100
AcDbSymbolTableRecord
100
AcDbRegAppTableRecord
  2
AMDT_DM_ADJ
 70
     0
  0
ENDTAB
  0
TABLE
  2
DIMSTYLE
  5
A
330
0
100
AcDbSymbolTable
 70
     1
100
AcDbDimStyleTable
 71
     0
  0
DIMSTYLE
105
2C
330
A
100
AcDbSymbolTableRecord
100
AcDbDimStyleTableRecord
  2
STANDARD
 70
     0
279
     2
340
22
  0
ENDTAB
  0
TABLE
  2
BLOCK_RECORD
  5
1
330
0
100
AcDbSymbolTable
 70
     2
  0
BLOCK_RECORD
  5
1E
102
{ACAD_XDICTIONARY
360
1E9
102
}
330
1
100
AcDbSymbolTableRecord
100
AcDbBlockTableRecord
  2
*Model_Space
340
21
  0
BLOCK_RECORD
  5
1A
330
1
100
AcDbSymbolTableRecord
100
AcDbBlockTableRecord
  2
*Paper_Space
340
1D
  0
BLOCK_RECORD
  5
31
330
1
100
AcDbSymbolTableRecord
100
AcDbBlockTableRecord
  2
WWW
340
0
102
{BLKREFS
331
EB
102
}
  0
BLOCK_RECORD
  5
1BB
330
1
100
AcDbSymbolTableRecord
100
AcDbBlockTableRecord
  2
*U1
340
0
  0
ENDTAB
  0
ENDSEC
  0
SECTION
  2
BLOCKS
  0
BLOCK
  5
1F
330
1E
100
AcDbEntity
  8
0
100
AcDbBlockBegin
  2
*Model_Space
 70
     0
 10
0.0
 20
0.0
 30
0.0
  3
*Model_Space
  1

  0
ENDBLK
  5
20
330
1E
100
AcDbEntity
  8
0
100
AcDbBlockEnd
  0
BLOCK
  5
1B
330
1A
100
AcDbEntity
 67
     1
  8
0
100
AcDbBlockBegin
  2
*Paper_Space
 70
     0
 10
0.0
 20
0.0
 30
0.0
  3
*Paper_Space
  1

  0
ENDBLK
  5
1C
330
1A
100
AcDbEntity
 67
     1
  8
0
100
AcDbBlockEnd
  0
BLOCK
  5
32
330
31
100
AcDbEntity
  8
0
100
AcDbBlockBegin
  2
WWW
 70
     0
 10
375.0
 20
0.0
 30
0.0
  3
WWW
  1

  0
LINE
  5
33
330
31
100
AcDbEntity
  8
11
100
AcDbLine
 10
278.0
 20
36.0
 30
0.0
 11
375.0
 21
36.0
 31
0.0
  0
TEXT
  5
34
330
31
100
AcDbEntity
  8
11
100
AcDbText
 10
280.0
 20
32.5
 30
0.0
 40
2.5
  1
部品名称
100
AcDbText
  0
LINE
  5
35
330
31
100
AcDbEntity
  8
11
100
AcDbLine
 10
278.0
 20
36.0
 30
0.0
 11
278.0
 21
0.0
 31
0.0
  0
LINE
  5
36
330
31
100
AcDbEntity
  8
11
100
AcDbLine
 10
278.0
 20
24.0
 30
0.0
 11
375.0
 21
24.0
 31
0.0
  0
TEXT
  5
37
330
31
100
AcDbEntity
  8
11
100
AcDbText
 10
280.0
 20
20.5
 30
0.0
 40
2.5
  1
品番
100
AcDbText
  0
TEXT
  5
38
330
31
100
AcDbEntity
  8
11
100
AcDbText
 10
280.0
 20
8.5
 30
0.0
 40
2.5
  1
尺度
100
AcDbText
  0
LINE
  5
39
330
31
100
AcDbEntity
  8
11
100
AcDbLine
 10
278.0
 20
12.0
 30
0.0
 11
375.0
 21
12.0
 31
0.0
  0
TEXT
  5
3A
330
31
100
AcDbEntity
  8
11
100
AcDbText
 10
305.0
 20
8.5
 30
0.0
 40
2.5
  1
図番
100
AcDbText
  0
LINE
  5
3B
330
31
100
AcDbEntity
  8
11
100
AcDbLine
 10
303.0
 20
0.0
 30
0.0
 11
303.0
 21
12.0
 31
0.0
  0
ENDBLK
  5
3C
330
31
100
AcDbEntity
  8
0
100
AcDbBlockEnd
  0
BLOCK
  5
1BC
330
1BB
100
AcDbEntity
  8
0
100
AcDbBlockBegin
  2
*U1
 70
     1
 10
0.0
 20
0.0
 30
0.0
  3
*U1
  1

  0
ENDBLK
  5
1BD
330
1BB
100
AcDbEntity
  8
0
100
AcDbBlockEnd
  0
ENDSEC
  0
SECTION
  2
ENTITIES
  0
LINE
  5
3D
330
1E
100
AcDbEntity
  8
0
100
AcDbLine
 10
136.5185194019009
 20
96.92605525436045
 30
0.0
 11
153.5185194019009
 21
96.92605525436045
 31
0.0
  0
LINE
  5
3E
330
1E
100
AcDbEntity
  8
0
100
AcDbLine
 10
133.0185194019009
 20
101.1260552543707
 30
0.0
 11
157.0185194019009
 21
101.1260552543707
 31
0.0
  0
ARC
  5
3F
330
1E
100
AcDbEntity
  8
0
100
AcDbCircle
 10
227.6740222674309
 20
230.5158214290989
 30
0.0
 40
13.84383086222607
100
AcDbArc
 50
146.3181597444561
 51
213.6818402555436
  0
ARC
  5
40
330
1E
100
AcDbEntity
  8
0
100
AcDbCircle
 10
226.018519401901
 20
230.5158214290989
 30
0.0
 40
12.5
100
AcDbArc
 50
217.8939393189506
 51
142.1060606810494
  0
ARC
  5
41
330
1E
100
AcDbEntity
  8
0
100
AcDbCircle
 10
226.018519401901
 20
160.4260552543591
 30
0.0
 40
12.50000000000015
100
AcDbArc
 50
232.898283794445
 51
167.1785230366601
  0
LINE
  5
42
330
1E
100
AcDbEntity
  8
0
100
AcDbLine
 10
213.8301914052056
 20
163.1999803876244
 30
0.0
 11
218.4781209287117
 21
150.4564820004272
 31
0.0
  0
LINE
  5
43
330
1E
100
AcDbEntity
  8
0
100
AcDbLine
 10
156.8541737960567
 20
129.8775910954206
 30
0.0
 11
157.0185194019073
 21
129.4260552543591
 31
0.0
  0
ARC
  5
44
330
1E
100
AcDbEntity
  8
0
100
AcDbCircle
 10
163.1924252578338
 20
137.5054160221714
 30
0.0
 40
9.917517063554207
100
AcDbArc
 50
169.7244883718333
 51
230.275511628138
  0
LINE
  5
45
330
1E
100
AcDbEntity
  8
1
100
AcDbLine
 10
145.0185194019009
 20
150.4260552543591
 30
0.0
 11
145.0185194019009
 21
91.42605525435916
 31
0.0
  0
LINE
  5
46
330
1E
100
AcDbEntity
  8
1
100
AcDbLine
 10
145.0185194019009
 20
247.5158214290989
 30
0.0
 11
145.0185194019009
 21
213.5158214290989
 31
0.0
  0
LINE
  5
47
330
1E
100
AcDbEntity
  8
1
100
AcDbLine
 10
226.018519401901
 20
248.0158214290989
 30
0.0
 11
226.018519401901
 21
213.0158214290989
 31
0.0
  0
LINE
  5
48
330
1E
100
AcDbEntity
  8
1
100
AcDbLine
 10
128.0185194019009
 20
230.5158214290989
 30
0.0
 11
243.5185194019009
 21
230.5158214290989
 31
0.0
  0
ARC
  5
49
330
1E
100
AcDbEntity
  8
0
100
AcDbCircle
 10
145.0185194019009
 20
230.5158214290989
 30
0.0
 40
12.0
100
AcDbArc
 50
24.62431835216178
 51
335.3756816478376
  0
LINE
  5
4A
330
1E
100
AcDbEntity
  8
0
100
AcDbLine
 10
214.7646592722276
 20
235.5158214290997
 30
0.0
 11
155.1440726954399
 21
235.5158214290989
 31
0.0
  0
LINE
  5
4B
330
1E
100
AcDbEntity
  8
0
100
AcDbLine
 10
155.1440726954399
 20
225.5158214290989
 30
0.0
 11
214.7646592722276
 21
225.5158214290982
 31
0.0
  0
ARC
  5
4C
330
1E
100
AcDbEntity
  8
0
100
AcDbCircle
 10
161.5985315035478
 20
230.5158214290989
 30
0.0
 40
8.164559908872139
100
AcDbArc
 50
142.2365496564314
 51
217.7634503435684
  0
CIRCLE
  5
4D
330
1E
100
AcDbEntity
  8
0
100
AcDbCircle
 10
145.0185194019009
 20
230.5158214290989
 30
0.0
 40
8.251106587071603
  0
CIRCLE
  5
4E
330
1E
100
AcDbEntity
  8
0
100
AcDbCircle
 10
145.0185194019009
 20
230.5158214290989
 30
0.0
 40
7.25140298233549
  0
LINE
  5
4F
330
1E
100
AcDbEntity
  8
1
100
AcDbLine
 10
220.0221459680121
 20
176.8666606459301
 30
0.0
 11
232.0148928357899
 21
143.9854498627886
 31
0.0
  0
LINE
  5
50
330
1E
100
AcDbEntity
  8
1
100
AcDbLine
 10
145.0185194019009
 20
130.8829674801077
 30
0.0
 11
242.4591247934718
 21
166.4224286882481
 31
0.0
  0
LINE
  5
51
330
1E
100
AcDbEntity
  8
0
100
AcDbLine
 10
217.867408533146
 20
152.1309076535216
 30
0.0
 11
156.8573222479795
 21
129.8787394281903
 31
0.0
  0
LINE
  5
52
330
1E
100
AcDbEntity
  8
0
100
AcDbLine
 10
214.4409066144191
 20
161.5255470201888
 30
0.0
 11
153.4308231429002
 21
139.2733710805162
 31
0.0
  0
LINE
  5
53
330
1E
100
AcDbEntity
  8
0
100
AcDbLine
 10
137.0185194019023
 20
96.42605525435916
 30
0.0
 11
153.0185194018997
 21
96.42605525435916
 31
0.0
  0
LINE
  5
54
330
1E
100
AcDbEntity
  8
0
100
AcDbLine
 10
133.7185194019392
 20
100.4260552543591
 30
0.0
 11
156.3185194018628
 21
100.4260552543591
 31
0.0
  0
LINE
  5
55
330
1E
100
AcDbEntity
  8
0
100
AcDbLine
 10
133.0185194018947
 20
129.4260552543591
 30
0.0
 11
157.0185194019073
 21
129.4260552543591
 31
0.0
  0
LINE
  5
56
330
1E
100
AcDbEntity
  8
0
100
AcDbLine
 10
136.7674128148294
 20
139.7260552543474
 30
0.0
 11
153.2696259889726
 21
139.7260552543474
 31
0.0
  0
LINE
  5
57
330
1E
100
AcDbEntity
  8
0
100
AcDbLine
 10
137.7671164195654
 20
140.4260552543591
 30
0.0
 11
152.2699223842365
 21
140.4260552543591
 31
0.0
  0
LINE
  5
58
330
1E
100
AcDbEntity
  8
0
100
AcDbLine
 10
137.7671164195654
 20
140.4260552543591
 30
0.0
 11
136.7674128148294
 21
139.7260552543474
 31
0.0
  0
LINE
  5
59
330
1E
100
AcDbEntity
  8
0
100
AcDbLine
 10
136.7674128148294
 20
139.7260552543474
 30
0.0
 11
133.0185194018947
 21
129.4260552543591
 31
0.0
  0
LINE
  5
5A
330
1E
100
AcDbEntity
  8
0
100
AcDbLine
 10
133.0185194018947
 20
129.4260552543591
 30
0.0
 11
133.0185194019009
 21
101.1260552543707
 31
0.0
  0
LINE
  5
5B
330
1E
100
AcDbEntity
  8
0
100
AcDbLine
 10
133.0185194019009
 20
101.1260552543707
 30
0.0
 11
133.7185194019392
 21
100.4260552543591
 31
0.0
  0
LINE
  5
5C
330
1E
100
AcDbEntity
  8
0
100
AcDbLine
 10
136.5185194019009
 20
100.4260552543591
 30
0.0
 11
136.5185194019009
 21
96.92605525436045
 31
0.0
  0
LINE
  5
5D
330
1E
100
AcDbEntity
  8
0
100
AcDbLine
 10
136.5185194019009
 20
96.92605525436045
 30
0.0
 11
137.0185194019023
 21
96.42605525435916
 31
0.0
  0
LINE
  5
5E
330
1E
100
AcDbEntity
  8
0
100
AcDbLine
 10
153.5185194019009
 20
96.92605525436045
 30
0.0
 11
153.0185194018997
 21
96.42605525435916
 31
0.0
  0
LINE
  5
5F
330
1E
100
AcDbEntity
  8
0
100
AcDbLine
 10
153.5185194019009
 20
100.4260552543591
 30
0.0
 11
153.5185194019009
 21
96.92605525436045
 31
0.0
  0
LINE
  5
60
330
1E
100
AcDbEntity
  8
0
100
AcDbLine
 10
157.0185194019009
 20
101.1260552543707
 30
0.0
 11
156.3185194018628
 21
100.4260552543591
 31
0.0
  0
LINE
  5
61
330
1E
100
AcDbEntity
  8
0
100
AcDbLine
 10
157.0185194019073
 20
129.4260552543591
 30
0.0
 11
157.0185194019009
 21
101.1260552543707
 31
0.0
  0
LINE
  5
62
330
1E
100
AcDbEntity
  8
0
100
AcDbLine
 10
153.2696259889726
 20
139.7260552543474
 30
0.0
 11
153.4339715946761
 21
139.27451941369
 31
0.0
  0
LINE
  5
63
330
1E
100
AcDbEntity
  8
0
100
AcDbLine
 10
152.2699223842365
 20
140.4260552543591
 30
0.0
 11
153.2696259889726
 21
139.7260552543474
 31
0.0
  0
LINE
  5
64
330
1E
100
AcDbEntity
  8
0
100
AcDbLine
 10
155.9272315165365
 20
26.33416675283999
 30
0.0
 11
216.1541561669586
 21
26.33416675283925
 31
0.0
  0
LINE
  5
65
330
1E
100
AcDbEntity
  8
0
100
AcDbLine
 10
216.1541561669586
 20
36.33416675284076
 30
0.0
 11
155.9272315165368
 21
36.33416675284001
 31
0.0
  0
LINE
  5
66
330
1E
100
AcDbEntity
  8
1
100
AcDbLine
 10
128.0185194019009
 20
31.33416675284001
 30
0.0
 11
243.5185194019009
 21
31.33416675284001
 31
0.0
  0
LINE
  5
67
330
1E
100
AcDbEntity
  8
1
100
AcDbLine
 10
226.018519401901
 20
48.83416675284
 30
0.0
 11
226.018519401901
 21
13.83416675284001
 31
0.0
  0
LINE
  5
68
330
1E
100
AcDbEntity
  8
1
100
AcDbLine
 10
145.0185194019009
 20
48.33416675284
 30
0.0
 11
145.0185194019009
 21
14.33416675284001
 31
0.0
  0
ARC
  5
69
330
1E
100
AcDbEntity
  8
0
100
AcDbCircle
 10
226.018519401901
 20
31.33416675284001
 30
0.0
 40
12.5
100
AcDbArc
 50
217.8939393189511
 51
142.1060606810488
  0
CIRCLE
  5
6A
330
1E
100
AcDbEntity
  8
0
100
AcDbCircle
 10
145.0185194019009
 20
31.33416675284001
 30
0.0
 40
12.0
  0
CIRCLE
  5
6B
330
1E
100
AcDbEntity
  8
0
100
AcDbCircle
 10
145.0185194019009
 20
31.33416675284001
 30
0.0
 40
11.3
  0
CIRCLE
  5
6C
330
1E
100
AcDbEntity
  8
0
100
AcDbCircle
 10
145.0185194019009
 20
31.33416675284001
 30
0.0
 40
8.5
  0
CIRCLE
  5
6D
330
1E
100
AcDbEntity
  8
0
100
AcDbCircle
 10
145.0185194019009
 20
31.33416675284001
 30
0.0
 40
8.0
  0
CIRCLE
  5
6E
330
1E
100
AcDbEntity
  8
3
100
AcDbCircle
 10
145.0185194019009
 20
31.33416675284001
 30
0.0
 40
5.0
  0
CIRCLE
  5
6F
330
1E
100
AcDbEntity
  8
0
100
AcDbCircle
 10
145.0185194019009
 20
31.33416675284001
 30
0.0
 40
4.187999999999998
  0
CIRCLE
  5
70
330
1E
100
AcDbEntity
  8
0
100
AcDbCircle
 10
315.9007630886083
 20
160.4260552543593
 30
0.0
 40
12.5
  0
LINE
  5
71
330
1E
100
AcDbEntity
  8
1
100
AcDbLine
 10
333.4007630886083
 20
160.4260552543593
 30
0.0
 11
298.4007630886083
 21
160.4260552543593
 31
0.0
  0
LINE
  5
72
330
1E
100
AcDbEntity
  8
1
100
AcDbLine
 10
315.9007630886083
 20
177.9260552543593
 30
0.0
 11
315.9007630886083
 21
91.42605525435916
 31
0.0
  0
LINE
  5
73
330
1E
100
AcDbEntity
  8
0
100
AcDbLine
 10
327.9007630886083
 20
101.1260552543707
 30
0.0
 11
327.2007630885702
 21
100.4260552543591
 31
0.0
  0
LINE
  5
74
330
1E
100
AcDbEntity
  8
0
100
AcDbLine
 10
324.4007630886083
 20
100.4260552543591
 30
0.0
 11
324.4007630886083
 21
96.92605525436045
 31
0.0
  0
LINE
  5
75
330
1E
100
AcDbEntity
  8
0
100
AcDbLine
 10
324.4007630886083
 20
96.92605525436045
 30
0.0
 11
323.9007630886071
 21
96.42605525435916
 31
0.0
  0
LINE
  5
76
330
1E
100
AcDbEntity
  8
0
100
AcDbLine
 10
307.4007630886083
 20
96.92605525436045
 30
0.0
 11
307.9007630886097
 21
96.42605525435916
 31
0.0
  0
LINE
  5
77
330
1E
100
AcDbEntity
  8
0
100
AcDbLine
 10
307.4007630886083
 20
100.4260552543591
 30
0.0
 11
307.4007630886083
 21
96.92605525436045
 31
0.0
  0
LINE
  5
78
330
1E
100
AcDbEntity
  8
0
100
AcDbLine
 10
303.9007630886083
 20
101.1260552543707
 30
0.0
 11
304.6007630886466
 21
100.4260552543591
 31
0.0
  0
LINE
  5
79
330
1E
100
AcDbEntity
  8
0
100
AcDbLine
 10
304.6007630886466
 20
100.4260552543591
 30
0.0
 11
327.2007630885702
 21
100.4260552543591
 31
0.0
  0
LINE
  5
7A
330
1E
100
AcDbEntity
  8
0
100
AcDbLine
 10
307.9007630886097
 20
96.42605525435916
 30
0.0
 11
323.9007630886071
 21
96.42605525435916
 31
0.0
  0
LINE
  5
7B
330
1E
100
AcDbEntity
  8
0
100
AcDbLine
 10
303.9007630886085
 20
101.1260552543707
 30
0.0
 11
327.9007630886083
 21
101.1260552543707
 31
0.0
  0
LINE
  5
7C
330
1E
100
AcDbEntity
  8
0
100
AcDbLine
 10
307.4007630886083
 20
96.92605525436045
 30
0.0
 11
324.4007630886083
 21
96.92605525436045
 31
0.0
  0
LINE
  5
7D
330
1E
100
AcDbEntity
  8
0
100
AcDbLine
 10
327.9007630886147
 20
129.4260552543591
 30
0.0
 11
327.9007630886083
 21
101.1260552543707
 31
0.0
  0
LINE
  5
7E
330
1E
100
AcDbEntity
  8
0
100
AcDbLine
 10
303.9007630886021
 20
129.4260552543591
 30
0.0
 11
327.9007630886147
 21
129.4260552543591
 31
0.0
  0
LINE
  5
7F
330
1E
100
AcDbEntity
  8
0
100
AcDbLine
 10
303.9007630886021
 20
129.4260552543591
 30
0.0
 11
303.9007630886083
 21
101.1260552543707
 31
0.0
  0
POLYLINE
  5
80
330
1E
100
AcDbEntity
  8
0
100
AcDb2dPolyline
 66
     1
 10
0.0
 20
0.0
 30
0.0
  0
VERTEX
  5
81
330
80
100
AcDbEntity
  8
0
100
AcDbVertex
100
AcDb2dVertex
 10
310.9007630886083
 20
134.1125734767948
 30
0.0
 42
0.1142025632083329
  0
VERTEX
  5
82
330
80
100
AcDbEntity
  8
0
100
AcDbVertex
100
AcDb2dVertex
 10
311.2673961745491
 20
132.5283210554249
 30
0.0
 42
0.1036712431853597
  0
VERTEX
  5
83
330
80
100
AcDbEntity
  8
0
100
AcDbVertex
100
AcDb2dVertex
 10
312.3652291826756
 20
131.1179887167186
 30
0.0
 42
0.0915865767394095
 70
     2
 50
319.735518287714
  0
VERTEX
  5
84
330
80
100
AcDbEntity
  8
0
100
AcDbVertex
100
AcDb2dVertex
 10
314.1040739417105
 20
130.1221981151921
 30
0.0
 42
0.1014000836155305
 50
319.735518287714
  0
VERTEX
  5
85
330
80
100
AcDbEntity
  8
0
100
AcDbVertex
100
AcDb2dVertex
 10
315.9007630886083
 20
129.8775910954192
 30
0.0
 42
0.0845558214562904
  0
VERTEX
  5
86
330
80
100
AcDbEntity
  8
0
100
AcDbVertex
100
AcDb2dVertex
 10
317.8501126754889
 20
130.2096227289017
 30
0.0
 42
0.0915865767394003
  0
VERTEX
  5
87
330
80
100
AcDbEntity
  8
0
100
AcDbVertex
100
AcDb2dVertex
 10
319.4362969945411
 20
131.1179887167186
 30
0.0
 42
0.1036712431853415
 70
     2
 50
40.26448171228594
  0
VERTEX
  5
88
330
80
100
AcDbEntity
  8
0
100
AcDbVertex
100
AcDb2dVertex
 10
320.5341300026676
 20
132.528321055425
 30
0.0
 42
0.1142025632083186
 50
40.26448171228594
  0
VERTEX
  5
89
330
80
100
AcDbEntity
  8
0
100
AcDbVertex
100
AcDb2dVertex
 10
320.9007630886083
 20
134.1125734767948
 30
0.0
 42
0.1142025632083372
  0
SEQEND
  5
8A
330
80
100
AcDbEntity
  8
0
  0
LINE
  5
8B
330
1E
100
AcDbEntity
  8
0
100
AcDbLine
 10
310.900763088608
 20
148.9696160169704
 30
0.0
 11
310.900763088608
 21
134.1125767804196
 31
0.0
  0
LINE
  5
8C
330
1E
100
AcDbEntity
  8
0
100
AcDbLine
 10
320.9007630886087
 20
148.9696160169698
 30
0.0
 11
320.9007630886087
 21
134.1125715694462
 31
0.0
  0
LINE
  5
8D
330
1E
100
AcDbEntity
  8
0
100
AcDbLine
 10
307.6496565015363
 20
139.7260552543474
 30
0.0
 11
310.900763088608
 21
139.7260552543474
 31
0.0
  0
LINE
  5
8E
330
1E
100
AcDbEntity
  8
0
100
AcDbLine
 10
308.6493601062725
 20
140.4260552543591
 30
0.0
 11
310.900763088608
 21
140.4260552543591
 31
0.0
  0
LINE
  5
8F
330
1E
100
AcDbEntity
  8
0
100
AcDbLine
 10
308.6493601062725
 20
140.4260552543591
 30
0.0
 11
307.6496565015363
 21
139.7260552543474
 31
0.0
  0
LINE
  5
90
330
1E
100
AcDbEntity
  8
0
100
AcDbLine
 10
323.1521660709443
 20
140.4260552543591
 30
0.0
 11
324.1518696756804
 21
139.7260552543474
 31
0.0
  0
LINE
  5
91
330
1E
100
AcDbEntity
  8
0
100
AcDbLine
 10
307.6496565015368
 20
139.7260552543474
 30
0.0
 11
303.9007630886021
 21
129.4260552543591
 31
0.0
  0
LINE
  5
92
330
1E
100
AcDbEntity
  8
0
100
AcDbLine
 10
324.15186967568
 20
139.7260552543474
 30
0.0
 11
327.9007630886147
 21
129.4260552543591
 31
0.0
  0
LINE
  5
93
330
1E
100
AcDbEntity
  8
0
100
AcDbLine
 10
320.9007630886087
 20
139.7260552543474
 30
0.0
 11
324.1518696756804
 21
139.7260552543474
 31
0.0
  0
LINE
  5
94
330
1E
100
AcDbEntity
  8
0
100
AcDbLine
 10
320.9007630886087
 20
140.4260552543591
 30
0.0
 11
323.1521660709443
 21
140.4260552543591
 31
0.0
  0
LINE
  5
95
330
1E
100
AcDbEntity
  8
0
100
AcDbLine
 10
60.49431319035022
 20
139.7260552543474
 30
0.0
 11
64.24320660328489
 21
129.4260552543591
 31
0.0
  0
LINE
  5
96
330
1E
100
AcDbEntity
  8
0
100
AcDbLine
 10
43.99210001620689
 20
139.7260552543474
 30
0.0
 11
40.24320660327226
 21
129.4260552543591
 31
0.0
  0
LINE
  5
97
330
1E
100
AcDbEntity
  8
0
100
AcDbLine
 10
59.49460958561445
 20
140.4260552543591
 30
0.0
 11
60.49431319035057
 21
139.7260552543474
 31
0.0
  0
LINE
  5
98
330
1E
100
AcDbEntity
  8
0
100
AcDbLine
 10
44.99180362094266
 20
140.4260552543591
 30
0.0
 11
43.99210001620655
 21
139.7260552543474
 31
0.0
  0
LINE
  5
99
330
1E
100
AcDbEntity
  8
0
100
AcDbLine
 10
44.99180362094266
 20
140.4260552543591
 30
0.0
 11
59.4946095856144
 21
140.4260552543591
 31
0.0
  0
LINE
  5
9A
330
1E
100
AcDbEntity
  8
0
100
AcDbLine
 10
43.99210001620655
 20
139.7260552543474
 30
0.0
 11
60.49431319035041
 21
139.7260552543474
 31
0.0
  0
LINE
  5
9B
330
1E
100
AcDbEntity
  8
0
100
AcDbLine
 10
57.24320660327896
 20
156.8282311940259
 30
0.0
 11
57.24320660327896
 21
140.4260552543591
 31
0.0
  0
LINE
  5
9C
330
1E
100
AcDbEntity
  8
0
100
AcDbLine
 10
47.24320660327818
 20
156.8282311940259
 30
0.0
 11
47.24320660327816
 21
140.4260552543591
 31
0.0
  0
LINE
  5
9D
330
1E
100
AcDbEntity
  8
0
100
AcDbLine
 10
40.24320660327226
 20
129.4260552543591
 30
0.0
 11
40.24320660327855
 21
101.1260552543707
 31
0.0
  0
LINE
  5
9E
330
1E
100
AcDbEntity
  8
0
100
AcDbLine
 10
40.24320660327226
 20
129.4260552543591
 30
0.0
 11
64.24320660328489
 21
129.4260552543591
 31
0.0
  0
LINE
  5
9F
330
1E
100
AcDbEntity
  8
0
100
AcDbLine
 10
64.24320660328489
 20
129.4260552543591
 30
0.0
 11
64.24320660327857
 21
101.1260552543707
 31
0.0
  0
LINE
  5
A0
330
1E
100
AcDbEntity
  8
0
100
AcDbLine
 10
43.74320660327856
 20
96.92605525436045
 30
0.0
 11
60.74320660327856
 21
96.92605525436045
 31
0.0
  0
LINE
  5
A1
330
1E
100
AcDbEntity
  8
0
100
AcDbLine
 10
40.24320660327862
 20
101.1260552543707
 30
0.0
 11
64.24320660327857
 21
101.1260552543707
 31
0.0
  0
LINE
  5
A2
330
1E
100
AcDbEntity
  8
0
100
AcDbLine
 10
44.24320660327986
 20
96.42605525435916
 30
0.0
 11
60.24320660327725
 21
96.42605525435916
 31
0.0
  0
LINE
  5
A3
330
1E
100
AcDbEntity
  8
0
100
AcDbLine
 10
40.94320660331675
 20
100.4260552543591
 30
0.0
 11
63.54320660324038
 21
100.4260552543591
 31
0.0
  0
LINE
  5
A4
330
1E
100
AcDbEntity
  8
0
100
AcDbLine
 10
40.24320660327855
 20
101.1260552543707
 30
0.0
 11
40.94320660331675
 21
100.4260552543591
 31
0.0
  0
LINE
  5
A5
330
1E
100
AcDbEntity
  8
0
100
AcDbLine
 10
43.74320660327856
 20
100.4260552543591
 30
0.0
 11
43.74320660327856
 21
96.92605525436045
 31
0.0
  0
LINE
  5
A6
330
1E
100
AcDbEntity
  8
0
100
AcDbLine
 10
43.74320660327856
 20
96.92605525436045
 30
0.0
 11
44.24320660327986
 21
96.42605525435916
 31
0.0
  0
LINE
  5
A7
330
1E
100
AcDbEntity
  8
0
100
AcDbLine
 10
60.74320660327856
 20
96.92605525436045
 30
0.0
 11
60.24320660327725
 21
96.42605525435916
 31
0.0
  0
LINE
  5
A8
330
1E
100
AcDbEntity
  8
0
100
AcDbLine
 10
60.74320660327856
 20
100.4260552543591
 30
0.0
 11
60.74320660327856
 21
96.92605525436045
 31
0.0
  0
LINE
  5
A9
330
1E
100
AcDbEntity
  8
0
100
AcDbLine
 10
64.24320660327857
 20
101.1260552543707
 30
0.0
 11
63.54320660324038
 21
100.4260552543591
 31
0.0
  0
LINE
  5
AA
330
1E
100
AcDbEntity
  8
1
100
AcDbLine
 10
52.24320660327856
 20
177.9260552543593
 30
0.0
 11
52.24320660327856
 21
91.42605525435916
 31
0.0
  0
LINE
  5
AB
330
1E
100
AcDbEntity
  8
1
100
AcDbLine
 10
69.74320660327856
 20
160.4260552543593
 30
0.0
 11
34.74320660327856
 21
160.4260552543593
 31
0.0
  0
ARC
  5
AC
330
1E
100
AcDbEntity
  8
0
100
AcDbCircle
 10
52.24320660327856
 20
160.4260552543593
 30
0.0
 40
12.5
100
AcDbArc
 50
293.5781784782032
 51
246.4218215217961
  0
POLYLINE
  5
AD
330
1E
100
AcDbEntity
  8
0
100
AcDb2dPolyline
 66
     1
 10
0.0
 20
0.0
 30
0.0
  0
VERTEX
  5
AE
330
AD
100
AcDbEntity
  8
0
100
AcDbVertex
100
AcDb2dVertex
 10
57.24320660327896
 20
156.8282311940259
 30
0.0
 42
0.1041906931494738
  0
VERTEX
  5
AF
330
AD
100
AcDbEntity
  8
0
100
AcDbVertex
100
AcDb2dVertex
 10
56.86754761852983
 20
158.6114084245143
 30
0.0
 42
0.1006722448143139
  0
VERTEX
  5
B0
330
AD
100
AcDbEntity
  8
0
100
AcDbVertex
100
AcDb2dVertex
 10
55.7787405092116
 20
160.1497350680805
 30
0.0
 42
0.0960656700873879
 70
     2
 50
136.7878036793779
  0
VERTEX
  5
B1
330
AD
100
AcDbEntity
  8
0
100
AcDbVertex
100
AcDb2dVertex
 10
54.1709575740886
 20
161.1636825291329
 30
0.0
 42
0.0930441122189638
 50
136.7878036793779
  0
VERTEX
  5
B2
330
AD
100
AcDbEntity
  8
0
100
AcDbVertex
100
AcDb2dVertex
 10
52.24320660327858
 20
161.5255470201888
 30
0.0
 42
0.0930441122189515
  0
VERTEX
  5
B3
330
AD
100
AcDbEntity
  8
0
100
AcDbVertex
100
AcDb2dVertex
 10
50.31545563246861
 20
161.1636825291329
 30
0.0
 42
0.096065670087383
  0
VERTEX
  5
B4
330
AD
100
AcDbEntity
  8
0
100
AcDbVertex
100
AcDb2dVertex
 10
48.70767269734557
 20
160.1497350680805
 30
0.0
 42
0.1006722448143091
 70
     2
 50
223.2121963206219
  0
VERTEX
  5
B5
330
AD
100
AcDbEntity
  8
0
100
AcDbVertex
100
AcDb2dVertex
 10
47.61886558802728
 20
158.6114084245143
 30
0.0
 42
0.1041906931494678
 50
223.2121963206219
  0
VERTEX
  5
B6
330
AD
100
AcDbEntity
  8
0
100
AcDbVertex
100
AcDb2dVertex
 10
47.24320660327818
 20
156.8282311940259
 30
0.0
 42
0.1041906931494732
  0
SEQEND
  5
B7
330
AD
100
AcDbEntity
  8
0
  0
POLYLINE
  5
B8
330
1E
100
AcDbEntity
  8
0
100
AcDb2dPolyline
 66
     1
 10
0.0
 20
0.0
 30
0.0
  0
VERTEX
  5
B9
330
B8
100
AcDbEntity
  8
0
100
AcDbVertex
100
AcDb2dVertex
 10
44.56568499997999
 20
156.8282311940258
 30
0.0
 42
0.1162511140802918
  0
VERTEX
  5
BA
330
B8
100
AcDbEntity
  8
0
100
AcDbVertex
100
AcDb2dVertex
 10
45.12573963932545
 20
154.4519706082724
 30
0.0
 42
0.104161203429831
  0
VERTEX
  5
BB
330
B8
100
AcDbEntity
  8
0
100
AcDbVertex
100
AcDb2dVertex
 10
46.81437901487993
 20
152.3227241312129
 30
0.0
 42
0.0159725243285806
 70
     2
 50
320.309950514268
  0
VERTEX
  5
BC
330
B8
100
AcDbEntity
  8
0
100
AcDbVertex
100
AcDb2dVertex
 10
47.24320660327816
 20
151.9893728477784
 30
0.0
 42
0.0996407709131936
 50
320.309950514268
  0
SEQEND
  5
BD
330
B8
100
AcDbEntity
  8
0
  0
POLYLINE
  5
BE
330
1E
100
AcDbEntity
  8
0
100
AcDb2dPolyline
 66
     1
 10
0.0
 20
0.0
 30
0.0
  0
VERTEX
  5
BF
330
BE
100
AcDbEntity
  8
0
100
AcDbVertex
100
AcDb2dVertex
 10
57.24320660327896
 20
151.9914527482072
 30
0.0
 42
0.0174881487570374
  0
VERTEX
  5
C0
330
BE
100
AcDbEntity
  8
0
100
AcDbVertex
100
AcDb2dVertex
 10
57.6720341916772
 20
152.3227241312129
 30
0.0
 42
0.1041612034298269
 70
     2
 50
39.69004948573179
  0
VERTEX
  5
C1
330
BE
100
AcDbEntity
  8
0
100
AcDbVertex
100
AcDb2dVertex
 10
59.36067356723168
 20
154.4519706082724
 30
0.0
 42
0.116251114080286
 50
39.69004948573179
  0
VERTEX
  5
C2
330
BE
100
AcDbEntity
  8
0
100
AcDbVertex
100
AcDb2dVertex
 10
59.92072820657714
 20
156.8282311940258
 30
0.0
 42
0.1162511140802874
  0
VERTEX
  5
C3
330
BE
100
AcDbEntity
  8
0
100
AcDbVertex
100
AcDb2dVertex
 10
59.36067356723168
 20
159.2044917797791
 30
0.0
 42
0.1041612034298295
  0
VERTEX
  5
C4
330
BE
100
AcDbEntity
  8
0
100
AcDbVertex
100
AcDb2dVertex
 10
57.6720341916772
 20
161.3337382568386
 30
0.0
 42
0.0906501754868113
 70
     2
 50
140.3099505142681
  0
VERTEX
  5
C5
330
BE
100
AcDbEntity
  8
0
100
AcDbVertex
100
AcDb2dVertex
 10
55.24247710466379
 20
162.698849837874
 30
0.0
 42
0.0829670089880951
 50
140.3099505142681
  0
VERTEX
  5
C6
330
BE
100
AcDbEntity
  8
0
100
AcDbVertex
100
AcDb2dVertex
 10
52.24320660327856
 20
163.1999803876235
 30
0.0
 42
0.0829670089880944
  0
VERTEX
  5
C7
330
BE
100
AcDbEntity
  8
0
100
AcDbVertex
100
AcDb2dVertex
 10
49.24393610189331
 20
162.698849837874
 30
0.0
 42
0.090650175486808
  0
VERTEX
  5
C8
330
BE
100
AcDbEntity
  8
0
100
AcDbVertex
100
AcDb2dVertex
 10
46.81437901487993
 20
161.3337382568386
 30
0.0
 42
0.1041612034298258
 70
     2
 50
219.6900494857318
  0
VERTEX
  5
C9
330
BE
100
AcDbEntity
  8
0
100
AcDbVertex
100
AcDb2dVertex
 10
45.12573963932545
 20
159.2044917797792
 30
0.0
 42
0.1162511140802876
 50
219.6900494857318
  0
VERTEX
  5
CA
330
BE
100
AcDbEntity
  8
0
100
AcDbVertex
100
AcDb2dVertex
 10
44.56568499997999
 20
156.8282311940258
 30
0.0
 42
0.1162511140802918
  0
SEQEND
  5
CB
330
BE
100
AcDbEntity
  8
0
  0
POLYLINE
  5
CC
330
1E
100
AcDbEntity
  8
0
100
AcDb2dPolyline
 66
     1
 10
0.0
 20
0.0
 30
0.0
  0
VERTEX
  5
CD
330
CC
100
AcDbEntity
  8
0
100
AcDbVertex
100
AcDb2dVertex
 10
216.1541561669586
 20
39.01168835613965
 30
0.0
 42
0.2393477456550635
  0
VERTEX
  5
CE
330
CC
100
AcDbEntity
  8
0
100
AcDbVertex
100
AcDb2dVertex
 10
215.4550027234178
 20
38.6566686173082
 30
0.0
 42
0.0844887264153103
  0
VERTEX
  5
CF
330
CC
100
AcDbEntity
  8
0
100
AcDbVertex
100
AcDb2dVertex
 10
214.5108649246846
 20
36.7629943412394
 30
0.0
 42
0.0070776879437629
 70
     2
 50
253.1590798722369
  0
VERTEX
  5
D0
330
CC
100
AcDbEntity
  8
0
100
AcDbVertex
100
AcDb2dVertex
 10
214.3876584487244
 20
36.33416675284073
 30
0.0
 42
0.0398791731523196
 50
253.1590798722369
  0
SEQEND
  5
D1
330
CC
100
AcDbEntity
  8
0
  0
POLYLINE
  5
D2
330
1E
100
AcDbEntity
  8
0
100
AcDb2dPolyline
 66
     1
 10
0.0
 20
0.0
 30
0.0
  0
VERTEX
  5
D3
330
D2
100
AcDbEntity
  8
0
100
AcDbVertex
100
AcDb2dVertex
 10
214.3885985741513
 20
26.33416675283926
 30
0.0
 42
0.0080909073222406
  0
VERTEX
  5
D4
330
D2
100
AcDbEntity
  8
0
100
AcDbVertex
100
AcDb2dVertex
 10
214.5108649246846
 20
25.90533916444061
 30
0.0
 42
0.0844887264153065
 70
     2
 50
286.8409201277625
  0
VERTEX
  5
D5
330
D2
100
AcDbEntity
  8
0
100
AcDbVertex
100
AcDb2dVertex
 10
215.4550027234178
 20
24.01166488837176
 30
0.0
 42
0.2393477456550232
 50
286.8409201277625
  0
VERTEX
  5
D6
330
D2
100
AcDbEntity
  8
0
100
AcDbVertex
100
AcDb2dVertex
 10
216.1541561669586
 20
23.65664514954035
 30
0.0
 42
0.2393477456550594
  0
VERTEX
  5
D7
330
D2
100
AcDbEntity
  8
0
100
AcDbVertex
100
AcDb2dVertex
 10
216.8533096104995
 20
24.01166488837177
 30
0.0
 42
0.0844887264153186
  0
VERTEX
  5
D8
330
D2
100
AcDbEntity
  8
0
100
AcDbVertex
100
AcDb2dVertex
 10
217.7974474092326
 20
25.9053391644406
 30
0.0
 42
0.0423250176094284
 70
     2
 50
73.15907987223702
  0
VERTEX
  5
D9
330
D2
100
AcDbEntity
  8
0
100
AcDbVertex
100
AcDb2dVertex
 10
218.2813526320761
 20
28.18316119445816
 30
0.0
 42
0.0311927161481976
 50
73.15907987223702
  0
VERTEX
  5
DA
330
D2
100
AcDbEntity
  8
0
100
AcDbVertex
100
AcDb2dVertex
 10
218.4781209287115
 20
31.33416675283999
 30
0.0
 42
0.0311927161482069
  0
VERTEX
  5
DB
330
D2
100
AcDbEntity
  8
0
100
AcDbVertex
100
AcDb2dVertex
 10
218.2813526320761
 20
34.48517231122203
 30
0.0
 42
0.0423250176094342
  0
VERTEX
  5
DC
330
D2
100
AcDbEntity
  8
0
100
AcDbVertex
100
AcDb2dVertex
 10
217.7974474092328
 20
36.7629943412394
 30
0.0
 42
0.0844887264153308
 70
     2
 50
106.8409201277624
  0
VERTEX
  5
DD
330
D2
100
AcDbEntity
  8
0
100
AcDbVertex
100
AcDb2dVertex
 10
216.8533096104993
 20
38.65666861730825
 30
0.0
 42
0.2393477456550578
 50
106.8409201277624
  0
VERTEX
  5
DE
330
D2
100
AcDbEntity
  8
0
100
AcDbVertex
100
AcDb2dVertex
 10
216.1541561669586
 20
39.01168835613965
 30
0.0
 42
0.2393477456550635
  0
SEQEND
  5
DF
330
D2
100
AcDbEntity
  8
0
  0
POLYLINE
  5
E0
330
1E
100
AcDbEntity
  8
0
100
AcDb2dPolyline
 66
     1
 10
0.0
 20
0.0
 30
0.0
  0
VERTEX
  5
E1
330
E0
100
AcDbEntity
  8
0
100
AcDbVertex
100
AcDb2dVertex
 10
216.1541561669586
 20
26.33416675283923
 30
0.0
 42
0.2235327985923807
  0
VERTEX
  5
E2
330
E0
100
AcDbEntity
  8
0
100
AcDbVertex
100
AcDb2dVertex
 10
216.685256141393
 20
26.58409123467681
 30
0.0
 42
0.0904993377978274
  0
VERTEX
  5
E3
330
E0
100
AcDbEntity
  8
0
100
AcDbVertex
100
AcDb2dVertex
 10
217.3656085329736
 20
27.79863284690675
 30
0.0
 42
0.0473161663206708
 70
     2
 50
71.08595201082919
  0
VERTEX
  5
E4
330
E0
100
AcDbEntity
  8
0
100
AcDbVertex
100
AcDb2dVertex
 10
217.722867592886
 20
29.28717536073744
 30
0.0
 42
0.035261804070035
 50
71.08595201082919
  0
VERTEX
  5
E5
330
E0
100
AcDbEntity
  8
0
100
AcDbVertex
100
AcDb2dVertex
 10
217.867408533146
 20
31.33416675284001
 30
0.0
 42
0.0352618040700426
  0
VERTEX
  5
E6
330
E0
100
AcDbEntity
  8
0
100
AcDbVertex
100
AcDb2dVertex
 10
217.7228675928859
 20
33.38115814494297
 30
0.0
 42
0.0473161663206587
  0
VERTEX
  5
E7
330
E0
100
AcDbEntity
  8
0
100
AcDbVertex
100
AcDb2dVertex
 10
217.3656085329736
 20
34.86970065877327
 30
0.0
 42
0.0904993377978503
 70
     2
 50
108.9140479891708
  0
VERTEX
  5
E8
330
E0
100
AcDbEntity
  8
0
100
AcDbVertex
100
AcDb2dVertex
 10
216.685256141393
 20
36.08424227100317
 30
0.0
 42
0.2235327985924139
 50
108.9140479891708
  0
VERTEX
  5
E9
330
E0
100
AcDbEntity
  8
0
100
AcDbVertex
100
AcDb2dVertex
 10
216.1541561669586
 20
36.33416675284076
 30
0.0
 42
0.2235327985924017
  0
SEQEND
  5
EA
330
E0
100
AcDbEntity
  8
0
  0
LINE
  5
F2
330
1E
100
AcDbEntity
  8
2
100
AcDbLine
 10
140.018519401901
 20
97.11405525435923
 30
0.0
 11
140.018519401901
 21
119.426055254359
 31
0.0
  0
LINE
  5
F3
330
1E
100
AcDbEntity
  8
2
100
AcDbLine
 10
140.8305194019009
 20
97.92605525435918
 30
0.0
 11
140.8305194019009
 21
119.426055254359
 31
0.0
  0
LINE
  5
F4
330
1E
100
AcDbEntity
  8
2
100
AcDbLine
 10
149.206519401901
 20
97.92605525435918
 30
0.0
 11
149.206519401901
 21
119.426055254359
 31
0.0
  0
LINE
  5
F5
330
1E
100
AcDbEntity
  8
2
100
AcDbLine
 10
150.0185194019009
 20
97.11405525435923
 30
0.0
 11
150.0185194019009
 21
119.426055254359
 31
0.0
  0
LINE
  5
F6
330
1E
100
AcDbEntity
  8
2
100
AcDbLine
 10
140.018519401901
 20
119.426055254359
 30
0.0
 11
150.0185194019009
 21
119.426055254359
 31
0.0
  0
LINE
  5
F7
330
1E
100
AcDbEntity
  8
2
100
AcDbLine
 10
150.7065194019011
 20
96.42605525435907
 30
0.0
 11
149.206519401901
 21
97.92605525435913
 31
0.0
  0
LINE
  5
F8
330
1E
100
AcDbEntity
  8
2
100
AcDbLine
 10
149.206519401901
 20
97.92605525435913
 30
0.0
 11
140.8305194019009
 21
97.92605525435913
 31
0.0
  0
LINE
  5
F9
330
1E
100
AcDbEntity
  8
2
100
AcDbLine
 10
139.3305194019007
 20
96.42605525435907
 30
0.0
 11
140.8305194019009
 21
97.92605525435913
 31
0.0
  0
LINE
  5
FA
330
1E
100
AcDbEntity
  8
2
100
AcDbLine
 10
46.5552066032784
 20
96.42605525435907
 30
0.0
 11
48.05520660327847
 21
97.92605525435913
 31
0.0
  0
LINE
  5
FB
330
1E
100
AcDbEntity
  8
2
100
AcDbLine
 10
56.43120660327865
 20
97.92605525435913
 30
0.0
 11
48.05520660327847
 21
97.92605525435913
 31
0.0
  0
LINE
  5
FC
330
1E
100
AcDbEntity
  8
2
100
AcDbLine
 10
57.93120660327872
 20
96.42605525435907
 30
0.0
 11
56.43120660327865
 21
97.92605525435913
 31
0.0
  0
LINE
  5
FD
330
1E
100
AcDbEntity
  8
2
100
AcDbLine
 10
47.24320660327856
 20
119.426055254359
 30
0.0
 11
57.24320660327856
 21
119.426055254359
 31
0.0
  0
LINE
  5
FE
330
1E
100
AcDbEntity
  8
2
100
AcDbLine
 10
57.24320660327856
 20
97.11405525435923
 30
0.0
 11
57.24320660327856
 21
119.426055254359
 31
0.0
  0
LINE
  5
FF
330
1E
100
AcDbEntity
  8
2
100
AcDbLine
 10
56.43120660327865
 20
97.92605525435918
 30
0.0
 11
56.43120660327865
 21
119.426055254359
 31
0.0
  0
LINE
  5
100
330
1E
100
AcDbEntity
  8
2
100
AcDbLine
 10
48.05520660327847
 20
97.92605525435918
 30
0.0
 11
48.05520660327847
 21
119.426055254359
 31
0.0
  0
LINE
  5
101
330
1E
100
AcDbEntity
  8
2
100
AcDbLine
 10
47.24320660327856
 20
97.11405525435923
 30
0.0
 11
47.24320660327856
 21
119.426055254359
 31
0.0
  0
LINE
  5
102
330
1E
100
AcDbEntity
  8
2
100
AcDbLine
 10
310.2127630886081
 20
96.42605525435907
 30
0.0
 11
311.7127630886083
 21
97.92605525435913
 31
0.0
  0
LINE
  5
103
330
1E
100
AcDbEntity
  8
2
100
AcDbLine
 10
320.0887630886085
 20
97.92605525435913
 30
0.0
 11
311.7127630886083
 21
97.92605525435913
 31
0.0
  0
LINE
  5
104
330
1E
100
AcDbEntity
  8
2
100
AcDbLine
 10
321.5887630886085
 20
96.42605525435907
 30
0.0
 11
320.0887630886085
 21
97.92605525435913
 31
0.0
  0
LINE
  5
105
330
1E
100
AcDbEntity
  8
2
100
AcDbLine
 10
310.9007630886083
 20
119.426055254359
 30
0.0
 11
320.9007630886083
 21
119.426055254359
 31
0.0
  0
LINE
  5
106
330
1E
100
AcDbEntity
  8
2
100
AcDbLine
 10
320.9007630886083
 20
97.11405525435923
 30
0.0
 11
320.9007630886083
 21
119.426055254359
 31
0.0
  0
LINE
  5
107
330
1E
100
AcDbEntity
  8
2
100
AcDbLine
 10
320.0887630886085
 20
97.92605525435918
 30
0.0
 11
320.0887630886085
 21
119.426055254359
 31
0.0
  0
LINE
  5
108
330
1E
100
AcDbEntity
  8
2
100
AcDbLine
 10
311.7127630886083
 20
97.92605525435918
 30
0.0
 11
311.7127630886083
 21
119.426055254359
 31
0.0
  0
LINE
  5
109
330
1E
100
AcDbEntity
  8
2
100
AcDbLine
 10
310.9007630886083
 20
97.11405525435923
 30
0.0
 11
310.9007630886083
 21
119.426055254359
 31
0.0
  0
ENDSEC
  0
SECTION
  2
OBJECTS
  0
DICTIONARY
  5
C
330
0
100
AcDbDictionary
281
     1
  3
ACAD_GROUP
350
D
  3
ACAD_LAYOUT
350
19
  3
ACAD_MLINESTYLE
350
16
  3
ACAD_PLOTSETTINGS
350
18
  3
ACAD_PLOTSTYLENAME
350
E
  3
AcDbVariableDictionary
350
1F2
  3
AcmDictionary
350
1C5
  3
AMG
350
10D
  3
AMGSNAPSETTINGS
350
1E2
  3
DWGPROPS
350
1C8
  3
MAPISURF_MODULE
350
198
  0
DICTIONARY
  5
1E9
330
1E
100
AcDbDictionary
280
     1
281
     1
  3
ACAD_INDEX
360
1EA
  0
DICTIONARY
  5
D
102
{ACAD_REACTORS
330
C
102
}
330
C
100
AcDbDictionary
281
     1
  0
DICTIONARY
  5
19
102
{ACAD_REACTORS
330
C
102
}
330
C
100
AcDbDictionary
281
     1
  3
Model
350
21
  3
ﾚｲｱｳﾄ1
350
1D
  0
DICTIONARY
  5
16
102
{ACAD_REACTORS
330
C
102
}
330
C
100
AcDbDictionary
281
     1
  3
Standard
350
17
  0
DICTIONARY
  5
18
102
{ACAD_REACTORS
330
C
102
}
330
C
100
AcDbDictionary
281
     1
  0
ACDBDICTIONARYWDFLT
  5
E
102
{ACAD_REACTORS
330
C
102
}
330
C
100
AcDbDictionary
281
     1
  3
Normal
350
F
100
AcDbDictionaryWithDefault
340
F
  0
DICTIONARY
  5
1F2
102
{ACAD_REACTORS
330
C
102
}
330
C
100
AcDbDictionary
281
     1
  3
DIMASSOC
350
1F4
  3
INDEXCTL
350
1F3
  0
DICTIONARY
  5
1C5
102
{ACAD_REACTORS
330
C
102
}
330
C
100
AcDbDictionary
281
     1
  3
AcmBOMDATA
350
1C6
  0
DICTIONARY
  5
10D
102
{ACAD_REACTORS
330
C
102
}
330
C
100
AcDbDictionary
281
     1
  3
AcMgSettings
350
10E
  3
AMGLAYCFG
350
1D2
  0
DICTIONARY
  5
1E2
102
{ACAD_REACTORS
330
C
102
}
330
C
100
AcDbDictionary
281
     1
  3
DIMENSION
350
1E7
  3
FEA
350
1E6
  3
HATCH (1)
350
1E3
  3
HATCH (2)
350
1E4
  3
SIMPLE WELD
350
1E8
  3
SYMBOLS
350
1E5
  0
XRECORD
  5
1C8
102
{ACAD_REACTORS
330
C
102
}
330
C
100
AcDbXrecord
280
     1
  1
DWGPROPS COOKIE
  2

  3

  4

  6

  7

  8

  9

300
AmdtFileType=84
301
=
302
=
303
=
304
=
305
=
306
=
307
=
308
=
309
=
 40
0.0000025231481481
 41
2450683.567118055
 42
2450683.567118055
  1

 90
        1
  0
DICTIONARY
  5
1EA
102
{ACAD_REACTORS
330
1E9
102
}
330
1E9
100
AcDbDictionary
281
     1
  3
*A1
350
1EB
  0
LAYOUT
  5
21
102
{ACAD_REACTORS
330
19
102
}
330
19
100
AcDbPlotSettings
  1

  2
\\KONISHIDENXP\SHARP MX-2700FG
  4

  6

 40
0.0
 41
0.0
 42
0.0
 43
0.0
 44
0.0
 45
0.0
 46
0.0
 47
0.0
 48
0.0
 49
0.0
140
0.0
141
0.0
142
1.0
143
1.0
 70
  1712
 72
     0
 73
     0
 74
     0
  7

 75
     0
147
1.0
148
0.0
149
0.0
100
AcDbLayout
  1
Model
 70
     1
 71
     0
 10
0.0
 20
0.0
 11
12.0
 21
9.0
 12
0.0
 22
0.0
 32
0.0
 14
0.0
 24
0.0
 34
0.0
 15
0.0
 25
0.0
 35
0.0
146
0.0
 13
0.0
 23
0.0
 33
0.0
 16
1.0
 26
0.0
 36
0.0
 17
0.0
 27
1.0
 37
0.0
 76
     0
330
1E
  0
LAYOUT
  5
1D
102
{ACAD_REACTORS
330
19
102
}
330
19
100
AcDbPlotSettings
  1

  2
\\KONISHIDENXP\SHARP MX-2700FG
  4

  6

 40
0.0
 41
0.0
 42
0.0
 43
0.0
 44
0.0
 45
0.0
 46
0.0
 47
0.0
 48
0.0
 49
0.0
140
0.0
141
0.0
142
1.0
143
1.0
 70
   688
 72
     0
 73
     0
 74
     5
  7

 75
    16
147
1.0
148
0.0
149
0.0
100
AcDbLayout
  1
ﾚｲｱｳﾄ1
 70
     0
 71
     1
 10
0.0
 20
0.0
 11
12.0
 21
9.0
 12
0.0
 22
0.0
 32
0.0
 14
1.000000000000000E+20
 24
1.000000000000000E+20
 34
1.000000000000000E+20
 15
-1.000000000000000E+20
 25
-1.000000000000000E+20
 35
-1.000000000000000E+20
146
0.0
 13
0.0
 23
0.0
 33
0.0
 16
1.0
 26
0.0
 36
0.0
 17
0.0
 27
1.0
 37
0.0
 76
     0
330
1A
  0
MLINESTYLE
  5
17
102
{ACAD_REACTORS
330
16
102
}
330
16
100
AcDbMlineStyle
  2
STANDARD
 70
     0
  3

 62
   256
 51
90.0
 52
90.0
 71
     2
 49
0.5
 62
   256
  6
BYLAYER
 49
-0.5
 62
   256
  6
BYLAYER
  0
ACDBPLACEHOLDER
  5
F
102
{ACAD_REACTORS
330
E
102
}
330
E
  0
DICTIONARYVAR
  5
1F4
102
{ACAD_REACTORS
330
1F2
102
}
330
1F2
100
DictionaryVariables
280
     0
  1
0
  0
DICTIONARYVAR
  5
1F3
102
{ACAD_REACTORS
330
1F2
102
}
330
1F2
100
DictionaryVariables
280
     0
  1
1
  0
ACMDATADICTIONARY
  5
1C6
102
{ACAD_REACTORS
330
1C5
102
}
330
1C5
100
AcDbDictionary
281
     1
  3
*A1
350
1C7
100
AcmDataDictionary
  0
DICTIONARY
  5
10E
102
{ACAD_REACTORS
330
10D
102
}
330
10D
100
AcDbDictionary
281
     1
  3
DWGSETTINGS
350
10F
  0
ACAMGFILTERDAT
  5
1E7
102
{ACAD_REACTORS
330
1E2
102
}
330
1E2
100
AcAmgFilterDat
 70
    15
  1
DIMENSION,AMDT_*_DIM
  2
*
  3
*
  4
*
  5
*
290
     1
  0
ACAMGFILTERDAT
  5
1E6
102
{ACAD_REACTORS
330
1E2
102
}
330
1E2
100
AcAmgFilterDat
 70
    15
  1
*
  2
AM_FEA-AM_*
  3
*
  4
*
  5
*
290
     1
  0
ACAMGFILTERDAT
  5
1E3
102
{ACAD_REACTORS
330
1E2
102
}
330
1E2
100
AcAmgFilterDat
 70
    15
  1
HATCH
  2
*
  3
*
  4
*
  5
*
290
     1
  0
ACAMGFILTERDAT
  5
1E4
102
{ACAD_REACTORS
330
1E2
102
}
330
1E2
100
AcAmgFilterDat
 70
    15
  1
LINE
  2
8,8N,*-8,*-8N,AM_8,AM_8N,*-AM_8,*-AM_8N
  3
*
  4
*
  5
INSERT,STDPART2D
290
     1
  0
ACAMGFILTERDAT
  5
1E8
102
{ACAD_REACTORS
330
1E2
102
}
330
1E2
100
AcAmgFilterDat
 70
    15
  1
ARC
  2
AM_5
  3
*
  4
2
  5
INSERT
290
     0
  0
ACAMGFILTERDAT
  5
1E5
102
{ACAD_REACTORS
330
1E2
102
}
330
1E2
100
AcAmgFilterDat
 70
    15
  1
ACMFCFRAME,ACMDATUMTARGET,ACMDATUMID,ACMWELDSYM,ACMSURFSYM,ACMFEATID,ACMPARTREF,ACMBALLOON,AMDTEDGESYM,AMGSCREWCALCTABLE
  2
*
  3
*
  4
*
  5
*
290
     1
  0
LAYER_INDEX
  5
1EB
102
{ACAD_REACTORS
330
1EA
102
}
330
1EA
100
AcDbIndex
 40
2456449.453838252
100
AcDbLayerIndex
  8
0
360
1EC
 90
       94
  8
1
360
1ED
 90
       13
  8
3
360
1EE
 90
        1
  8
10
360
1EF
 90
        0
  8
11
360
1F0
 90
        0
  8
2
360
1F1
 90
       24
  0
ACMDATAENTRYBLOCK
  5
1C7
102
{ACAD_REACTORS
330
1C6
102
}
330
1C6
100
AcmDataEntry
100
AcmDataEntryBlock
  0
IDBUFFER
  5
1EC
330
0
100
AcDbIdBuffer
330
79
330
7A
330
7B
330
7C
330
7D
330
7E
330
7F
330
80
330
8B
330
8C
330
8D
330
8E
330
8F
330
90
330
91
330
92
330
93
330
94
330
95
330
96
330
97
330
98
330
99
330
9A
330
9B
330
9C
330
9D
330
9E
330
9F
330
A0
330
A1
330
A2
330
A3
330
A4
330
A5
330
A6
330
A7
330
A8
330
A9
330
AC
330
AD
330
B8
330
BE
330
CC
330
D2
330
E0
330
3D
330
3E
330
3F
330
40
330
41
330
42
330
43
330
44
330
49
330
4A
330
4B
330
4C
330
4D
330
4E
330
51
330
52
330
53
330
54
330
55
330
56
330
57
330
58
330
59
330
5A
330
5B
330
5C
330
5D
330
5E
330
5F
330
60
330
61
330
62
330
63
330
64
330
65
330
69
330
6A
330
6B
330
6C
330
6D
330
6F
330
70
330
73
330
74
330
75
330
76
330
77
330
78
  0
IDBUFFER
  5
1ED
330
0
100
AcDbIdBuffer
330
45
330
46
330
47
330
48
330
4F
330
50
330
66
330
67
330
68
330
71
330
72
330
AA
330
AB
  0
IDBUFFER
  5
1EE
330
0
100
AcDbIdBuffer
330
6E
  0
IDBUFFER
  5
1EF
330
0
100
AcDbIdBuffer
  0
IDBUFFER
  5
1F0
330
0
100
AcDbIdBuffer
  0
IDBUFFER
  5
1F1
330
0
100
AcDbIdBuffer
330
102
330
103
330
104
330
105
330
106
330
107
330
108
330
109
330
F2
330
F3
330
F4
330
F5
330
F6
330
F7
330
F8
330
F9
330
FA
330
FB
330
FC
330
FD
330
FE
330
FF
330
100
330
101
  0
ENDSEC
  0
EOF
