  0
SECTION
  2
HEADER
  9
$ACADVER
  1
AC1014
  9
$ACADMAINTVER
 70
     0
  9
$DWGCODEPAGE
  3
ANSI_932
  9
$INSBASE
 10
0.0
 20
0.0
 30
0.0
  9
$EXTMIN
 10
60.0
 20
62.633842
 30
0.0
  9
$EXTMAX
 10
283.405882
 20
195.366158
 30
0.0
  9
$LIMMIN
 10
0.0
 20
0.0
  9
$LIMMAX
 10
350.0
 20
250.0
  9
$ORTHOMODE
 70
     1
  9
$REGENMODE
 70
     1
  9
$FILLMODE
 70
     1
  9
$QTEXTMODE
 70
     0
  9
$MIRRTEXT
 70
     1
  9
$DRAGMODE
 70
     1
  9
$LTSCALE
 40
10.0
  9
$OSMODE
 70
    33
  9
$ATTMODE
 70
     1
  9
$TEXTSIZE
 40
6.0
  9
$TRACEWID
 40
0.05
  9
$TEXTSTYLE
  7
BIGFONT
  9
$CLAYER
  8
0
  9
$CELTYPE
  6
BYLAYER
  9
$CECOLOR
 62
   256
  9
$CELTSCALE
 40
1.0
  9
$DELOBJ
 70
     1
  9
$DISPSILH
 70
     0
  9
$DIMSCALE
 40
1.0
  9
$DIMASZ
 40
3.0
  9
$DIMEXO
 40
2.0
  9
$DIMDLI
 40
0.38
  9
$DIMRND
 40
0.0
  9
$DIMDLE
 40
0.0
  9
$DIMEXE
 40
2.0
  9
$DIMTP
 40
0.0
  9
$DIMTM
 40
0.0
  9
$DIMTXT
 40
3.2
  9
$DIMCEN
 40
0.0
  9
$DIMTSZ
 40
0.0
  9
$DIMTOL
 70
     0
  9
$DIMLIM
 70
     0
  9
$DIMTIH
 70
     0
  9
$DIMTOH
 70
     0
  9
$DIMSE1
 70
     0
  9
$DIMSE2
 70
     0
  9
$DIMTAD
 70
     1
  9
$DIMZIN
 70
     0
  9
$DIMBLK
  1

  9
$DIMASO
 70
     0
  9
$DIMSHO
 70
     0
  9
$DIMPOST
  1

  9
$DIMAPOST
  1

  9
$DIMALT
 70
     0
  9
$DIMALTD
 70
     2
  9
$DIMALTF
 40
25.4
  9
$DIMLFAC
 40
1.0
  9
$DIMTOFL
 70
     1
  9
$DIMTVP
 40
1.6
  9
$DIMTIX
 70
     1
  9
$DIMSOXD
 70
     0
  9
$DIMSAH
 70
     0
  9
$DIMBLK1
  1

  9
$DIMBLK2
  1

  9
$DIMSTYLE
  2
STANDARD
  9
$DIMCLRD
 70
     0
  9
$DIMCLRE
 70
     0
  9
$DIMCLRT
 70
     0
  9
$DIMTFAC
 40
1.0
  9
$DIMGAP
 40
0.09
  9
$DIMJUST
 70
     0
  9
$DIMSD1
 70
     0
  9
$DIMSD2
 70
     0
  9
$DIMTOLJ
 70
     1
  9
$DIMTZIN
 70
     0
  9
$DIMALTZ
 70
     0
  9
$DIMALTTZ
 70
     0
  9
$DIMFIT
 70
     5
  9
$DIMUPT
 70
     0
  9
$DIMUNIT
 70
     2
  9
$DIMDEC
 70
     4
  9
$DIMTDEC
 70
     4
  9
$DIMALTU
 70
     2
  9
$DIMALTTD
 70
     2
  9
$DIMTXSTY
  7
BIGFONT
  9
$DIMAUNIT
 70
     0
  9
$LUNITS
 70
     2
  9
$LUPREC
 70
     4
  9
$SKETCHINC
 40
0.1
  9
$FILLETRAD
 40
0.0
  9
$AUNITS
 70
     0
  9
$AUPREC
 70
     4
  9
$MENU
  1
ACAD
  9
$ELEVATION
 40
0.0
  9
$PELEVATION
 40
0.0
  9
$THICKNESS
 40
0.0
  9
$LIMCHECK
 70
     0
  9
$BLIPMODE
 70
     0
  9
$CHAMFERA
 40
0.0
  9
$CHAMFERB
 40
0.0
  9
$CHAMFERC
 40
0.0
  9
$CHAMFERD
 40
0.0
  9
$SKPOLY
 70
     0
  9
$TDCREATE
 40
2450867.111464814
  9
$TDUPDATE
 40
2453594.663514178
  9
$TDINDWG
 40
0.0156193981
  9
$TDUSRTIMER
 40
0.0156193981
  9
$USRTIMER
 70
     1
  9
$ANGBASE
 50
0.0
  9
$ANGDIR
 70
     0
  9
$PDMODE
 70
     0
  9
$PDSIZE
 40
0.0
  9
$PLINEWID
 40
0.0
  9
$COORDS
 70
     0
  9
$SPLFRAME
 70
     0
  9
$SPLINETYPE
 70
     6
  9
$SPLINESEGS
 70
     8
  9
$ATTDIA
 70
     0
  9
$ATTREQ
 70
     1
  9
$HANDLING
 70
     1
  9
$HANDSEED
  5
179
  9
$SURFTAB1
 70
     6
  9
$SURFTAB2
 70
     6
  9
$SURFTYPE
 70
     6
  9
$SURFU
 70
     6
  9
$SURFV
 70
     6
  9
$UCSNAME
  2

  9
$UCSORG
 10
0.0
 20
0.0
 30
0.0
  9
$UCSXDIR
 10
1.0
 20
0.0
 30
0.0
  9
$UCSYDIR
 10
0.0
 20
1.0
 30
0.0
  9
$PUCSNAME
  2

  9
$PUCSORG
 10
0.0
 20
0.0
 30
0.0
  9
$PUCSXDIR
 10
1.0
 20
0.0
 30
0.0
  9
$PUCSYDIR
 10
0.0
 20
1.0
 30
0.0
  9
$USERI1
 70
     0
  9
$USERI2
 70
     0
  9
$USERI3
 70
     0
  9
$USERI4
 70
     0
  9
$USERI5
 70
     0
  9
$USERR1
 40
0.0
  9
$USERR2
 40
0.0
  9
$USERR3
 40
0.0
  9
$USERR4
 40
0.0
  9
$USERR5
 40
0.0
  9
$WORLDVIEW
 70
     1
  9
$SHADEDGE
 70
     3
  9
$SHADEDIF
 70
    70
  9
$TILEMODE
 70
     1
  9
$MAXACTVP
 70
    16
  9
$PINSBASE
 10
0.0
 20
0.0
 30
0.0
  9
$PLIMCHECK
 70
     0
  9
$PEXTMIN
 10
1.000000E+20
 20
1.000000E+20
 30
1.000000E+20
  9
$PEXTMAX
 10
-1.000000E+20
 20
-1.000000E+20
 30
-1.000000E+20
  9
$PLIMMIN
 10
0.0
 20
0.0
  9
$PLIMMAX
 10
12.0
 20
9.0
  9
$UNITMODE
 70
     0
  9
$VISRETAIN
 70
     0
  9
$PLINEGEN
 70
   241
  9
$PSLTSCALE
 70
     0
  9
$TREEDEPTH
 70
  3020
  9
$PICKSTYLE
 70
     1
  9
$CMLSTYLE
  2
STANDARD
  9
$CMLJUST
 70
     0
  9
$CMLSCALE
 40
1.0
  9
$PROXYGRAPHICS
 70
     1
  9
$MEASUREMENT
 70
     0
  0
ENDSEC
  0
SECTION
  2
CLASSES
  0
CLASS
  1
LWPOLYLINE
  2
AcDbPolyline
  3
"AutoCAD"
 90
        0
280
     0
281
     1
  0
ENDSEC
  0
SECTION
  2
TABLES
  0
TABLE
  2
VPORT
  5
14F
100
AcDbSymbolTable
 70
     3
  0
VPORT
  5
178
100
AcDbSymbolTableRecord
100
AcDbViewportTableRecord
  2
*ACTIVE
 70
     0
 10
0.0
 20
0.0
 11
1.0
 21
1.0
 12
221.702756
 22
154.502698
 13
0.0
 23
0.0
 14
5.0
 24
5.0
 15
10.0
 25
10.0
 16
0.0
 26
0.0
 36
1.0
 17
0.0
 27
0.0
 37
0.0
 40
309.005396
 41
1.434944
 42
50.0
 43
0.0
 44
0.0
 50
0.0
 51
0.0
 71
     0
 72
   500
 73
     1
 74
     1
 75
     0
 76
     0
 77
     0
 78
     2
  0
ENDTAB
  0
TABLE
  2
LTYPE
  5
14C
100
AcDbSymbolTable
 70
     2
  0
LTYPE
  5
158
100
AcDbSymbolTableRecord
100
AcDbLinetypeTableRecord
  2
BYBLOCK
 70
     0
  3

 72
    65
 73
     0
 40
0.0
  0
LTYPE
  5
159
100
AcDbSymbolTableRecord
100
AcDbLinetypeTableRecord
  2
BYLAYER
 70
     0
  3

 72
    65
 73
     0
 40
0.0
  0
LTYPE
  5
15A
100
AcDbSymbolTableRecord
100
AcDbLinetypeTableRecord
  2
CONTINUOUS
 70
     0
  3
実線
 72
    65
 73
     0
 40
0.0
  0
LTYPE
  5
167
100
AcDbSymbolTableRecord
100
AcDbLinetypeTableRecord
  2
CENTER
 70
     0
  3
____ _ ____ _ ____ _ ____ _ ____ _ ____ _ ____
 72
    65
 73
     4
 40
2.0
 49
1.25
 74
     0
 49
-0.25
 74
     0
 49
0.25
 74
     0
 49
-0.25
 74
     0
  0
ENDTAB
  0
TABLE
  2
LAYER
  5
149
100
AcDbSymbolTable
 70
     5
  0
LAYER
  5
155
100
AcDbSymbolTableRecord
100
AcDbLayerTableRecord
  2
0
 70
     0
 62
     7
  6
CONTINUOUS
  0
LAYER
  5
16C
100
AcDbSymbolTableRecord
100
AcDbLayerTableRecord
  2
1
 70
     0
 62
     1
  6
CENTER
  0
LAYER
  5
16D
100
AcDbSymbolTableRecord
100
AcDbLayerTableRecord
  2
3
 70
     0
 62
     3
  6
CONTINUOUS
  0
LAYER
  5
16E
100
AcDbSymbolTableRecord
100
AcDbLayerTableRecord
  2
10
 70
     0
 62
     7
  6
CONTINUOUS
  0
LAYER
  5
16F
100
AcDbSymbolTableRecord
100
AcDbLayerTableRecord
  2
11
 70
     0
 62
     3
  6
CONTINUOUS
  0
ENDTAB
  0
TABLE
  2
STYLE
  5
14A
100
AcDbSymbolTable
 70
     4
  0
STYLE
  5
156
100
AcDbSymbolTableRecord
100
AcDbTextStyleTableRecord
  2
STANDARD
 70
     0
 40
0.0
 41
1.0
 50
0.0
 71
     0
 42
4.0
  3
TXT
  4
BIGFONT
  0
STYLE
  5
164
100
AcDbSymbolTableRecord
100
AcDbTextStyleTableRecord
  2
COMPLEX
 70
     0
 40
3.0
 41
0.4
 50
0.0
 71
     0
 42
3.0
  3
COMPLEX
  4

  0
STYLE
  5
165
100
AcDbSymbolTableRecord
100
AcDbTextStyleTableRecord
  2
07500
 70
     0
 40
0.0
 41
0.75
 50
0.0
 71
     0
 42
3.0
  3
TXT
  4
BIGFONT
  0
STYLE
  5
166
100
AcDbSymbolTableRecord
100
AcDbTextStyleTableRecord
  2
BIGFONT
 70
     0
 40
6.0
 41
1.0
 50
0.0
 71
     0
 42
6.0
  3

  4
bigfont
  0
ENDTAB
  0
TABLE
  2
VIEW
  5
14D
100
AcDbSymbolTable
 70
     1
  0
VIEW
  5
168
100
AcDbSymbolTableRecord
100
AcDbViewTableRecord
  2
ALL
 70
     0
 40
270.0
 10
220.991597
 20
135.0
 41
0.0
 11
0.0
 21
0.0
 31
1.0
 12
0.0
 22
0.0
 32
0.0
 42
0.0
 43
0.0
 44
0.0
 50
0.0
 71
     0
  0
ENDTAB
  0
TABLE
  2
UCS
  5
14E
100
AcDbSymbolTable
 70
     0
  0
ENDTAB
  0
TABLE
  2
APPID
  5
150
100
AcDbSymbolTable
 70
     1
  0
APPID
  5
157
100
AcDbSymbolTableRecord
100
AcDbRegAppTableRecord
  2
ACAD
 70
     0
  0
ENDTAB
  0
TABLE
  2
DIMSTYLE
  5
151
100
AcDbSymbolTable
 70
     1
  0
DIMSTYLE
105
16B
100
AcDbSymbolTableRecord
100
AcDbDimStyleTableRecord
  2
STANDARD
 70
     0
  3

  4

  5

  6

  7

 40
1.0
 41
0.18
 42
0.0625
 43
0.38
 44
0.18
 45
0.0
 46
0.0
 47
0.0
 48
0.0
140
0.18
141
0.09
142
0.0
143
25.4
144
1.0
145
0.0
146
1.0
147
0.09
 71
     0
 72
     0
 73
     1
 74
     1
 75
     0
 76
     0
 77
     0
 78
     0
170
     0
171
     2
172
     0
173
     0
174
     0
175
     0
176
     0
177
     0
178
     0
270
     2
271
     4
272
     4
273
     2
274
     2
340
166
275
     0
280
     0
281
     0
282
     0
283
     1
284
     0
285
     0
286
     0
287
     5
288
     0
  0
ENDTAB
  0
TABLE
  2
BLOCK_RECORD
  5
148
100
AcDbSymbolTable
 70
     1
  0
BLOCK_RECORD
  5
15E
100
AcDbSymbolTableRecord
100
AcDbBlockTableRecord
  2
*MODEL_SPACE
  0
BLOCK_RECORD
  5
15B
100
AcDbSymbolTableRecord
100
AcDbBlockTableRecord
  2
*PAPER_SPACE
  0
BLOCK_RECORD
  5
163
100
AcDbSymbolTableRecord
100
AcDbBlockTableRecord
  2
WWW
  0
ENDTAB
  0
ENDSEC
  0
SECTION
  2
BLOCKS
  0
BLOCK
  5
172
100
AcDbEntity
  8
0
100
AcDbBlockBegin
  2
*MODEL_SPACE
 70
     0
 10
0.0
 20
0.0
 30
0.0
  3
*MODEL_SPACE
  1

  0
ENDBLK
  5
173
100
AcDbEntity
  8
0
100
AcDbBlockEnd
  0
BLOCK
  5
170
100
AcDbEntity
 67
     1
  8
0
100
AcDbBlockBegin
  2
*PAPER_SPACE
 70
     0
 10
0.0
 20
0.0
 30
0.0
  3
*PAPER_SPACE
  1

  0
ENDBLK
  5
171
100
AcDbEntity
 67
     1
  8
0
100
AcDbBlockEnd
  0
BLOCK
  5
2C
100
AcDbEntity
  8
0
100
AcDbBlockBegin
  2
WWW
 70
     0
 10
375.0
 20
0.0
 30
0.0
  3
WWW
  1

  0
LINE
  5
2D
100
AcDbEntity
  8
11
100
AcDbLine
 10
278.0
 20
36.0
 30
0.0
 11
375.0
 21
36.0
 31
0.0
  0
TEXT
  5
2E
100
AcDbEntity
  8
11
100
AcDbText
 10
280.0
 20
32.5
 30
0.0
 40
2.5
  1
部品名称
100
AcDbText
  0
LINE
  5
2F
100
AcDbEntity
  8
11
100
AcDbLine
 10
278.0
 20
36.0
 30
0.0
 11
278.0
 21
0.0
 31
0.0
  0
LINE
  5
30
100
AcDbEntity
  8
11
100
AcDbLine
 10
278.0
 20
24.0
 30
0.0
 11
375.0
 21
24.0
 31
0.0
  0
TEXT
  5
31
100
AcDbEntity
  8
11
100
AcDbText
 10
280.0
 20
20.5
 30
0.0
 40
2.5
  1
品番
100
AcDbText
  0
TEXT
  5
32
100
AcDbEntity
  8
11
100
AcDbText
 10
280.0
 20
8.5
 30
0.0
 40
2.5
  1
尺度
100
AcDbText
  0
LINE
  5
33
100
AcDbEntity
  8
11
100
AcDbLine
 10
278.0
 20
12.0
 30
0.0
 11
375.0
 21
12.0
 31
0.0
  0
TEXT
  5
34
100
AcDbEntity
  8
11
100
AcDbText
 10
305.0
 20
8.5
 30
0.0
 40
2.5
  1
図番
100
AcDbText
  0
LINE
  5
35
100
AcDbEntity
  8
11
100
AcDbLine
 10
303.0
 20
0.0
 30
0.0
 11
303.0
 21
12.0
 31
0.0
  0
ENDBLK
  5
36
100
AcDbEntity
  8
0
100
AcDbBlockEnd
  0
ENDSEC
  0
SECTION
  2
ENTITIES
  0
LINE
  5
37
100
AcDbEntity
  8
0
100
AcDbLine
 10
169.61203
 20
67.633842
 30
0.0
 11
171.61203
 21
69.633842
 31
0.0
  0
LINE
  5
38
100
AcDbEntity
  8
0
100
AcDbLine
 10
171.61203
 20
69.633842
 30
0.0
 11
171.61203
 21
99.033842
 31
0.0
  0
ARC
  5
39
100
AcDbEntity
  8
0
100
AcDbCircle
 10
172.21203
 20
99.033842
 30
0.0
 40
0.6
100
AcDbArc
 50
90.0
 51
180.0
  0
LINE
  5
3A
100
AcDbEntity
  8
3
100
AcDbLine
 10
171.61203
 20
99.033842
 30
0.0
 11
170.66503
 21
97.39359
 31
0.0
  0
LINE
  5
3B
100
AcDbEntity
  8
3
100
AcDbLine
 10
170.66503
 20
97.39359
 30
0.0
 11
170.66503
 21
68.686842
 31
0.0
  0
LINE
  5
3C
100
AcDbEntity
  8
3
100
AcDbLine
 10
160.55903
 20
97.39359
 30
0.0
 11
160.55903
 21
68.686842
 31
0.0
  0
LINE
  5
3D
100
AcDbEntity
  8
3
100
AcDbLine
 10
159.61203
 20
99.033842
 30
0.0
 11
160.55903
 21
97.39359
 31
0.0
  0
ARC
  5
3E
100
AcDbEntity
  8
0
100
AcDbCircle
 10
159.01203
 20
99.033842
 30
0.0
 40
0.6
100
AcDbArc
 50
0.0
 51
90.0
  0
LINE
  5
3F
100
AcDbEntity
  8
0
100
AcDbLine
 10
159.61203
 20
69.633842
 30
0.0
 11
159.61203
 21
99.033842
 31
0.0
  0
LINE
  5
40
100
AcDbEntity
  8
0
100
AcDbLine
 10
161.61203
 20
67.633842
 30
0.0
 11
159.61203
 21
69.633842
 31
0.0
  0
LINE
  5
41
100
AcDbEntity
  8
0
100
AcDbLine
 10
159.61203
 20
97.39359
 30
0.0
 11
171.61203
 21
97.39359
 31
0.0
  0
LINE
  5
42
100
AcDbEntity
  8
0
100
AcDbLine
 10
159.61203
 20
69.633842
 30
0.0
 11
171.61203
 21
69.633842
 31
0.0
  0
LINE
  5
43
100
AcDbEntity
  8
0
100
AcDbLine
 10
161.61203
 20
67.633842
 30
0.0
 11
169.61203
 21
67.633842
 31
0.0
  0
LINE
  5
44
100
AcDbEntity
  8
0
100
AcDbLine
 10
179.61203
 20
137.633842
 30
0.0
 11
179.61203
 21
105.333842
 31
0.0
  0
LINE
  5
45
100
AcDbEntity
  8
0
100
AcDbLine
 10
179.61203
 20
105.333842
 30
0.0
 11
178.91203
 21
104.633842
 31
0.0
  0
LINE
  5
46
100
AcDbEntity
  8
0
100
AcDbLine
 10
175.61203
 20
104.633842
 30
0.0
 11
175.61203
 21
100.133842
 31
0.0
  0
LINE
  5
47
100
AcDbEntity
  8
0
100
AcDbLine
 10
175.61203
 20
100.133842
 30
0.0
 11
175.11203
 21
99.633842
 31
0.0
  0
LINE
  5
48
100
AcDbEntity
  8
0
100
AcDbLine
 10
155.61203
 20
100.133842
 30
0.0
 11
156.11203
 21
99.633842
 31
0.0
  0
LINE
  5
49
100
AcDbEntity
  8
0
100
AcDbLine
 10
155.61203
 20
104.633842
 30
0.0
 11
155.61203
 21
100.133842
 31
0.0
  0
LINE
  5
4A
100
AcDbEntity
  8
0
100
AcDbLine
 10
151.61203
 20
105.333842
 30
0.0
 11
152.31203
 21
104.633842
 31
0.0
  0
LINE
  5
4B
100
AcDbEntity
  8
0
100
AcDbLine
 10
151.61203
 20
137.633842
 30
0.0
 11
151.61203
 21
105.333842
 31
0.0
  0
LINE
  5
4C
100
AcDbEntity
  8
0
100
AcDbLine
 10
155.979672
 20
149.633842
 30
0.0
 11
151.61203
 21
137.633842
 31
0.0
  0
LINE
  5
4D
100
AcDbEntity
  8
0
100
AcDbLine
 10
157.407821
 20
150.633842
 30
0.0
 11
155.979672
 21
149.633842
 31
0.0
  0
LINE
  5
4E
100
AcDbEntity
  8
0
100
AcDbLine
 10
156.11203
 20
99.633842
 30
0.0
 11
175.11203
 21
99.633842
 31
0.0
  0
LINE
  5
4F
100
AcDbEntity
  8
0
100
AcDbLine
 10
152.31203
 20
104.633842
 30
0.0
 11
178.91203
 21
104.633842
 31
0.0
  0
LINE
  5
50
100
AcDbEntity
  8
0
100
AcDbLine
 10
151.61203
 20
137.633842
 30
0.0
 11
179.61203
 21
137.633842
 31
0.0
  0
LINE
  5
51
100
AcDbEntity
  8
0
100
AcDbLine
 10
157.407821
 20
150.633842
 30
0.0
 11
173.816239
 21
150.633842
 31
0.0
  0
LINE
  5
52
100
AcDbEntity
  8
0
100
AcDbLine
 10
155.979672
 20
149.633842
 30
0.0
 11
175.244387
 21
149.633842
 31
0.0
  0
LINE
  5
59
100
AcDbEntity
  8
1
100
AcDbLine
 10
165.61203
 20
161.633842
 30
0.0
 11
165.61203
 21
62.633842
 31
0.0
  0
LINE
  5
5A
100
AcDbEntity
  8
0
100
AcDbLine
 10
173.816239
 20
150.633842
 30
0.0
 11
175.244387
 21
149.633842
 31
0.0
  0
LINE
  5
5B
100
AcDbEntity
  8
0
100
AcDbLine
 10
175.244387
 20
149.633842
 30
0.0
 11
175.547097
 21
148.802151
 31
0.0
  0
LINE
  5
5C
100
AcDbEntity
  8
1
100
AcDbLine
 10
283.405882
 20
182.206561
 30
0.0
 11
165.61203
 21
139.333105
 31
0.0
  0
LINE
  5
5D
100
AcDbEntity
  8
1
100
AcDbLine
 10
257.771627
 20
194.16001
 30
0.0
 11
271.452433
 21
156.572306
 31
0.0
  0
LINE
  5
5E
100
AcDbEntity
  8
0
100
AcDbLine
 10
249.836581
 20
177.951912
 30
0.0
 11
254.95547
 21
163.88788
 31
0.0
  0
ARC
  5
5F
100
AcDbEntity
  8
0
100
AcDbCircle
 10
264.61203
 20
175.366158
 30
0.0
 40
15.0
100
AcDbArc
 50
229.926435
 51
170.073565
  0
LINE
  5
60
100
AcDbEntity
  8
0
100
AcDbLine
 10
175.547097
 20
148.802151
 30
0.0
 11
250.514915
 21
176.088206
 31
0.0
  0
LINE
  5
61
100
AcDbEntity
  8
0
100
AcDbLine
 10
254.277136
 20
165.751587
 30
0.0
 11
179.309319
 21
138.465533
 31
0.0
  0
ARC
  5
67
100
AcDbEntity
  8
0
100
AcDbCircle
 10
186.283896
 20
146.857049
 30
0.0
 40
10.911566
100
AcDbArc
 50
169.731536
 51
230.268464
  0
LINE
  5
68
100
AcDbEntity
  8
0
100
AcDbLine
 10
179.309319
 20
138.465533
 30
0.0
 11
179.61203
 21
137.633842
 31
0.0
  0
LINE
  5
69
100
AcDbEntity
  8
0
100
AcDbLine
 10
151.61203
 20
105.333842
 30
0.0
 11
179.61203
 21
105.333842
 31
0.0
  0
LINE
  5
6A
100
AcDbEntity
  8
0
100
AcDbLine
 10
155.61203
 20
100.133842
 30
0.0
 11
175.61203
 21
100.133842
 31
0.0
  0
LINE
  5
9C
100
AcDbEntity
  8
0
100
AcDbLine
 10
89.632357
 20
149.633842
 30
0.0
 11
94.0
 21
137.633842
 31
0.0
  0
LINE
  5
9D
100
AcDbEntity
  8
0
100
AcDbLine
 10
88.204209
 20
150.633842
 30
0.0
 11
89.632357
 21
149.633842
 31
0.0
  0
LINE
  5
9E
100
AcDbEntity
  8
0
100
AcDbLine
 10
70.367643
 20
149.633842
 30
0.0
 11
66.0
 21
137.633842
 31
0.0
  0
LINE
  5
9F
100
AcDbEntity
  8
0
100
AcDbLine
 10
71.795791
 20
150.633842
 30
0.0
 11
70.367643
 21
149.633842
 31
0.0
  0
LINE
  5
A0
100
AcDbEntity
  8
0
100
AcDbLine
 10
71.795791
 20
150.633842
 30
0.0
 11
88.204209
 21
150.633842
 31
0.0
  0
LINE
  5
A1
100
AcDbEntity
  8
0
100
AcDbLine
 10
70.367643
 20
149.633842
 30
0.0
 11
89.632357
 21
149.633842
 31
0.0
  0
LINE
  5
A2
100
AcDbEntity
  8
0
100
AcDbLine
 10
85.5
 20
150.633842
 30
0.0
 11
85.5
 21
170.919896
 31
0.0
  0
LINE
  5
A3
100
AcDbEntity
  8
0
100
AcDbLine
 10
74.5
 20
150.633842
 30
0.0
 11
74.5
 21
170.919896
 31
0.0
  0
LINE
  5
A4
100
AcDbEntity
  8
0
100
AcDbLine
 10
66.0
 20
137.633842
 30
0.0
 11
94.0
 21
137.633842
 31
0.0
  0
LINE
  5
A5
100
AcDbEntity
  8
0
100
AcDbLine
 10
94.0
 20
137.633842
 30
0.0
 11
94.0
 21
105.333842
 31
0.0
  0
LINE
  5
A6
100
AcDbEntity
  8
0
100
AcDbLine
 10
94.0
 20
105.333842
 30
0.0
 11
93.3
 21
104.633842
 31
0.0
  0
LINE
  5
A7
100
AcDbEntity
  8
0
100
AcDbLine
 10
90.0
 20
104.633842
 30
0.0
 11
90.0
 21
100.133842
 31
0.0
  0
LINE
  5
A8
100
AcDbEntity
  8
0
100
AcDbLine
 10
90.0
 20
100.133842
 30
0.0
 11
89.5
 21
99.633842
 31
0.0
  0
LINE
  5
A9
100
AcDbEntity
  8
0
100
AcDbLine
 10
70.0
 20
100.133842
 30
0.0
 11
70.5
 21
99.633842
 31
0.0
  0
LINE
  5
AA
100
AcDbEntity
  8
0
100
AcDbLine
 10
70.0
 20
104.633842
 30
0.0
 11
70.0
 21
100.133842
 31
0.0
  0
LINE
  5
AB
100
AcDbEntity
  8
0
100
AcDbLine
 10
66.0
 20
105.333842
 30
0.0
 11
66.7
 21
104.633842
 31
0.0
  0
LINE
  5
AC
100
AcDbEntity
  8
0
100
AcDbLine
 10
66.0
 20
137.633842
 30
0.0
 11
66.0
 21
105.333842
 31
0.0
  0
LINE
  5
AD
100
AcDbEntity
  8
0
100
AcDbLine
 10
70.5
 20
99.633842
 30
0.0
 11
89.5
 21
99.633842
 31
0.0
  0
LINE
  5
AE
100
AcDbEntity
  8
0
100
AcDbLine
 10
66.7
 20
104.633842
 30
0.0
 11
93.3
 21
104.633842
 31
0.0
  0
LINE
  5
AF
100
AcDbEntity
  8
0
100
AcDbLine
 10
66.0
 20
105.333842
 30
0.0
 11
94.0
 21
105.333842
 31
0.0
  0
LINE
  5
B0
100
AcDbEntity
  8
0
100
AcDbLine
 10
70.0
 20
100.133842
 30
0.0
 11
90.0
 21
100.133842
 31
0.0
  0
LINE
  5
B1
100
AcDbEntity
  8
1
100
AcDbLine
 10
80.0
 20
195.366158
 30
0.0
 11
80.0
 21
62.633842
 31
0.0
  0
LINE
  5
B2
100
AcDbEntity
  8
1
100
AcDbLine
 10
100.0
 20
175.366158
 30
0.0
 11
60.0
 21
175.366158
 31
0.0
  0
ARC
  5
B3
100
AcDbEntity
  8
0
100
AcDbCircle
 10
80.0
 20
175.366158
 30
0.0
 40
15.0
100
AcDbArc
 50
291.510188
 51
248.489812
  0
LWPOLYLINE
  5
B4
100
AcDbEntity
  8
0
100
AcDbPolyline
 90
        4
 70
     0
 43
0.0
 10
71.295447
 20
170.919896
 42
0.119002
 10
71.925943
 20
168.308323
 42
0.104756
 10
73.844951
 20
165.94751
 42
0.021018
 10
74.5
 20
165.462357
 42
0.097353
  0
LWPOLYLINE
  5
BA
100
AcDbEntity
  8
0
100
AcDbPolyline
 90
       12
 70
     0
 43
0.0
 10
85.5
 20
165.466428
 42
0.023032
 10
86.155049
 20
165.94751
 42
0.104756
 10
88.074057
 20
168.308323
 42
0.119002
 10
88.704553
 20
170.919896
 42
0.119002
 10
88.074057
 20
173.53147
 42
0.104756
 10
86.155049
 20
175.892282
 42
0.089387
 10
83.409273
 20
177.396631
 42
0.080904
 10
80.0
 20
177.951912
 42
0.080904
 10
76.590727
 20
177.396631
 42
0.089387
 10
73.844951
 20
175.892282
 42
0.104756
 10
71.925943
 20
173.53147
 42
0.119002
 10
71.295447
 20
170.919896
 42
0.119002
  0
LWPOLYLINE
  5
C8
100
AcDbEntity
  8
0
100
AcDbPolyline
 90
        9
 70
     0
 43
0.0
 10
85.5
 20
170.919896
 42
0.104168
 10
85.086753
 20
172.881934
 42
0.100664
 10
83.889087
 20
174.574443
 42
0.096076
 10
82.120467
 20
175.690075
 42
0.093065
 10
80.0
 20
176.088206
 42
0.093065
 10
77.879533
 20
175.690075
 42
0.096076
 10
76.110913
 20
174.574443
 42
0.100664
 10
74.913247
 20
172.881934
 42
0.104168
 10
74.5
 20
170.919896
 42
0.104168
  0
LINE
  5
D3
100
AcDbEntity
  8
0
100
AcDbLine
 10
76.0
 20
67.633842
 30
0.0
 11
84.0
 21
67.633842
 31
0.0
  0
LINE
  5
D4
100
AcDbEntity
  8
0
100
AcDbLine
 10
74.0
 20
69.633842
 30
0.0
 11
86.0
 21
69.633842
 31
0.0
  0
LINE
  5
D5
100
AcDbEntity
  8
0
100
AcDbLine
 10
74.0
 20
97.39359
 30
0.0
 11
86.0
 21
97.39359
 31
0.0
  0
LINE
  5
D6
100
AcDbEntity
  8
0
100
AcDbLine
 10
76.0
 20
67.633842
 30
0.0
 11
74.0
 21
69.633842
 31
0.0
  0
LINE
  5
D7
100
AcDbEntity
  8
0
100
AcDbLine
 10
74.0
 20
69.633842
 30
0.0
 11
74.0
 21
99.033842
 31
0.0
  0
ARC
  5
D8
100
AcDbEntity
  8
0
100
AcDbCircle
 10
73.4
 20
99.033842
 30
0.0
 40
0.6
100
AcDbArc
 50
0.0
 51
90.0
  0
LINE
  5
D9
100
AcDbEntity
  8
3
100
AcDbLine
 10
74.0
 20
99.033842
 30
0.0
 11
74.947
 21
97.39359
 31
0.0
  0
LINE
  5
DA
100
AcDbEntity
  8
3
100
AcDbLine
 10
74.947
 20
97.39359
 30
0.0
 11
74.947
 21
68.686842
 31
0.0
  0
LINE
  5
DB
100
AcDbEntity
  8
3
100
AcDbLine
 10
85.053
 20
97.39359
 30
0.0
 11
85.053
 21
68.686842
 31
0.0
  0
LINE
  5
DC
100
AcDbEntity
  8
3
100
AcDbLine
 10
86.0
 20
99.033842
 30
0.0
 11
85.053
 21
97.39359
 31
0.0
  0
ARC
  5
DD
100
AcDbEntity
  8
0
100
AcDbCircle
 10
86.6
 20
99.033842
 30
0.0
 40
0.6
100
AcDbArc
 50
90.0
 51
180.0
  0
LINE
  5
DE
100
AcDbEntity
  8
0
100
AcDbLine
 10
86.0
 20
69.633842
 30
0.0
 11
86.0
 21
99.033842
 31
0.0
  0
LINE
  5
DF
100
AcDbEntity
  8
0
100
AcDbLine
 10
84.0
 20
67.633842
 30
0.0
 11
86.0
 21
69.633842
 31
0.0
  0
ENDSEC
  0
SECTION
  2
OBJECTS
  0
DICTIONARY
  5
153
100
AcDbDictionary
  3
ACAD_GROUP
350
154
  3
ACAD_MLINESTYLE
350
161
  0
DICTIONARY
  5
154
102
{ACAD_REACTORS
330
153
102
}
100
AcDbDictionary
  0
DICTIONARY
  5
161
102
{ACAD_REACTORS
330
153
102
}
100
AcDbDictionary
  3
STANDARD
350
162
  0
MLINESTYLE
  5
162
102
{ACAD_REACTORS
330
161
102
}
100
AcDbMlineStyle
  2
STANDARD
 70
     0
  3

 62
   256
 51
90.0
 52
90.0
 71
     2
 49
0.5
 62
   256
  6
BYLAYER
 49
-0.5
 62
   256
  6
BYLAYER
  0
ENDSEC
  0
EOF
