  0
SECTION
  2
HEADER
  9
$ACADVER
  1
AC1015
  9
$ACADMAINTVER
 70
    13
  9
$DWGCODEPAGE
  3
ANSI_932
  9
$INSBASE
 10
0.0
 20
0.0
 30
0.0
  9
$EXTMIN
 10
60.0
 20
62.633842
 30
0.0
  9
$EXTMAX
 10
283.4058819999999
 20
195.366158
 30
0.0
  9
$LIMMIN
 10
0.0
 20
0.0
  9
$LIMMAX
 10
350.0
 20
250.0
  9
$ORTHOMODE
 70
     1
  9
$REGENMODE
 70
     1
  9
$FILLMODE
 70
     1
  9
$QTEXTMODE
 70
     0
  9
$MIRRTEXT
 70
     1
  9
$LTSCALE
 40
10.0
  9
$ATTMODE
 70
     1
  9
$TEXTSIZE
 40
6.0
  9
$TRACEWID
 40
0.05
  9
$TEXTSTYLE
  7
BIGFONT
  9
$CLAYER
  8
0
  9
$CELTYPE
  6
BYLAYER
  9
$CECOLOR
 62
   256
  9
$CELTSCALE
 40
1.0
  9
$DISPSILH
 70
     0
  9
$DIMSCALE
 40
1.0
  9
$DIMASZ
 40
3.0
  9
$DIMEXO
 40
2.0
  9
$DIMDLI
 40
0.38
  9
$DIMRND
 40
0.0
  9
$DIMDLE
 40
0.0
  9
$DIMEXE
 40
2.0
  9
$DIMTP
 40
0.0
  9
$DIMTM
 40
0.0
  9
$DIMTXT
 40
3.2
  9
$DIMCEN
 40
0.0
  9
$DIMTSZ
 40
0.0
  9
$DIMTOL
 70
     0
  9
$DIMLIM
 70
     0
  9
$DIMTIH
 70
     0
  9
$DIMTOH
 70
     0
  9
$DIMSE1
 70
     0
  9
$DIMSE2
 70
     0
  9
$DIMTAD
 70
     1
  9
$DIMZIN
 70
     0
  9
$DIMBLK
  1

  9
$DIMASO
 70
     0
  9
$DIMSHO
 70
     0
  9
$DIMPOST
  1

  9
$DIMAPOST
  1

  9
$DIMALT
 70
     0
  9
$DIMALTD
 70
     2
  9
$DIMALTF
 40
25.4
  9
$DIMLFAC
 40
1.0
  9
$DIMTOFL
 70
     1
  9
$DIMTVP
 40
1.6
  9
$DIMTIX
 70
     1
  9
$DIMSOXD
 70
     0
  9
$DIMSAH
 70
     0
  9
$DIMBLK1
  1

  9
$DIMBLK2
  1

  9
$DIMSTYLE
  2
STANDARD
  9
$DIMCLRD
 70
     0
  9
$DIMCLRE
 70
     0
  9
$DIMCLRT
 70
     0
  9
$DIMTFAC
 40
1.0
  9
$DIMGAP
 40
0.09
  9
$DIMJUST
 70
     0
  9
$DIMSD1
 70
     0
  9
$DIMSD2
 70
     0
  9
$DIMTOLJ
 70
     1
  9
$DIMTZIN
 70
     0
  9
$DIMALTZ
 70
     0
  9
$DIMALTTZ
 70
     0
  9
$DIMUPT
 70
     0
  9
$DIMDEC
 70
     4
  9
$DIMTDEC
 70
     4
  9
$DIMALTU
 70
     2
  9
$DIMALTTD
 70
     2
  9
$DIMTXSTY
  7
BIGFONT
  9
$DIMAUNIT
 70
     0
  9
$DIMADEC
 70
     0
  9
$DIMALTRND
 40
0.0
  9
$DIMAZIN
 70
     0
  9
$DIMDSEP
 70
    46
  9
$DIMATFIT
 70
     3
  9
$DIMFRAC
 70
     0
  9
$DIMLDRBLK
  1

  9
$DIMLUNIT
 70
     2
  9
$DIMLWD
 70
    -2
  9
$DIMLWE
 70
    -2
  9
$DIMTMOVE
 70
     0
  9
$LUNITS
 70
     2
  9
$LUPREC
 70
     4
  9
$SKETCHINC
 40
0.1
  9
$FILLETRAD
 40
0.0
  9
$AUNITS
 70
     0
  9
$AUPREC
 70
     4
  9
$MENU
  1
ACAD
  9
$ELEVATION
 40
0.0
  9
$PELEVATION
 40
0.0
  9
$THICKNESS
 40
0.0
  9
$LIMCHECK
 70
     0
  9
$CHAMFERA
 40
0.0
  9
$CHAMFERB
 40
0.0
  9
$CHAMFERC
 40
0.0
  9
$CHAMFERD
 40
0.0
  9
$SKPOLY
 70
     0
  9
$TDCREATE
 40
2450867.111464814
  9
$TDUCREATE
 40
2450866.736464814
  9
$TDUPDATE
 40
2456449.446005127
  9
$TDUUPDATE
 40
2456449.071005127
  9
$TDINDWG
 40
0.0161279398
  9
$TDUSRTIMER
 40
0.0161279398
  9
$USRTIMER
 70
     1
  9
$ANGBASE
 50
0.0
  9
$ANGDIR
 70
     0
  9
$PDMODE
 70
     0
  9
$PDSIZE
 40
0.0
  9
$PLINEWID
 40
0.0
  9
$SPLFRAME
 70
     0
  9
$SPLINETYPE
 70
     6
  9
$SPLINESEGS
 70
     8
  9
$HANDSEED
  5
26E
  9
$SURFTAB1
 70
     6
  9
$SURFTAB2
 70
     6
  9
$SURFTYPE
 70
     6
  9
$SURFU
 70
     6
  9
$SURFV
 70
     6
  9
$UCSBASE
  2

  9
$UCSNAME
  2

  9
$UCSORG
 10
0.0
 20
0.0
 30
0.0
  9
$UCSXDIR
 10
1.0
 20
0.0
 30
0.0
  9
$UCSYDIR
 10
0.0
 20
1.0
 30
0.0
  9
$UCSORTHOREF
  2

  9
$UCSORTHOVIEW
 70
     0
  9
$UCSORGTOP
 10
0.0
 20
0.0
 30
0.0
  9
$UCSORGBOTTOM
 10
0.0
 20
0.0
 30
0.0
  9
$UCSORGLEFT
 10
0.0
 20
0.0
 30
0.0
  9
$UCSORGRIGHT
 10
0.0
 20
0.0
 30
0.0
  9
$UCSORGFRONT
 10
0.0
 20
0.0
 30
0.0
  9
$UCSORGBACK
 10
0.0
 20
0.0
 30
0.0
  9
$PUCSBASE
  2

  9
$PUCSNAME
  2

  9
$PUCSORG
 10
0.0
 20
0.0
 30
0.0
  9
$PUCSXDIR
 10
1.0
 20
0.0
 30
0.0
  9
$PUCSYDIR
 10
0.0
 20
1.0
 30
0.0
  9
$PUCSORTHOREF
  2

  9
$PUCSORTHOVIEW
 70
     0
  9
$PUCSORGTOP
 10
0.0
 20
0.0
 30
0.0
  9
$PUCSORGBOTTOM
 10
0.0
 20
0.0
 30
0.0
  9
$PUCSORGLEFT
 10
0.0
 20
0.0
 30
0.0
  9
$PUCSORGRIGHT
 10
0.0
 20
0.0
 30
0.0
  9
$PUCSORGFRONT
 10
0.0
 20
0.0
 30
0.0
  9
$PUCSORGBACK
 10
0.0
 20
0.0
 30
0.0
  9
$USERI1
 70
     0
  9
$USERI2
 70
     0
  9
$USERI3
 70
     0
  9
$USERI4
 70
     0
  9
$USERI5
 70
     0
  9
$USERR1
 40
0.0
  9
$USERR2
 40
0.0
  9
$USERR3
 40
0.0
  9
$USERR4
 40
0.0
  9
$USERR5
 40
0.0
  9
$WORLDVIEW
 70
     1
  9
$SHADEDGE
 70
     3
  9
$SHADEDIF
 70
    70
  9
$TILEMODE
 70
     1
  9
$MAXACTVP
 70
    16
  9
$PINSBASE
 10
0.0
 20
0.0
 30
0.0
  9
$PLIMCHECK
 70
     0
  9
$PEXTMIN
 10
1.000000000000000E+20
 20
1.000000000000000E+20
 30
1.000000000000000E+20
  9
$PEXTMAX
 10
-1.000000000000000E+20
 20
-1.000000000000000E+20
 30
-1.000000000000000E+20
  9
$PLIMMIN
 10
0.0
 20
0.0
  9
$PLIMMAX
 10
12.0
 20
9.0
  9
$UNITMODE
 70
     0
  9
$VISRETAIN
 70
     0
  9
$PLINEGEN
 70
     1
  9
$PSLTSCALE
 70
     0
  9
$TREEDEPTH
 70
  3020
  9
$CMLSTYLE
  2
STANDARD
  9
$CMLJUST
 70
     0
  9
$CMLSCALE
 40
1.0
  9
$PROXYGRAPHICS
 70
     1
  9
$MEASUREMENT
 70
     0
  9
$CELWEIGHT
370
    -1
  9
$ENDCAPS
280
     0
  9
$JOINSTYLE
280
     0
  9
$LWDISPLAY
290
     0
  9
$INSUNITS
 70
     0
  9
$HYPERLINKBASE
  1

  9
$STYLESHEET
  1

  9
$XEDIT
290
     1
  9
$CEPSNTYPE
380
     0
  9
$PSTYLEMODE
290
     1
  9
$FINGERPRINTGUID
  2
{CD12F889-3CB5-4B13-AF4D-0667B4EED44F}
  9
$VERSIONGUID
  2
{0B1887F9-18AB-448C-900C-128F6FF19A23}
  9
$EXTNAMES
290
     1
  9
$PSVPSCALE
 40
0.0
  9
$OLESTARTUP
290
     0
  0
ENDSEC
  0
SECTION
  2
CLASSES
  0
CLASS
  1
LWPOLYLINE
  2
AcDbPolyline
  3
AutoCAD 2000
 90
    32768
280
     0
281
     1
  0
CLASS
  1
ACDBDICTIONARYWDFLT
  2
AcDbDictionaryWithDefault
  3
AutoCAD 2000
 90
        0
280
     0
281
     0
  0
CLASS
  1
ACDBPLACEHOLDER
  2
AcDbPlaceHolder
  3
AutoCAD 2000
 90
        0
280
     0
281
     0
  0
CLASS
  1
LAYOUT
  2
AcDbLayout
  3
AutoCAD 2000
 90
        0
280
     0
281
     0
  0
CLASS
  1
AMGSETTINGSOBJ
  2
AmgSettingsObj
  3
"AcadM|Product Description: AutoCAD Mechanical 2000|Company: Autodesk"
 90
        0
280
     0
281
     0
  0
CLASS
  1
ACME_DOCUMENT
  2
AcMeDbDoc
  3
AcMeServices
 90
        0
280
     0
281
     0
  0
CLASS
  1
ACMESCOPE
  2
AcMeScope
  3
AcMeServices
 90
        0
280
     0
281
     0
  0
CLASS
  1
ACMECOMMANDHISTORY
  2
AcMeCommandHistory
  3
AcMeServices
 90
        0
280
     0
281
     0
  0
CLASS
  1
ACIMSYSVARMAN
  2
AcImSysVarManager
  3
AcMeServices
 90
        0
280
     0
281
     0
  0
CLASS
  1
ACIMREALSYSVAR
  2
AcImRealSysVar
  3
AcMeServices
 90
        0
280
     0
281
     0
  0
CLASS
  1
ACIMINTSYSVAR
  2
AcImIntSysVar
  3
AcMeServices
 90
        0
280
     0
281
     0
  0
CLASS
  1
ACMEDRAWINGMAN
  2
AcMeDrawingMan
  3
AcMeServices
 90
        0
280
     0
281
     0
  0
CLASS
  1
ACMEVIEW
  2
AcMeView
  3
AcMeServices
 90
        0
280
     0
281
     0
  0
CLASS
  1
ACDBENTITYCACHE
  2
AcMeEntityCache
  3
AcMeServices
 90
        0
280
     0
281
     0
  0
CLASS
  1
GSMANAGER
  2
AcMeGSManager
  3
AcMeServices
 90
        0
280
     0
281
     0
  0
CLASS
  1
AMDTINTERNALREACTOR
  2
AmdtInternalReactor
  3
AcMeServices
 90
        0
280
     0
281
     0
  0
CLASS
  1
ACMESTATEMGR
  2
AcMeStateMgr
  3
AcMeServices
 90
        0
280
     0
281
     0
  0
CLASS
  1
ACGREFMASTER
  2
AcGrefMaster
  3
AcAttribServices
 90
        0
280
     0
281
     0
  0
CLASS
  1
AM_DRAWING_MGR
  2
AcDmDwgMgr
  3
AcMechDwgViewMgmt
 90
        0
280
     0
281
     0
  0
CLASS
  1
AM_DWG_DOCUMENT
  2
AcDmDwgDocument
  3
AcMechDwgViewMgmt
 90
        0
280
     0
281
     0
  0
CLASS
  1
AM_DWG_SHEET
  2
AcDmSheet
  3
AcMechDwgViewMgmt
 90
        0
280
     0
281
     0
  0
CLASS
  1
AM_VIEWDIMPARMAP
  2
AcDmViewDimParMap
  3
AcMechDwgViewMgmt
 90
        0
280
     0
281
     0
  0
CLASS
  1
AM_DWGMGR_NAME
  2
AcDmDwgMgrName
  3
AcMechDwgViewMgmt
 90
        0
280
     0
281
     0
  0
CLASS
  1
ACME_DATABASE
  2
AcMeDbDatabase
  3
AcMeServices
 90
        0
280
     0
281
     0
  0
CLASS
  1
ACRFINSADJUSTERMGR
  2
AcRfInsAdjusterMgr
  3
AcMeServices
 90
        0
280
     0
281
     0
  0
CLASS
  1
ACGREFACADMASTER
  2
AcGrefacadMaster
  3
AcGrefServices
 90
        0
280
     0
281
     0
  0
CLASS
  1
AMDTMENUSTATEMGR
  2
AmdtMenuStateMgr
  3
McadcomServices
 90
        0
280
     0
281
     0
  0
CLASS
  1
AMDTMCOMMENUSTATE
  2
AmdtMcomMenuState
  3
McadcomServices
 90
        0
280
     0
281
     0
  0
CLASS
  1
AMIMASTER
  2
AmiMaster
  3
AmiServices
 90
        0
280
     0
281
     0
  0
CLASS
  1
ASAPP
  2
AcAsAppObject
  3
AutoSurfServices
 90
        0
280
     0
281
     0
  0
CLASS
  1
IM_STATIC_MAN
  2
AcImStaticVarManager
  3
AcMeServices
 90
        0
280
     0
281
     0
  0
CLASS
  1
ACIMSTRSYSVAR
  2
AcImStrSysVar
  3
AcMeServices
 90
        0
280
     0
281
     0
  0
CLASS
  1
ACIMDBLSTATICVAR
  2
AcImDblStaticVar
  3
AcMeServices
 90
        0
280
     0
281
     0
  0
CLASS
  1
ACIMSTRSTATICVAR
  2
AcImStrStaticVar
  3
AcMeServices
 90
        0
280
     0
281
     0
  0
CLASS
  1
ACIMINTSTATICVAR
  2
AcImIntStaticVar
  3
AcMeServices
 90
        0
280
     0
281
     0
  0
CLASS
  1
ACASGREFMASTER
  2
AcAsGrefMaster
  3
AutoSurfResolverServices
 90
        0
280
     0
281
     0
  0
CLASS
  1
ACADGREFMODULE
  2
AcAdGrefModule
  3
AdGrefServices
 90
        0
280
     0
281
     0
  0
CLASS
  1
AMDTMAPISURFMOUDULE
  2
AmdtMApiSurfModule
  3
MApiSurfServices
 90
        0
280
     0
281
     0
  0
CLASS
  1
MAPIAMMOUDLE
  2
MApiAmModule
  3
MApiAmServices
 90
        0
280
     0
281
     0
  0
CLASS
  1
AMDTADMENUSTATE
  2
AmdtAdMenuState
  3
DesignerServices
 90
        0
280
     0
281
     0
  0
CLASS
  1
ADAPPL
  2
AcAdAppl
  3
DesignerServices
 90
        0
280
     0
281
     0
  0
CLASS
  1
DEPMGR
  2
AcAdDepMgr
  3
DesignerServices
 90
        0
280
     0
281
     0
  0
CLASS
  1
PARAMMGR
  2
AcAdParamMgr
  3
DesignerServices
 90
        0
280
     0
281
     0
  0
CLASS
  1
PARAMSCOPE
  2
AcAdParamScope
  3
DesignerServices
 90
        0
280
     0
281
     0
  0
CLASS
  1
NAMEDAPPL
  2
AcAdNamedAppl
  3
DesignerServices
 90
        0
280
     0
281
     0
  0
CLASS
  1
AMDTDMMENUSTATE
  2
AmdtDmMenuState
  3
AcMechDwgViewMgmt
 90
        0
280
     0
281
     0
  0
CLASS
  1
MAPIADMODULE
  2
MApiAdModule
  3
MApiAdServices
 90
        0
280
     0
281
     0
  0
CLASS
  1
AMDTAMMENUSTATE
  2
AmdtAmMenuState
  3
DesignerAssemblies
 90
        0
280
     0
281
     0
  0
CLASS
  1
ACAMPROJECT
  2
AcAmProject
  3
DesignerAssemblies
 90
        0
280
     0
281
     0
  0
CLASS
  1
ACAMGRCOMPDEF
  2
AcAmGrCompDef
  3
DesignerAssemblies
 90
        0
280
     0
281
     0
  0
CLASS
  1
ACCMCONTEXT
  2
AcCmContext
  3
DesignerAssemblies
 90
        0
280
     0
281
     0
  0
CLASS
  1
ACAMCOMPDEF
  2
AcAmCompDef
  3
DesignerAssemblies
 90
        0
280
     0
281
     0
  0
CLASS
  1
ACAMCOMPDEFMGR
  2
AcAmCompDefMgr
  3
DesignerAssemblies
 90
        0
280
     0
281
     0
  0
CLASS
  1
AMCONTEXTMGR
  2
AcAmContextMgr
  3
DesignerAssemblies
 90
        0
280
     0
281
     0
  0
CLASS
  1
ACAMCONTEXTMODELER
  2
AcAmContextModeler
  3
DesignerAssemblies
 90
        0
280
     0
281
     0
  0
CLASS
  1
ACMDATADICTIONARY
  2
AcmDataDictionary
  3
"AcmSymBB|Product Description: AutoCAD Mechanical 2000|Company: Autodesk"
 90
        0
280
     0
281
     0
  0
CLASS
  1
ACMDATAENTRYBLOCK
  2
AcmDataEntryBlock
  3
"AcmSymBB|Product Description: AutoCAD Mechanical 2000|Company: Autodesk"
 90
        0
280
     0
281
     0
  0
CLASS
  1
CATALOGSTATE
  2
AcAmCatalogState
  3
DesignerAssemblies
 90
        0
280
     0
281
     0
  0
CLASS
  1
ACAMGRCOMPDEFSET
  2
AcAmGrCompDefSet
  3
DesignerAssemblies
 90
        0
280
     0
281
     0
  0
CLASS
  1
AMDTBROWSERDBTAB
  2
AmdtBrowserDbTab
  3
McadcomServices
 90
        0
280
     0
281
     0
  0
CLASS
  1
CBROWSERAPPOBJECT
  2
CBrowserAppObject
  3
McadcomServices
 90
        0
280
     0
281
     0
  0
CLASS
  1
DM_PLACEHOLDER
  2
AcDmSelsetPlaceholder
  3
AcMechDwgViewMgmt
 90
        0
280
     0
281
     0
  0
CLASS
  1
AMGOBJPROPCFG
  2
AmgObjPropCfg
  3
"AmgLay|Product Description: AutoCAD Mechanical 2000|Company: Autodesk"
 90
        1
280
     0
281
     0
  0
CLASS
  1
ACAMGFILTERDAT
  2
AcAmgFilterDat
  3
"AcadM|Product Description: AutoCAD Mechanical 2000|Company: Autodesk"
 90
        0
280
     0
281
     0
  0
CLASS
  1
LAYER_INDEX
  2
AcDbLayerIndex
  3
AutoCAD 2000
 90
        0
280
     0
281
     0
  0
CLASS
  1
IDBUFFER
  2
AcDbIdBuffer
  3
AutoCAD 2000
 90
        0
280
     0
281
     0
  0
CLASS
  1
DICTIONARYVAR
  2
AcDbDictionaryVar
  3
AutoCAD 2000
 90
        0
280
     0
281
     0
  0
ENDSEC
  0
SECTION
  2
TABLES
  0
TABLE
  2
VPORT
  5
14F
330
0
100
AcDbSymbolTable
 70
     3
  0
VPORT
  5
26D
330
14F
100
AcDbSymbolTableRecord
100
AcDbViewportTableRecord
  2
*Active
 70
     0
 10
0.0
 20
0.0
 11
1.0
 21
1.0
 12
0.0
 22
0.0
 13
0.0
 23
0.0
 14
5.0
 24
5.0
 15
10.0
 25
10.0
 16
0.0
 26
0.0
 36
1.0
 17
230.1660872296732
 27
154.502698
 37
0.0
 40
309.005396
 41
1.489721886336154
 42
50.0
 43
0.0
 44
0.0
 50
0.0
 51
0.0
 71
     0
 72
   500
 73
     1
 74
     1
 75
     0
 76
     0
 77
     0
 78
     2
281
     0
 65
     0
110
0.0
120
0.0
130
0.0
111
1.0
121
0.0
131
0.0
112
0.0
122
1.0
132
0.0
 79
     0
146
0.0
  0
ENDTAB
  0
TABLE
  2
LTYPE
  5
14C
330
0
100
AcDbSymbolTable
 70
    16
  0
LTYPE
  5
158
330
14C
100
AcDbSymbolTableRecord
100
AcDbLinetypeTableRecord
  2
BYBLOCK
 70
     0
  3

 72
    65
 73
     0
 40
0.0
  0
LTYPE
  5
159
330
14C
100
AcDbSymbolTableRecord
100
AcDbLinetypeTableRecord
  2
BYLAYER
 70
     0
  3

 72
    65
 73
     0
 40
0.0
  0
LTYPE
  5
15A
330
14C
100
AcDbSymbolTableRecord
100
AcDbLinetypeTableRecord
  2
CONTINUOUS
 70
     0
  3
実線
 72
    65
 73
     0
 40
0.0
  0
LTYPE
  5
167
330
14C
100
AcDbSymbolTableRecord
100
AcDbLinetypeTableRecord
  2
CENTER
 70
     0
  3
____ _ ____ _ ____ _ ____ _ ____ _ ____ _ ____
 72
    65
 73
     4
 40
2.0
 49
1.25
 74
     0
 49
-0.25
 74
     0
 49
0.25
 74
     0
 49
-0.25
 74
     0
  0
LTYPE
  5
1A9
330
14C
100
AcDbSymbolTableRecord
100
AcDbLinetypeTableRecord
  2
HIDDEN
 70
     0
  3
Hidden __ __ __ __ __ __ __ __ __ __ __ __ __ _
 72
    65
 73
     2
 40
0.375
 49
0.25
 74
     0
 49
-0.125
 74
     0
  0
LTYPE
  5
1AA
330
14C
100
AcDbSymbolTableRecord
100
AcDbLinetypeTableRecord
  2
PHANTOM2
 70
     0
  3
Phantom (.5x) ___ _ _ ___ _ _ ___ _ _ ___ _ _
 72
    65
 73
     6
 40
1.25
 49
0.625
 74
     0
 49
-0.125
 74
     0
 49
0.125
 74
     0
 49
-0.125
 74
     0
 49
0.125
 74
     0
 49
-0.125
 74
     0
  0
LTYPE
  5
20C
330
14C
100
AcDbSymbolTableRecord
100
AcDbLinetypeTableRecord
  2
ASULTYPE
 70
     0
  3
実線
 72
    65
 73
     2
 40
3.0
 49
2.5
 74
     0
 49
0.5
 74
     0
  0
LTYPE
  5
20D
330
14C
100
AcDbSymbolTableRecord
100
AcDbLinetypeTableRecord
  2
ASVLTYPE
 70
     0
  3
__ __ __ __ __ __ __ __ __ __ __ __ __ __ __ __ __ __ __ __ __
 72
    65
 73
     2
 40
0.75
 49
0.5
 74
     0
 49
-0.25
 74
     0
  0
LTYPE
  5
24E
330
14C
100
AcDbSymbolTableRecord
100
AcDbLinetypeTableRecord
  2
AM_ISO02W050
 70
     0
  3
__ __ __ __ __ __ __ __ __ __ __ __ __ __ __
 72
    65
 73
     2
 40
7.5
 49
6.0
 74
     0
 49
-1.5
 74
     0
  0
LTYPE
  5
24F
330
14C
100
AcDbSymbolTableRecord
100
AcDbLinetypeTableRecord
  2
AM_ISO08W050
 70
     0
  3
____ . ____ . ____ . ____ . ____ . ____ . ____
 72
    65
 73
     4
 40
18.0
 49
12.0
 74
     0
 49
-1.5
 74
     0
 49
3.0
 74
     0
 49
-1.5
 74
     0
  0
LTYPE
  5
250
330
14C
100
AcDbSymbolTableRecord
100
AcDbLinetypeTableRecord
  2
AM_ISO09W050
 70
     0
  3
_____ . . _____ . . _____ . . ____ .. ____
 72
    65
 73
     6
 40
22.5
 49
12.0
 74
     0
 49
-1.5
 74
     0
 49
3.0
 74
     0
 49
-1.5
 74
     0
 49
3.0
 74
     0
 49
-1.5
 74
     0
  0
LTYPE
  5
251
330
14C
100
AcDbSymbolTableRecord
100
AcDbLinetypeTableRecord
  2
Amconstr
 70
     0
  3
_______________________
 72
    65
 73
     2
 40
9999.0
 49
9999.0
 74
     0
 49
0.0
 74
     0
  0
LTYPE
  5
252
330
14C
100
AcDbSymbolTableRecord
100
AcDbLinetypeTableRecord
  2
AM_ISO08W050x2
 70
     0
  3
__ . __ . __ . __ . __ . __
 72
    65
 73
     4
 40
9.0
 49
6.0
 74
     0
 49
-0.75
 74
     0
 49
1.5
 74
     0
 49
-0.75
 74
     0
  0
LTYPE
  5
253
330
14C
100
AcDbSymbolTableRecord
100
AcDbLinetypeTableRecord
  2
AM_ISO02W050x2
 70
     0
  3
 _ _ _ _ _ _ _ _ _ _ _ _
 72
    65
 73
     2
 40
3.75
 49
3.0
 74
     0
 49
-0.75
 74
     0
  0
LTYPE
  5
256
330
14C
100
AcDbSymbolTableRecord
100
AcDbLinetypeTableRecord
  2
Amzigzag
 70
     0
  3
/\/-/\/-/\/-/\/-/\/-/\/
 72
    65
 73
     2
 40
11.00009999999999
 49
0.0001
 74
     4
 75
   135
340
255
 46
0.04
 50
0.0
 44
0.0
 45
0.0
 49
-11.0
 74
     0
  0
LTYPE
  5
257
330
14C
100
AcDbSymbolTableRecord
100
AcDbLinetypeTableRecord
  2
CENTER2
 70
     0
  3
Center (.5x) ___ _ ___ _ ___ _ ___ _ ___ _ ___
 72
    65
 73
     4
 40
1.125
 49
0.75
 74
     0
 49
-0.125
 74
     0
 49
0.125
 74
     0
 49
-0.125
 74
     0
  0
LTYPE
  5
258
330
14C
100
AcDbSymbolTableRecord
100
AcDbLinetypeTableRecord
  2
HIDDEN2
 70
     0
  3
Hidden (.5x) _ _ _ _ _ _ _ _ _ _ _ _ _ _ _ _ _
 72
    65
 73
     2
 40
0.1875
 49
0.125
 74
     0
 49
-0.0625
 74
     0
  0
LTYPE
  5
259
330
14C
100
AcDbSymbolTableRecord
100
AcDbLinetypeTableRecord
  2
Amzigzag2
 70
     0
  3
/\/-/\/-/\/-/\/-/\/-/\/
 72
    65
 73
     2
 40
0.4401
 49
0.0001
 74
     4
 75
   135
340
255
 46
0.0016
 50
0.0
 44
0.0
 45
0.0
 49
-0.4400000000000001
 74
     0
  0
ENDTAB
  0
TABLE
  2
LAYER
  5
149
330
0
100
AcDbSymbolTable
 70
     5
  0
LAYER
  5
155
330
149
100
AcDbSymbolTableRecord
100
AcDbLayerTableRecord
  2
0
 70
     0
 62
     7
  6
CONTINUOUS
370
    -3
390
17E
  0
LAYER
  5
16C
330
149
100
AcDbSymbolTableRecord
100
AcDbLayerTableRecord
  2
1
 70
     0
 62
     1
  6
CENTER
370
    -3
390
17E
  0
LAYER
  5
16D
330
149
100
AcDbSymbolTableRecord
100
AcDbLayerTableRecord
  2
3
 70
     0
 62
     3
  6
CONTINUOUS
370
    -3
390
17E
  0
LAYER
  5
16E
330
149
100
AcDbSymbolTableRecord
100
AcDbLayerTableRecord
  2
10
 70
     0
 62
     7
  6
CONTINUOUS
370
    -3
390
17E
  0
LAYER
  5
16F
330
149
100
AcDbSymbolTableRecord
100
AcDbLayerTableRecord
  2
11
 70
     0
 62
     3
  6
CONTINUOUS
370
    -3
390
17E
  0
ENDTAB
  0
TABLE
  2
STYLE
  5
14A
330
0
100
AcDbSymbolTable
 70
     5
  0
STYLE
  5
156
330
14A
100
AcDbSymbolTableRecord
100
AcDbTextStyleTableRecord
  2
STANDARD
 70
     0
 40
0.0
 41
1.0
 50
0.0
 71
     0
 42
4.0
  3
TXT
  4
BIGFONT
  0
STYLE
  5
164
330
14A
100
AcDbSymbolTableRecord
100
AcDbTextStyleTableRecord
  2
COMPLEX
 70
     0
 40
3.0
 41
0.4
 50
0.0
 71
     0
 42
3.0
  3
COMPLEX
  4

  0
STYLE
  5
165
330
14A
100
AcDbSymbolTableRecord
100
AcDbTextStyleTableRecord
  2
07500
 70
     0
 40
0.0
 41
0.75
 50
0.0
 71
     0
 42
3.0
  3
TXT
  4
BIGFONT
  0
STYLE
  5
166
330
14A
100
AcDbSymbolTableRecord
100
AcDbTextStyleTableRecord
  2
BIGFONT
 70
     0
 40
6.0
 41
1.0
 50
0.0
 71
     0
 42
6.0
  3

  4
bigfont
  0
STYLE
  5
255
330
14A
100
AcDbSymbolTableRecord
100
AcDbTextStyleTableRecord
  2

 70
     1
 40
0.0
 41
1.0
 50
0.0
 71
     0
 42
6.0
  3
ltypeshp.shx
  4

  0
ENDTAB
  0
TABLE
  2
VIEW
  5
14D
330
0
100
AcDbSymbolTable
 70
     1
  0
VIEW
  5
168
330
14D
100
AcDbSymbolTableRecord
100
AcDbViewTableRecord
  2
ALL
 70
     0
 40
270.0
 10
220.991597
 20
135.0
 41
0.0
 11
0.0
 21
0.0
 31
1.0
 12
0.0
 22
0.0
 32
0.0
 42
50.0
 43
0.0
 44
0.0
 50
0.0
 71
     0
281
     0
 72
     0
  0
ENDTAB
  0
TABLE
  2
UCS
  5
14E
330
0
100
AcDbSymbolTable
 70
     0
  0
ENDTAB
  0
TABLE
  2
APPID
  5
150
330
0
100
AcDbSymbolTable
 70
    12
  0
APPID
  5
157
330
150
100
AcDbSymbolTableRecord
100
AcDbRegAppTableRecord
  2
ACAD
 70
     0
  0
APPID
  5
188
330
150
100
AcDbSymbolTableRecord
100
AcDbRegAppTableRecord
  2
GENIUS_GENDIM_13
 70
     0
  0
APPID
  5
189
330
150
100
AcDbSymbolTableRecord
100
AcDbRegAppTableRecord
  2
GENIUS_GENDTOL_13
 70
     0
  0
APPID
  5
18A
330
150
100
AcDbSymbolTableRecord
100
AcDbRegAppTableRecord
  2
GENIUS_GE3DTOL_13
 70
     0
  0
APPID
  5
18C
330
150
100
AcDbSymbolTableRecord
100
AcDbRegAppTableRecord
  2
MCAD_NO_VIS
 70
     0
  0
APPID
  5
18D
330
150
100
AcDbSymbolTableRecord
100
AcDbRegAppTableRecord
  2
ACAD_TEMP_GRAPHIC
 70
     0
  0
APPID
  5
1BF
330
150
100
AcDbSymbolTableRecord
100
AcDbRegAppTableRecord
  2
AD_DRAW
 70
     0
  0
APPID
  5
1C2
330
150
100
AcDbSymbolTableRecord
100
AcDbRegAppTableRecord
  2
ACATTRIBSERVICES
 70
     0
  0
APPID
  5
20E
330
150
100
AcDbSymbolTableRecord
100
AcDbRegAppTableRecord
  2
ASURF_PCURVE_APPNAME
 70
     0
  0
APPID
  5
23D
330
150
100
AcDbSymbolTableRecord
100
AcDbRegAppTableRecord
  2
DESIGNERASSEMBLIES
 70
     0
  0
APPID
  5
245
330
150
100
AcDbSymbolTableRecord
100
AcDbRegAppTableRecord
  2
ACADM_DIM_EDIT
 70
     0
  0
APPID
  5
246
330
150
100
AcDbSymbolTableRecord
100
AcDbRegAppTableRecord
  2
AMDT_DM_ADJ
 70
     0
  0
ENDTAB
  0
TABLE
  2
DIMSTYLE
  5
151
330
0
100
AcDbSymbolTable
 70
     1
100
AcDbDimStyleTable
 71
     0
  0
DIMSTYLE
105
16B
330
151
100
AcDbSymbolTableRecord
100
AcDbDimStyleTableRecord
  2
STANDARD
 70
     0
340
166
  0
ENDTAB
  0
TABLE
  2
BLOCK_RECORD
  5
148
330
0
100
AcDbSymbolTable
 70
     2
  0
BLOCK_RECORD
  5
15E
102
{ACAD_XDICTIONARY
360
262
102
}
330
148
100
AcDbSymbolTableRecord
100
AcDbBlockTableRecord
  2
*MODEL_SPACE
340
181
  0
BLOCK_RECORD
  5
15B
330
148
100
AcDbSymbolTableRecord
100
AcDbBlockTableRecord
  2
*PAPER_SPACE
340
182
  0
BLOCK_RECORD
  5
163
330
148
100
AcDbSymbolTableRecord
100
AcDbBlockTableRecord
  2
WWW
340
0
  0
BLOCK_RECORD
  5
234
330
148
100
AcDbSymbolTableRecord
100
AcDbBlockTableRecord
  2
*U1
340
0
  0
ENDTAB
  0
ENDSEC
  0
SECTION
  2
BLOCKS
  0
BLOCK
  5
172
330
15E
100
AcDbEntity
  8
0
100
AcDbBlockBegin
  2
*MODEL_SPACE
 70
     0
 10
0.0
 20
0.0
 30
0.0
  3
*MODEL_SPACE
  1

  0
ENDBLK
  5
173
330
15E
100
AcDbEntity
  8
0
100
AcDbBlockEnd
  0
BLOCK
  5
170
330
15B
100
AcDbEntity
 67
     1
  8
0
100
AcDbBlockBegin
  2
*PAPER_SPACE
 70
     0
 10
0.0
 20
0.0
 30
0.0
  3
*PAPER_SPACE
  1

  0
ENDBLK
  5
171
330
15B
100
AcDbEntity
 67
     1
  8
0
100
AcDbBlockEnd
  0
BLOCK
  5
2C
330
163
100
AcDbEntity
  8
0
100
AcDbBlockBegin
  2
WWW
 70
     0
 10
375.0
 20
0.0
 30
0.0
  3
WWW
  1

  0
LINE
  5
2D
330
163
100
AcDbEntity
  8
11
100
AcDbLine
 10
278.0
 20
36.0
 30
0.0
 11
375.0
 21
36.0
 31
0.0
  0
TEXT
  5
2E
330
163
100
AcDbEntity
  8
11
100
AcDbText
 10
280.0
 20
32.5
 30
0.0
 40
2.5
  1
部品名称
100
AcDbText
  0
LINE
  5
2F
330
163
100
AcDbEntity
  8
11
100
AcDbLine
 10
278.0
 20
36.0
 30
0.0
 11
278.0
 21
0.0
 31
0.0
  0
LINE
  5
30
330
163
100
AcDbEntity
  8
11
100
AcDbLine
 10
278.0
 20
24.0
 30
0.0
 11
375.0
 21
24.0
 31
0.0
  0
TEXT
  5
31
330
163
100
AcDbEntity
  8
11
100
AcDbText
 10
280.0
 20
20.5
 30
0.0
 40
2.5
  1
品番
100
AcDbText
  0
TEXT
  5
32
330
163
100
AcDbEntity
  8
11
100
AcDbText
 10
280.0
 20
8.5
 30
0.0
 40
2.5
  1
尺度
100
AcDbText
  0
LINE
  5
33
330
163
100
AcDbEntity
  8
11
100
AcDbLine
 10
278.0
 20
12.0
 30
0.0
 11
375.0
 21
12.0
 31
0.0
  0
TEXT
  5
34
330
163
100
AcDbEntity
  8
11
100
AcDbText
 10
305.0
 20
8.5
 30
0.0
 40
2.5
  1
図番
100
AcDbText
  0
LINE
  5
35
330
163
100
AcDbEntity
  8
11
100
AcDbLine
 10
303.0
 20
0.0
 30
0.0
 11
303.0
 21
12.0
 31
0.0
  0
ENDBLK
  5
36
330
163
100
AcDbEntity
  8
0
100
AcDbBlockEnd
  0
BLOCK
  5
235
330
234
100
AcDbEntity
  8
0
100
AcDbBlockBegin
  2
*U1
 70
     1
 10
0.0
 20
0.0
 30
0.0
  3
*U1
  1

  0
ENDBLK
  5
236
330
234
100
AcDbEntity
  8
0
100
AcDbBlockEnd
  0
ENDSEC
  0
SECTION
  2
ENTITIES
  0
LINE
  5
37
330
15E
100
AcDbEntity
  8
0
100
AcDbLine
 10
169.61203
 20
74.633842
 30
0.0
 11
171.61203
 21
76.633842
 31
0.0
  0
LINE
  5
38
330
15E
100
AcDbEntity
  8
0
100
AcDbLine
 10
171.61203
 20
76.633842
 30
0.0
 11
171.61203
 21
99.03384200000001
 31
0.0
  0
ARC
  5
39
330
15E
100
AcDbEntity
  8
0
100
AcDbCircle
 10
172.21203
 20
99.03384200000001
 30
0.0
 40
0.6
100
AcDbArc
 50
90.0
 51
180.0
  0
LINE
  5
3A
330
15E
100
AcDbEntity
  8
3
100
AcDbLine
 10
171.61203
 20
99.03384200000001
 30
0.0
 11
170.6650299999999
 21
97.39359
 31
0.0
  0
LINE
  5
3B
330
15E
100
AcDbEntity
  8
3
100
AcDbLine
 10
170.6650299999999
 20
97.39359
 30
0.0
 11
170.6650299999999
 21
75.68684199999999
 31
0.0
  0
LINE
  5
3C
330
15E
100
AcDbEntity
  8
3
100
AcDbLine
 10
160.55903
 20
97.39359
 30
0.0
 11
160.55903
 21
75.68684199999999
 31
0.0
  0
LINE
  5
3D
330
15E
100
AcDbEntity
  8
3
100
AcDbLine
 10
159.61203
 20
99.03384200000001
 30
0.0
 11
160.55903
 21
97.39359
 31
0.0
  0
ARC
  5
3E
330
15E
100
AcDbEntity
  8
0
100
AcDbCircle
 10
159.01203
 20
99.03384200000001
 30
0.0
 40
0.6
100
AcDbArc
 50
0.0
 51
90.0
  0
LINE
  5
3F
330
15E
100
AcDbEntity
  8
0
100
AcDbLine
 10
159.61203
 20
76.633842
 30
0.0
 11
159.61203
 21
99.03384200000001
 31
0.0
  0
LINE
  5
40
330
15E
100
AcDbEntity
  8
0
100
AcDbLine
 10
161.61203
 20
74.633842
 30
0.0
 11
159.61203
 21
76.633842
 31
0.0
  0
LINE
  5
41
330
15E
100
AcDbEntity
  8
0
100
AcDbLine
 10
159.61203
 20
97.39359
 30
0.0
 11
171.61203
 21
97.39359
 31
0.0
  0
LINE
  5
42
330
15E
100
AcDbEntity
  8
0
100
AcDbLine
 10
159.61203
 20
76.633842
 30
0.0
 11
171.61203
 21
76.633842
 31
0.0
  0
LINE
  5
43
330
15E
100
AcDbEntity
  8
0
100
AcDbLine
 10
161.61203
 20
74.633842
 30
0.0
 11
169.61203
 21
74.633842
 31
0.0
  0
LINE
  5
44
330
15E
100
AcDbEntity
  8
0
100
AcDbLine
 10
179.61203
 20
137.6338419999999
 30
0.0
 11
179.61203
 21
105.3338419999999
 31
0.0
  0
LINE
  5
45
330
15E
100
AcDbEntity
  8
0
100
AcDbLine
 10
179.61203
 20
105.3338419999999
 30
0.0
 11
178.91203
 21
104.633842
 31
0.0
  0
LINE
  5
46
330
15E
100
AcDbEntity
  8
0
100
AcDbLine
 10
175.61203
 20
104.633842
 30
0.0
 11
175.61203
 21
100.1338419999999
 31
0.0
  0
LINE
  5
47
330
15E
100
AcDbEntity
  8
0
100
AcDbLine
 10
175.61203
 20
100.1338419999999
 30
0.0
 11
175.11203
 21
99.633842
 31
0.0
  0
LINE
  5
48
330
15E
100
AcDbEntity
  8
0
100
AcDbLine
 10
155.61203
 20
100.1338419999999
 30
0.0
 11
156.1120299999999
 21
99.633842
 31
0.0
  0
LINE
  5
49
330
15E
100
AcDbEntity
  8
0
100
AcDbLine
 10
155.61203
 20
104.633842
 30
0.0
 11
155.61203
 21
100.1338419999999
 31
0.0
  0
LINE
  5
4A
330
15E
100
AcDbEntity
  8
0
100
AcDbLine
 10
151.61203
 20
105.3338419999999
 30
0.0
 11
152.3120299999999
 21
104.633842
 31
0.0
  0
LINE
  5
4B
330
15E
100
AcDbEntity
  8
0
100
AcDbLine
 10
151.61203
 20
137.6338419999999
 30
0.0
 11
151.61203
 21
105.3338419999999
 31
0.0
  0
LINE
  5
4C
330
15E
100
AcDbEntity
  8
0
100
AcDbLine
 10
155.979672
 20
149.6338419999999
 30
0.0
 11
151.61203
 21
137.6338419999999
 31
0.0
  0
LINE
  5
4D
330
15E
100
AcDbEntity
  8
0
100
AcDbLine
 10
157.4078209999999
 20
150.6338419999999
 30
0.0
 11
155.979672
 21
149.6338419999999
 31
0.0
  0
LINE
  5
4E
330
15E
100
AcDbEntity
  8
0
100
AcDbLine
 10
156.1120299999999
 20
99.633842
 30
0.0
 11
175.11203
 21
99.633842
 31
0.0
  0
LINE
  5
4F
330
15E
100
AcDbEntity
  8
0
100
AcDbLine
 10
152.3120299999999
 20
104.633842
 30
0.0
 11
178.91203
 21
104.633842
 31
0.0
  0
LINE
  5
50
330
15E
100
AcDbEntity
  8
0
100
AcDbLine
 10
151.61203
 20
137.6338419999999
 30
0.0
 11
179.61203
 21
137.6338419999999
 31
0.0
  0
LINE
  5
51
330
15E
100
AcDbEntity
  8
0
100
AcDbLine
 10
157.4078209999999
 20
150.6338419999999
 30
0.0
 11
173.816239
 21
150.6338419999999
 31
0.0
  0
LINE
  5
52
330
15E
100
AcDbEntity
  8
0
100
AcDbLine
 10
155.979672
 20
149.6338419999999
 30
0.0
 11
175.244387
 21
149.6338419999999
 31
0.0
  0
LINE
  5
59
330
15E
100
AcDbEntity
  8
1
100
AcDbLine
 10
165.6120299999999
 20
161.6338419999999
 30
0.0
 11
165.6120299999999
 21
69.633842
 31
0.0
  0
LINE
  5
5A
330
15E
100
AcDbEntity
  8
0
100
AcDbLine
 10
173.816239
 20
150.6338419999999
 30
0.0
 11
175.244387
 21
149.6338419999999
 31
0.0
  0
LINE
  5
5B
330
15E
100
AcDbEntity
  8
0
100
AcDbLine
 10
175.244387
 20
149.6338419999999
 30
0.0
 11
175.547097
 21
148.802151
 31
0.0
  0
LINE
  5
5C
330
15E
100
AcDbEntity
  8
1
100
AcDbLine
 10
283.4058819999999
 20
182.206561
 30
0.0
 11
165.6120299999999
 21
139.333105
 31
0.0
  0
LINE
  5
5D
330
15E
100
AcDbEntity
  8
1
100
AcDbLine
 10
257.771627
 20
194.16001
 30
0.0
 11
271.4524329999999
 21
156.572306
 31
0.0
  0
LINE
  5
5E
330
15E
100
AcDbEntity
  8
0
100
AcDbLine
 10
249.836581
 20
177.951912
 30
0.0
 11
254.95547
 21
163.88788
 31
0.0
  0
ARC
  5
5F
330
15E
100
AcDbEntity
  8
0
100
AcDbCircle
 10
264.61203
 20
175.366158
 30
0.0
 40
15.0
100
AcDbArc
 50
229.926435
 51
170.073565
  0
LINE
  5
60
330
15E
100
AcDbEntity
  8
0
100
AcDbLine
 10
175.547097
 20
148.802151
 30
0.0
 11
250.514915
 21
176.088206
 31
0.0
  0
LINE
  5
61
330
15E
100
AcDbEntity
  8
0
100
AcDbLine
 10
254.2771359999999
 20
165.751587
 30
0.0
 11
179.309319
 21
138.4655329999999
 31
0.0
  0
ARC
  5
67
330
15E
100
AcDbEntity
  8
0
100
AcDbCircle
 10
186.2838959999999
 20
146.8570489999999
 30
0.0
 40
10.911566
100
AcDbArc
 50
169.731536
 51
230.268464
  0
LINE
  5
68
330
15E
100
AcDbEntity
  8
0
100
AcDbLine
 10
179.309319
 20
138.4655329999999
 30
0.0
 11
179.61203
 21
137.6338419999999
 31
0.0
  0
LINE
  5
69
330
15E
100
AcDbEntity
  8
0
100
AcDbLine
 10
151.61203
 20
105.3338419999999
 30
0.0
 11
179.61203
 21
105.3338419999999
 31
0.0
  0
LINE
  5
6A
330
15E
100
AcDbEntity
  8
0
100
AcDbLine
 10
155.61203
 20
100.1338419999999
 30
0.0
 11
175.61203
 21
100.1338419999999
 31
0.0
  0
LINE
  5
9C
330
15E
100
AcDbEntity
  8
0
100
AcDbLine
 10
89.632357
 20
149.6338419999999
 30
0.0
 11
94.0
 21
137.6338419999999
 31
0.0
  0
LINE
  5
9D
330
15E
100
AcDbEntity
  8
0
100
AcDbLine
 10
88.204209
 20
150.6338419999999
 30
0.0
 11
89.632357
 21
149.6338419999999
 31
0.0
  0
LINE
  5
9E
330
15E
100
AcDbEntity
  8
0
100
AcDbLine
 10
70.367643
 20
149.6338419999999
 30
0.0
 11
66.0
 21
137.6338419999999
 31
0.0
  0
LINE
  5
9F
330
15E
100
AcDbEntity
  8
0
100
AcDbLine
 10
71.79579100000001
 20
150.6338419999999
 30
0.0
 11
70.367643
 21
149.6338419999999
 31
0.0
  0
LINE
  5
A0
330
15E
100
AcDbEntity
  8
0
100
AcDbLine
 10
71.79579100000001
 20
150.6338419999999
 30
0.0
 11
88.204209
 21
150.6338419999999
 31
0.0
  0
LINE
  5
A1
330
15E
100
AcDbEntity
  8
0
100
AcDbLine
 10
70.367643
 20
149.6338419999999
 30
0.0
 11
89.632357
 21
149.6338419999999
 31
0.0
  0
LINE
  5
A2
330
15E
100
AcDbEntity
  8
0
100
AcDbLine
 10
85.5
 20
150.6338419999999
 30
0.0
 11
85.5
 21
170.9198959999999
 31
0.0
  0
LINE
  5
A3
330
15E
100
AcDbEntity
  8
0
100
AcDbLine
 10
74.5
 20
150.6338419999999
 30
0.0
 11
74.5
 21
170.9198959999999
 31
0.0
  0
LINE
  5
A4
330
15E
100
AcDbEntity
  8
0
100
AcDbLine
 10
66.0
 20
137.6338419999999
 30
0.0
 11
94.0
 21
137.6338419999999
 31
0.0
  0
LINE
  5
A5
330
15E
100
AcDbEntity
  8
0
100
AcDbLine
 10
94.0
 20
137.6338419999999
 30
0.0
 11
94.0
 21
105.3338419999999
 31
0.0
  0
LINE
  5
A6
330
15E
100
AcDbEntity
  8
0
100
AcDbLine
 10
94.0
 20
105.3338419999999
 30
0.0
 11
93.3
 21
104.633842
 31
0.0
  0
LINE
  5
A7
330
15E
100
AcDbEntity
  8
0
100
AcDbLine
 10
90.0
 20
104.633842
 30
0.0
 11
90.0
 21
100.1338419999999
 31
0.0
  0
LINE
  5
A8
330
15E
100
AcDbEntity
  8
0
100
AcDbLine
 10
90.0
 20
100.1338419999999
 30
0.0
 11
89.50000000000001
 21
99.633842
 31
0.0
  0
LINE
  5
A9
330
15E
100
AcDbEntity
  8
0
100
AcDbLine
 10
70.0
 20
100.1338419999999
 30
0.0
 11
70.5
 21
99.633842
 31
0.0
  0
LINE
  5
AA
330
15E
100
AcDbEntity
  8
0
100
AcDbLine
 10
70.0
 20
104.633842
 30
0.0
 11
70.0
 21
100.1338419999999
 31
0.0
  0
LINE
  5
AB
330
15E
100
AcDbEntity
  8
0
100
AcDbLine
 10
66.0
 20
105.3338419999999
 30
0.0
 11
66.7
 21
104.633842
 31
0.0
  0
LINE
  5
AC
330
15E
100
AcDbEntity
  8
0
100
AcDbLine
 10
66.0
 20
137.6338419999999
 30
0.0
 11
66.0
 21
105.3338419999999
 31
0.0
  0
LINE
  5
AD
330
15E
100
AcDbEntity
  8
0
100
AcDbLine
 10
70.5
 20
99.633842
 30
0.0
 11
89.50000000000001
 21
99.633842
 31
0.0
  0
LINE
  5
AE
330
15E
100
AcDbEntity
  8
0
100
AcDbLine
 10
66.7
 20
104.633842
 30
0.0
 11
93.3
 21
104.633842
 31
0.0
  0
LINE
  5
AF
330
15E
100
AcDbEntity
  8
0
100
AcDbLine
 10
66.0
 20
105.3338419999999
 30
0.0
 11
94.0
 21
105.3338419999999
 31
0.0
  0
LINE
  5
B0
330
15E
100
AcDbEntity
  8
0
100
AcDbLine
 10
70.0
 20
100.1338419999999
 30
0.0
 11
90.0
 21
100.1338419999999
 31
0.0
  0
LINE
  5
B1
330
15E
100
AcDbEntity
  8
1
100
AcDbLine
 10
80.0
 20
195.366158
 30
0.0
 11
80.0
 21
69.633842
 31
0.0
  0
LINE
  5
B2
330
15E
100
AcDbEntity
  8
1
100
AcDbLine
 10
100.0
 20
175.366158
 30
0.0
 11
60.0
 21
175.366158
 31
0.0
  0
ARC
  5
B3
330
15E
100
AcDbEntity
  8
0
100
AcDbCircle
 10
80.0
 20
175.366158
 30
0.0
 40
15.0
100
AcDbArc
 50
291.5101879999999
 51
248.4898119999999
  0
LWPOLYLINE
  5
B4
330
15E
100
AcDbEntity
  8
0
100
AcDbPolyline
 90
        4
 70
     0
 43
0.0
 10
71.295447
 20
170.9198959999999
 42
0.119002
 10
71.925943
 20
168.308323
 42
0.104756
 10
73.84495099999999
 20
165.94751
 42
0.021018
 10
74.5
 20
165.462357
 42
0.097353
  0
LWPOLYLINE
  5
BA
330
15E
100
AcDbEntity
  8
0
100
AcDbPolyline
 90
       12
 70
     0
 43
0.0
 10
85.5
 20
165.466428
 42
0.023032
 10
86.15504900000001
 20
165.94751
 42
0.104756
 10
88.074057
 20
168.308323
 42
0.119002
 10
88.70455300000001
 20
170.9198959999999
 42
0.119002
 10
88.074057
 20
173.5314699999999
 42
0.104756
 10
86.15504900000001
 20
175.8922819999999
 42
0.089387
 10
83.409273
 20
177.396631
 42
0.080904
 10
80.0
 20
177.951912
 42
0.080904
 10
76.590727
 20
177.396631
 42
0.089387
 10
73.84495099999999
 20
175.8922819999999
 42
0.104756
 10
71.925943
 20
173.5314699999999
 42
0.119002
 10
71.295447
 20
170.9198959999999
 42
0.119002
  0
LWPOLYLINE
  5
C8
330
15E
100
AcDbEntity
  8
0
100
AcDbPolyline
 90
        9
 70
     0
 43
0.0
 10
85.5
 20
170.9198959999999
 42
0.104168
 10
85.086753
 20
172.881934
 42
0.100664
 10
83.88908699999999
 20
174.574443
 42
0.096076
 10
82.120467
 20
175.6900749999999
 42
0.093065
 10
80.0
 20
176.088206
 42
0.093065
 10
77.87953299999999
 20
175.6900749999999
 42
0.096076
 10
76.110913
 20
174.574443
 42
0.100664
 10
74.91324699999999
 20
172.881934
 42
0.104168
 10
74.5
 20
170.9198959999999
 42
0.104168
  0
LINE
  5
D3
330
15E
100
AcDbEntity
  8
0
100
AcDbLine
 10
76.0
 20
74.633842
 30
0.0
 11
84.0
 21
74.633842
 31
0.0
  0
LINE
  5
D4
330
15E
100
AcDbEntity
  8
0
100
AcDbLine
 10
74.0
 20
76.633842
 30
0.0
 11
86.0
 21
76.633842
 31
0.0
  0
LINE
  5
D5
330
15E
100
AcDbEntity
  8
0
100
AcDbLine
 10
74.0
 20
97.39359
 30
0.0
 11
86.0
 21
97.39359
 31
0.0
  0
LINE
  5
D6
330
15E
100
AcDbEntity
  8
0
100
AcDbLine
 10
76.0
 20
74.633842
 30
0.0
 11
74.0
 21
76.633842
 31
0.0
  0
LINE
  5
D7
330
15E
100
AcDbEntity
  8
0
100
AcDbLine
 10
74.0
 20
76.633842
 30
0.0
 11
74.0
 21
99.03384200000001
 31
0.0
  0
ARC
  5
D8
330
15E
100
AcDbEntity
  8
0
100
AcDbCircle
 10
73.4
 20
99.03384200000001
 30
0.0
 40
0.6
100
AcDbArc
 50
0.0
 51
90.0
  0
LINE
  5
D9
330
15E
100
AcDbEntity
  8
3
100
AcDbLine
 10
74.0
 20
99.03384200000001
 30
0.0
 11
74.947
 21
97.39359
 31
0.0
  0
LINE
  5
DA
330
15E
100
AcDbEntity
  8
3
100
AcDbLine
 10
74.947
 20
97.39359
 30
0.0
 11
74.947
 21
75.68684199999999
 31
0.0
  0
LINE
  5
DB
330
15E
100
AcDbEntity
  8
3
100
AcDbLine
 10
85.053
 20
97.39359
 30
0.0
 11
85.053
 21
75.68684199999999
 31
0.0
  0
LINE
  5
DC
330
15E
100
AcDbEntity
  8
3
100
AcDbLine
 10
86.0
 20
99.03384200000001
 30
0.0
 11
85.053
 21
97.39359
 31
0.0
  0
ARC
  5
DD
330
15E
100
AcDbEntity
  8
0
100
AcDbCircle
 10
86.6
 20
99.03384200000001
 30
0.0
 40
0.6
100
AcDbArc
 50
90.0
 51
180.0
  0
LINE
  5
DE
330
15E
100
AcDbEntity
  8
0
100
AcDbLine
 10
86.0
 20
76.633842
 30
0.0
 11
86.0
 21
99.03384200000001
 31
0.0
  0
LINE
  5
DF
330
15E
100
AcDbEntity
  8
0
100
AcDbLine
 10
84.0
 20
74.633842
 30
0.0
 11
86.0
 21
76.633842
 31
0.0
  0
ENDSEC
  0
SECTION
  2
OBJECTS
  0
DICTIONARY
  5
153
330
0
100
AcDbDictionary
281
     1
  3
ACAD_GROUP
350
154
  3
ACAD_LAYOUT
350
17F
  3
ACAD_MLINESTYLE
350
161
  3
ACAD_PLOTSETTINGS
350
180
  3
ACAD_PLOTSTYLENAME
350
17D
  3
AcDbVariableDictionary
350
26A
  3
AcmDictionary
350
23E
  3
AMG
350
185
  3
AMGSNAPSETTINGS
350
25B
  3
DWGPROPS
350
241
  3
MAPISURF_MODULE
350
211
  0
DICTIONARY
  5
262
330
15E
100
AcDbDictionary
280
     1
281
     1
  3
ACAD_INDEX
360
263
  0
DICTIONARY
  5
154
102
{ACAD_REACTORS
330
153
102
}
330
153
100
AcDbDictionary
281
     1
  0
DICTIONARY
  5
17F
102
{ACAD_REACTORS
330
153
102
}
330
153
100
AcDbDictionary
281
     1
  3
Model
350
181
  3
ﾚｲｱｳﾄ1
350
182
  0
DICTIONARY
  5
161
102
{ACAD_REACTORS
330
153
102
}
330
153
100
AcDbDictionary
281
     1
  3
STANDARD
350
162
  0
DICTIONARY
  5
180
102
{ACAD_REACTORS
330
153
102
}
330
153
100
AcDbDictionary
281
     1
  0
ACDBDICTIONARYWDFLT
  5
17D
102
{ACAD_REACTORS
330
153
102
}
330
153
100
AcDbDictionary
281
     1
  3
Normal
350
17E
100
AcDbDictionaryWithDefault
340
17E
  0
DICTIONARY
  5
26A
102
{ACAD_REACTORS
330
153
102
}
330
153
100
AcDbDictionary
281
     1
  3
DIMASSOC
350
26C
  3
INDEXCTL
350
26B
  0
DICTIONARY
  5
23E
102
{ACAD_REACTORS
330
153
102
}
330
153
100
AcDbDictionary
281
     1
  3
AcmBOMDATA
350
23F
  0
DICTIONARY
  5
185
102
{ACAD_REACTORS
330
153
102
}
330
153
100
AcDbDictionary
281
     1
  3
AcMgSettings
350
186
  3
AMGLAYCFG
350
24B
  0
DICTIONARY
  5
25B
102
{ACAD_REACTORS
330
153
102
}
330
153
100
AcDbDictionary
281
     1
  3
DIMENSION
350
260
  3
FEA
350
25F
  3
HATCH (1)
350
25C
  3
HATCH (2)
350
25D
  3
SIMPLE WELD
350
261
  3
SYMBOLS
350
25E
  0
XRECORD
  5
241
102
{ACAD_REACTORS
330
153
102
}
330
153
100
AcDbXrecord
280
     1
  1
DWGPROPS COOKIE
  2

  3

  4

  6

  7

  8

  9

300
AmdtFileType=84
301
=
302
=
303
=
304
=
305
=
306
=
307
=
308
=
309
=
 40
0.0156219328703704
 41
2450867.111464814
 42
2453594.663514178
  1

 90
        1
  0
DICTIONARY
  5
263
102
{ACAD_REACTORS
330
262
102
}
330
262
100
AcDbDictionary
281
     1
  3
*A1
350
264
  0
LAYOUT
  5
181
102
{ACAD_REACTORS
330
17F
102
}
330
17F
100
AcDbPlotSettings
  1

  2
\\KONISHIDENXP\SHARP MX-2700FG
  4

  6

 40
0.0
 41
0.0
 42
0.0
 43
0.0
 44
0.0
 45
0.0
 46
0.0
 47
0.0
 48
0.0
 49
0.0
140
0.0
141
0.0
142
1.0
143
1.0
 70
  1712
 72
     0
 73
     0
 74
     0
  7

 75
     0
147
1.0
148
0.0
149
0.0
100
AcDbLayout
  1
Model
 70
     1
 71
     0
 10
0.0
 20
0.0
 11
12.0
 21
9.0
 12
0.0
 22
0.0
 32
0.0
 14
0.0
 24
0.0
 34
0.0
 15
0.0
 25
0.0
 35
0.0
146
0.0
 13
0.0
 23
0.0
 33
0.0
 16
1.0
 26
0.0
 36
0.0
 17
0.0
 27
1.0
 37
0.0
 76
     0
330
15E
  0
LAYOUT
  5
182
102
{ACAD_REACTORS
330
17F
102
}
330
17F
100
AcDbPlotSettings
  1

  2
\\KONISHIDENXP\SHARP MX-2700FG
  4

  6

 40
0.0
 41
0.0
 42
0.0
 43
0.0
 44
0.0
 45
0.0
 46
0.0
 47
0.0
 48
0.0
 49
0.0
140
0.0
141
0.0
142
1.0
143
1.0
 70
   688
 72
     0
 73
     0
 74
     5
  7

 75
    16
147
1.0
148
0.0
149
0.0
100
AcDbLayout
  1
ﾚｲｱｳﾄ1
 70
     0
 71
     1
 10
0.0
 20
0.0
 11
12.0
 21
9.0
 12
0.0
 22
0.0
 32
0.0
 14
1.000000000000000E+20
 24
1.000000000000000E+20
 34
1.000000000000000E+20
 15
-1.000000000000000E+20
 25
-1.000000000000000E+20
 35
-1.000000000000000E+20
146
0.0
 13
0.0
 23
0.0
 33
0.0
 16
1.0
 26
0.0
 36
0.0
 17
0.0
 27
1.0
 37
0.0
 76
     0
330
15B
  0
MLINESTYLE
  5
162
102
{ACAD_REACTORS
330
161
102
}
330
161
100
AcDbMlineStyle
  2
STANDARD
 70
     0
  3

 62
   256
 51
90.0
 52
90.0
 71
     2
 49
0.5
 62
   256
  6
BYLAYER
 49
-0.5
 62
   256
  6
BYLAYER
  0
ACDBPLACEHOLDER
  5
17E
102
{ACAD_REACTORS
330
17D
102
}
330
17D
  0
DICTIONARYVAR
  5
26C
102
{ACAD_REACTORS
330
26A
102
}
330
26A
100
DictionaryVariables
280
     0
  1
0
  0
DICTIONARYVAR
  5
26B
102
{ACAD_REACTORS
330
26A
102
}
330
26A
100
DictionaryVariables
280
     0
  1
1
  0
ACMDATADICTIONARY
  5
23F
102
{ACAD_REACTORS
330
23E
102
}
330
23E
100
AcDbDictionary
281
     1
  3
*A1
350
240
100
AcmDataDictionary
  0
DICTIONARY
  5
186
102
{ACAD_REACTORS
330
185
102
}
330
185
100
AcDbDictionary
281
     1
  3
DWGSETTINGS
350
187
  0
ACAMGFILTERDAT
  5
260
102
{ACAD_REACTORS
330
25B
102
}
330
25B
100
AcAmgFilterDat
 70
    15
  1
DIMENSION,AMDT_*_DIM
  2
*
  3
*
  4
*
  5
*
290
     1
  0
ACAMGFILTERDAT
  5
25F
102
{ACAD_REACTORS
330
25B
102
}
330
25B
100
AcAmgFilterDat
 70
    15
  1
*
  2
AM_FEA-AM_*
  3
*
  4
*
  5
*
290
     1
  0
ACAMGFILTERDAT
  5
25C
102
{ACAD_REACTORS
330
25B
102
}
330
25B
100
AcAmgFilterDat
 70
    15
  1
HATCH
  2
*
  3
*
  4
*
  5
*
290
     1
  0
ACAMGFILTERDAT
  5
25D
102
{ACAD_REACTORS
330
25B
102
}
330
25B
100
AcAmgFilterDat
 70
    15
  1
LINE
  2
8,8N,*-8,*-8N,AM_8,AM_8N,*-AM_8,*-AM_8N
  3
*
  4
*
  5
INSERT,STDPART2D
290
     1
  0
ACAMGFILTERDAT
  5
261
102
{ACAD_REACTORS
330
25B
102
}
330
25B
100
AcAmgFilterDat
 70
    15
  1
ARC
  2
AM_5
  3
*
  4
2
  5
INSERT
290
     0
  0
ACAMGFILTERDAT
  5
25E
102
{ACAD_REACTORS
330
25B
102
}
330
25B
100
AcAmgFilterDat
 70
    15
  1
ACMFCFRAME,ACMDATUMTARGET,ACMDATUMID,ACMWELDSYM,ACMSURFSYM,ACMFEATID,ACMPARTREF,ACMBALLOON,AMDTEDGESYM,AMGSCREWCALCTABLE
  2
*
  3
*
  4
*
  5
*
290
     1
  0
LAYER_INDEX
  5
264
102
{ACAD_REACTORS
330
263
102
}
330
263
100
AcDbIndex
 40
2456449.446005127
100
AcDbLayerIndex
  8
0
360
265
 90
       68
  8
1
360
266
 90
        5
  8
3
360
267
 90
        8
  8
10
360
268
 90
        0
  8
11
360
269
 90
        0
  0
ACMDATAENTRYBLOCK
  5
240
102
{ACAD_REACTORS
330
23F
102
}
330
23F
100
AcmDataEntry
100
AcmDataEntryBlock
  0
IDBUFFER
  5
265
330
0
100
AcDbIdBuffer
330
AA
330
AB
330
AC
330
AD
330
AE
330
AF
330
B0
330
B3
330
B4
330
BA
330
C8
330
D3
330
D4
330
D5
330
D6
330
D7
330
D8
330
DD
330
DE
330
DF
330
37
330
38
330
39
330
3E
330
3F
330
40
330
41
330
42
330
43
330
44
330
45
330
46
330
47
330
48
330
49
330
4A
330
4B
330
4C
330
4D
330
4E
330
4F
330
50
330
51
330
52
330
5A
330
5B
330
5E
330
5F
330
60
330
61
330
67
330
68
330
69
330
6A
330
9C
330
9D
330
9E
330
9F
330
A0
330
A1
330
A2
330
A3
330
A4
330
A5
330
A6
330
A7
330
A8
330
A9
  0
IDBUFFER
  5
266
330
0
100
AcDbIdBuffer
330
59
330
5C
330
5D
330
B1
330
B2
  0
IDBUFFER
  5
267
330
0
100
AcDbIdBuffer
330
3A
330
3B
330
3C
330
3D
330
D9
330
DA
330
DB
330
DC
  0
IDBUFFER
  5
268
330
0
100
AcDbIdBuffer
  0
IDBUFFER
  5
269
330
0
100
AcDbIdBuffer
  0
ENDSEC
  0
EOF
