  0
SECTION
  2
HEADER
  9
$ACADVER
  1
AC1014
  9
$ACADMAINTVER
 70
     0
  9
$DWGCODEPAGE
  3
ANSI_932
  9
$INSBASE
 10
0.0
 20
0.0
 30
0.0
  9
$EXTMIN
 10
0.0
 20
0.0
 30
0.0
  9
$EXTMAX
 10
375.0
 20
270.0
 30
0.0
  9
$LIMMIN
 10
0.0
 20
0.0
  9
$LIMMAX
 10
375.0
 20
270.0
  9
$ORTHOMODE
 70
     1
  9
$REGENMODE
 70
     1
  9
$FILLMODE
 70
     1
  9
$QTEXTMODE
 70
     0
  9
$MIRRTEXT
 70
     1
  9
$DRAGMODE
 70
     1
  9
$LTSCALE
 40
10.0
  9
$OSMODE
 70
     0
  9
$ATTMODE
 70
     1
  9
$TEXTSIZE
 40
6.0
  9
$TRACEWID
 40
0.05
  9
$TEXTSTYLE
  7
BIGFONT
  9
$CLAYER
  8
0
  9
$CELTYPE
  6
BYLAYER
  9
$CECOLOR
 62
   256
  9
$CELTSCALE
 40
1.0
  9
$DELOBJ
 70
     1
  9
$DISPSILH
 70
     0
  9
$DIMSCALE
 40
1.0
  9
$DIMASZ
 40
3.0
  9
$DIMEXO
 40
2.0
  9
$DIMDLI
 40
0.38
  9
$DIMRND
 40
0.0
  9
$DIMDLE
 40
0.0
  9
$DIMEXE
 40
2.0
  9
$DIMTP
 40
0.0
  9
$DIMTM
 40
0.0
  9
$DIMTXT
 40
3.2
  9
$DIMCEN
 40
0.0
  9
$DIMTSZ
 40
0.0
  9
$DIMTOL
 70
     0
  9
$DIMLIM
 70
     0
  9
$DIMTIH
 70
     0
  9
$DIMTOH
 70
     0
  9
$DIMSE1
 70
     0
  9
$DIMSE2
 70
     0
  9
$DIMTAD
 70
     1
  9
$DIMZIN
 70
     0
  9
$DIMBLK
  1

  9
$DIMASO
 70
     0
  9
$DIMSHO
 70
     0
  9
$DIMPOST
  1

  9
$DIMAPOST
  1

  9
$DIMALT
 70
     0
  9
$DIMALTD
 70
     2
  9
$DIMALTF
 40
25.4
  9
$DIMLFAC
 40
1.0
  9
$DIMTOFL
 70
     1
  9
$DIMTVP
 40
1.6
  9
$DIMTIX
 70
     1
  9
$DIMSOXD
 70
     0
  9
$DIMSAH
 70
     0
  9
$DIMBLK1
  1

  9
$DIMBLK2
  1

  9
$DIMSTYLE
  2
STANDARD
  9
$DIMCLRD
 70
     0
  9
$DIMCLRE
 70
     0
  9
$DIMCLRT
 70
     0
  9
$DIMTFAC
 40
1.0
  9
$DIMGAP
 40
0.09
  9
$DIMJUST
 70
     0
  9
$DIMSD1
 70
     0
  9
$DIMSD2
 70
     0
  9
$DIMTOLJ
 70
     1
  9
$DIMTZIN
 70
     0
  9
$DIMALTZ
 70
     0
  9
$DIMALTTZ
 70
     0
  9
$DIMFIT
 70
     3
  9
$DIMUPT
 70
     0
  9
$DIMUNIT
 70
     2
  9
$DIMDEC
 70
     4
  9
$DIMTDEC
 70
     4
  9
$DIMALTU
 70
     2
  9
$DIMALTTD
 70
     2
  9
$DIMTXSTY
  7
STANDARD
  9
$DIMAUNIT
 70
     0
  9
$LUNITS
 70
     2
  9
$LUPREC
 70
     4
  9
$SKETCHINC
 40
0.1
  9
$FILLETRAD
 40
0.0
  9
$AUNITS
 70
     0
  9
$AUPREC
 70
     4
  9
$MENU
  1
ACAD
  9
$ELEVATION
 40
0.0
  9
$PELEVATION
 40
0.0
  9
$THICKNESS
 40
0.0
  9
$LIMCHECK
 70
     0
  9
$BLIPMODE
 70
     0
  9
$CHAMFERA
 40
0.0
  9
$CHAMFERB
 40
0.0
  9
$CHAMFERC
 40
0.0
  9
$CHAMFERD
 40
0.0
  9
$SKPOLY
 70
     0
  9
$TDCREATE
 40
2449373.391273148
  9
$TDUPDATE
 40
2453594.662459664
  9
$TDINDWG
 40
0.0038713426
  9
$TDUSRTIMER
 40
0.0038713426
  9
$USRTIMER
 70
     1
  9
$ANGBASE
 50
0.0
  9
$ANGDIR
 70
     0
  9
$PDMODE
 70
     0
  9
$PDSIZE
 40
0.0
  9
$PLINEWID
 40
0.0
  9
$COORDS
 70
     0
  9
$SPLFRAME
 70
     0
  9
$SPLINETYPE
 70
     6
  9
$SPLINESEGS
 70
     8
  9
$ATTDIA
 70
     0
  9
$ATTREQ
 70
     1
  9
$HANDLING
 70
     1
  9
$HANDSEED
  5
12B
  9
$SURFTAB1
 70
     6
  9
$SURFTAB2
 70
     6
  9
$SURFTYPE
 70
     6
  9
$SURFU
 70
     6
  9
$SURFV
 70
     6
  9
$UCSNAME
  2

  9
$UCSORG
 10
0.0
 20
0.0
 30
0.0
  9
$UCSXDIR
 10
1.0
 20
0.0
 30
0.0
  9
$UCSYDIR
 10
0.0
 20
1.0
 30
0.0
  9
$PUCSNAME
  2

  9
$PUCSORG
 10
0.0
 20
0.0
 30
0.0
  9
$PUCSXDIR
 10
1.0
 20
0.0
 30
0.0
  9
$PUCSYDIR
 10
0.0
 20
1.0
 30
0.0
  9
$USERI1
 70
     0
  9
$USERI2
 70
     0
  9
$USERI3
 70
     0
  9
$USERI4
 70
     0
  9
$USERI5
 70
     0
  9
$USERR1
 40
0.0
  9
$USERR2
 40
0.0
  9
$USERR3
 40
0.0
  9
$USERR4
 40
0.0
  9
$USERR5
 40
0.0
  9
$WORLDVIEW
 70
     1
  9
$SHADEDGE
 70
     3
  9
$SHADEDIF
 70
    70
  9
$TILEMODE
 70
     1
  9
$MAXACTVP
 70
    48
  9
$PINSBASE
 10
0.0
 20
0.0
 30
0.0
  9
$PLIMCHECK
 70
     0
  9
$PEXTMIN
 10
1.000000E+20
 20
1.000000E+20
 30
1.000000E+20
  9
$PEXTMAX
 10
-1.000000E+20
 20
-1.000000E+20
 30
-1.000000E+20
  9
$PLIMMIN
 10
0.0
 20
0.0
  9
$PLIMMAX
 10
12.0
 20
9.0
  9
$UNITMODE
 70
     0
  9
$VISRETAIN
 70
     1
  9
$PLINEGEN
 70
     1
  9
$PSLTSCALE
 70
     0
  9
$TREEDEPTH
 70
  3020
  9
$PICKSTYLE
 70
     1
  9
$CMLSTYLE
  2
STANDARD
  9
$CMLJUST
 70
     0
  9
$CMLSCALE
 40
1.0
  9
$PROXYGRAPHICS
 70
     1
  9
$MEASUREMENT
 70
     0
  0
ENDSEC
  0
SECTION
  2
CLASSES
  0
CLASS
  1
LWPOLYLINE
  2
AcDbPolyline
  3
"AutoCAD"
 90
        0
280
     0
281
     1
  0
ENDSEC
  0
SECTION
  2
TABLES
  0
TABLE
  2
VPORT
  5
8
100
AcDbSymbolTable
 70
    12
  0
VPORT
  5
12A
100
AcDbSymbolTableRecord
100
AcDbViewportTableRecord
  2
*ACTIVE
 70
     0
 10
0.0
 20
0.0
 11
1.0
 21
1.0
 12
199.928002
 22
139.328063
 13
0.0
 23
0.0
 14
1.0
 24
1.0
 15
0.0
 25
0.0
 16
0.0
 26
0.0
 36
1.0
 17
0.0
 27
0.0
 37
0.0
 40
557.312253
 41
1.434944
 42
50.0
 43
0.0
 44
0.0
 50
0.0
 51
0.0
 71
     0
 72
   100
 73
     1
 74
     1
 75
     0
 76
     0
 77
     0
 78
     0
  0
ENDTAB
  0
TABLE
  2
LTYPE
  5
5
100
AcDbSymbolTable
 70
     2
  0
LTYPE
  5
12
100
AcDbSymbolTableRecord
100
AcDbLinetypeTableRecord
  2
BYBLOCK
 70
     0
  3

 72
    65
 73
     0
 40
0.0
  0
LTYPE
  5
13
100
AcDbSymbolTableRecord
100
AcDbLinetypeTableRecord
  2
BYLAYER
 70
     0
  3

 72
    65
 73
     0
 40
0.0
  0
LTYPE
  5
14
100
AcDbSymbolTableRecord
100
AcDbLinetypeTableRecord
  2
CONTINUOUS
 70
     0
  3
実線
 72
    65
 73
     0
 40
0.0
  0
LTYPE
  5
20
100
AcDbSymbolTableRecord
100
AcDbLinetypeTableRecord
  2
CENTER
 70
     0
  3
____ _ ____ _ ____ _ ____ _ ____ _ ____ _ ____
 72
    65
 73
     4
 40
2.0
 49
1.25
 74
     0
 49
-0.25
 74
     0
 49
0.25
 74
     0
 49
-0.25
 74
     0
  0
ENDTAB
  0
TABLE
  2
LAYER
  5
2
100
AcDbSymbolTable
 70
     5
  0
LAYER
  5
E
100
AcDbSymbolTableRecord
100
AcDbLayerTableRecord
  2
0
 70
     0
 62
     7
  6
CONTINUOUS
  0
LAYER
  5
21
100
AcDbSymbolTableRecord
100
AcDbLayerTableRecord
  2
1
 70
     0
 62
     1
  6
CENTER
  0
LAYER
  5
22
100
AcDbSymbolTableRecord
100
AcDbLayerTableRecord
  2
3
 70
     0
 62
     3
  6
CONTINUOUS
  0
LAYER
  5
23
100
AcDbSymbolTableRecord
100
AcDbLayerTableRecord
  2
10
 70
     0
 62
     7
  6
CONTINUOUS
  0
LAYER
  5
24
100
AcDbSymbolTableRecord
100
AcDbLayerTableRecord
  2
11
 70
     0
 62
     3
  6
CONTINUOUS
  0
ENDTAB
  0
TABLE
  2
STYLE
  5
3
100
AcDbSymbolTable
 70
     4
  0
STYLE
  5
F
100
AcDbSymbolTableRecord
100
AcDbTextStyleTableRecord
  2
STANDARD
 70
     0
 40
0.0
 41
1.0
 50
0.0
 71
     0
 42
4.0
  3
TXT
  4
BIGFONT
  0
STYLE
  5
1F
100
AcDbSymbolTableRecord
100
AcDbTextStyleTableRecord
  2
BIGFONT
 70
     0
 40
6.0
 41
1.0
 50
0.0
 71
     0
 42
6.0
  3
txt.shx
  4
bigfont
  0
STYLE
  5
25
100
AcDbSymbolTableRecord
100
AcDbTextStyleTableRecord
  2
COMPLEX
 70
     0
 40
2.0
 41
0.4
 50
0.0
 71
     0
 42
3.0
  3
COMPLEX
  4

  0
STYLE
  5
26
100
AcDbSymbolTableRecord
100
AcDbTextStyleTableRecord
  2
07500
 70
     0
 40
0.0
 41
0.75
 50
0.0
 71
     0
 42
3.0
  3
TXT
  4
BIGFONT
  0
ENDTAB
  0
TABLE
  2
VIEW
  5
6
100
AcDbSymbolTable
 70
     1
  0
VIEW
  5
27
100
AcDbSymbolTableRecord
100
AcDbViewTableRecord
  2
ALL
 70
     0
 40
270.0
 10
220.991597
 20
135.0
 41
0.0
 11
0.0
 21
0.0
 31
1.0
 12
0.0
 22
0.0
 32
0.0
 42
1.0
 43
0.0
 44
0.0
 50
0.0
 71
     0
  0
ENDTAB
  0
TABLE
  2
UCS
  5
7
100
AcDbSymbolTable
 70
     0
  0
ENDTAB
  0
TABLE
  2
APPID
  5
9
100
AcDbSymbolTable
 70
     1
  0
APPID
  5
10
100
AcDbSymbolTableRecord
100
AcDbRegAppTableRecord
  2
ACAD
 70
     0
  0
ENDTAB
  0
TABLE
  2
DIMSTYLE
  5
A
100
AcDbSymbolTable
 70
     1
  0
DIMSTYLE
105
113
100
AcDbSymbolTableRecord
100
AcDbDimStyleTableRecord
  2
STANDARD
 70
     0
  3

  4

  5

  6

  7

 40
1.0
 41
0.18
 42
0.0625
 43
0.38
 44
0.18
 45
0.0
 46
0.0
 47
0.0
 48
0.0
140
0.18
141
0.09
142
0.0
143
25.4
144
1.0
145
0.0
146
1.0
147
0.09
 71
     0
 72
     0
 73
     1
 74
     1
 75
     0
 76
     0
 77
     0
 78
     0
170
     0
171
     2
172
     0
173
     0
174
     0
175
     0
176
     0
177
     0
178
     0
270
     2
271
     4
272
     4
273
     2
274
     2
340
F
275
     0
280
     0
281
     0
282
     0
283
     1
284
     0
285
     0
286
     0
287
     3
288
     0
  0
ENDTAB
  0
TABLE
  2
BLOCK_RECORD
  5
1
100
AcDbSymbolTable
 70
     1
  0
BLOCK_RECORD
  5
18
100
AcDbSymbolTableRecord
100
AcDbBlockTableRecord
  2
*MODEL_SPACE
  0
BLOCK_RECORD
  5
15
100
AcDbSymbolTableRecord
100
AcDbBlockTableRecord
  2
*PAPER_SPACE
  0
BLOCK_RECORD
  5
2A
100
AcDbSymbolTableRecord
100
AcDbBlockTableRecord
  2
WWW
  0
ENDTAB
  0
ENDSEC
  0
SECTION
  2
BLOCKS
  0
BLOCK
  5
19
100
AcDbEntity
  8
0
100
AcDbBlockBegin
  2
*MODEL_SPACE
 70
     0
 10
0.0
 20
0.0
 30
0.0
  3
*MODEL_SPACE
  1

  0
ENDBLK
  5
1A
100
AcDbEntity
  8
0
100
AcDbBlockEnd
  0
BLOCK
  5
16
100
AcDbEntity
 67
     1
  8
0
100
AcDbBlockBegin
  2
*PAPER_SPACE
 70
     0
 10
0.0
 20
0.0
 30
0.0
  3
*PAPER_SPACE
  1

  0
ENDBLK
  5
17
100
AcDbEntity
 67
     1
  8
0
100
AcDbBlockEnd
  0
BLOCK
  5
2B
100
AcDbEntity
  8
0
100
AcDbBlockBegin
  2
WWW
 70
     0
 10
375.0
 20
0.0
 30
0.0
  3
WWW
  1

  0
LINE
  5
2C
100
AcDbEntity
  8
11
100
AcDbLine
 10
278.0
 20
36.0
 30
0.0
 11
375.0
 21
36.0
 31
0.0
  0
TEXT
  5
2D
100
AcDbEntity
  8
11
100
AcDbText
 10
280.0
 20
32.5
 30
0.0
 40
2.5
  1
部品名称
100
AcDbText
  0
LINE
  5
2E
100
AcDbEntity
  8
11
100
AcDbLine
 10
278.0
 20
36.0
 30
0.0
 11
278.0
 21
0.0
 31
0.0
  0
LINE
  5
2F
100
AcDbEntity
  8
11
100
AcDbLine
 10
278.0
 20
24.0
 30
0.0
 11
375.0
 21
24.0
 31
0.0
  0
TEXT
  5
30
100
AcDbEntity
  8
11
100
AcDbText
 10
280.0
 20
20.5
 30
0.0
 40
2.5
  1
品番
100
AcDbText
  0
TEXT
  5
31
100
AcDbEntity
  8
11
100
AcDbText
 10
280.0
 20
8.5
 30
0.0
 40
2.5
  1
尺度
100
AcDbText
  0
LINE
  5
32
100
AcDbEntity
  8
11
100
AcDbLine
 10
278.0
 20
12.0
 30
0.0
 11
375.0
 21
12.0
 31
0.0
  0
TEXT
  5
33
100
AcDbEntity
  8
11
100
AcDbText
 10
305.0
 20
8.5
 30
0.0
 40
2.5
  1
図番
100
AcDbText
  0
LINE
  5
34
100
AcDbEntity
  8
11
100
AcDbLine
 10
303.0
 20
0.0
 30
0.0
 11
303.0
 21
12.0
 31
0.0
  0
ENDBLK
  5
35
100
AcDbEntity
  8
0
100
AcDbBlockEnd
  0
ENDSEC
  0
SECTION
  2
ENTITIES
  0
LINE
  5
36
100
AcDbEntity
  8
0
100
AcDbLine
 10
148.518519
 20
86.590345
 30
0.0
 11
150.018519
 21
88.090345
 31
0.0
  0
LINE
  5
37
100
AcDbEntity
  8
0
100
AcDbLine
 10
150.018519
 20
88.090345
 30
0.0
 11
150.018519
 21
149.190345
 31
0.0
  0
ARC
  5
38
100
AcDbEntity
  8
0
100
AcDbCircle
 10
150.418519
 20
149.190345
 30
0.0
 40
0.4
100
AcDbArc
 50
90.0
 51
180.0
  0
LINE
  5
39
100
AcDbEntity
  8
3
100
AcDbLine
 10
150.018519
 20
149.190345
 30
0.0
 11
149.206519
 21
147.783919
 31
0.0
  0
LINE
  5
3A
100
AcDbEntity
  8
3
100
AcDbLine
 10
149.206519
 20
147.783919
 30
0.0
 11
149.206519
 21
87.278345
 31
0.0
  0
LINE
  5
3B
100
AcDbEntity
  8
3
100
AcDbLine
 10
140.830519
 20
147.783919
 30
0.0
 11
140.830519
 21
87.278345
 31
0.0
  0
LINE
  5
3C
100
AcDbEntity
  8
3
100
AcDbLine
 10
140.018519
 20
149.190345
 30
0.0
 11
140.830519
 21
147.783919
 31
0.0
  0
ARC
  5
3D
100
AcDbEntity
  8
0
100
AcDbCircle
 10
139.618519
 20
149.190345
 30
0.0
 40
0.4
100
AcDbArc
 50
0.0
 51
90.0
  0
LINE
  5
3E
100
AcDbEntity
  8
0
100
AcDbLine
 10
140.018519
 20
88.090345
 30
0.0
 11
140.018519
 21
149.190345
 31
0.0
  0
LINE
  5
3F
100
AcDbEntity
  8
0
100
AcDbLine
 10
141.518519
 20
86.590345
 30
0.0
 11
140.018519
 21
88.090345
 31
0.0
  0
LINE
  5
40
100
AcDbEntity
  8
0
100
AcDbLine
 10
140.018519
 20
147.783919
 30
0.0
 11
150.018519
 21
147.783919
 31
0.0
  0
LINE
  5
41
100
AcDbEntity
  8
0
100
AcDbLine
 10
140.018519
 20
88.090345
 30
0.0
 11
150.018519
 21
88.090345
 31
0.0
  0
LINE
  5
42
100
AcDbEntity
  8
0
100
AcDbLine
 10
141.518519
 20
86.590345
 30
0.0
 11
148.518519
 21
86.590345
 31
0.0
  0
LINE
  5
43
100
AcDbEntity
  8
0
100
AcDbLine
 10
136.518519
 20
150.090345
 30
0.0
 11
153.518519
 21
150.090345
 31
0.0
  0
LINE
  5
44
100
AcDbEntity
  8
0
100
AcDbLine
 10
133.018519
 20
154.290345
 30
0.0
 11
157.018519
 21
154.290345
 31
0.0
  0
ARC
  5
47
100
AcDbEntity
  8
0
100
AcDbCircle
 10
226.018519
 20
213.590345
 30
0.0
 40
12.5
100
AcDbArc
 50
232.898284
 51
167.178523
  0
LINE
  5
48
100
AcDbEntity
  8
0
100
AcDbLine
 10
213.830191
 20
216.36427
 30
0.0
 11
218.478121
 21
203.620771
 31
0.0
  0
LINE
  5
49
100
AcDbEntity
  8
0
100
AcDbLine
 10
156.854174
 20
183.04188
 30
0.0
 11
157.018519
 21
182.590345
 31
0.0
  0
ARC
  5
4A
100
AcDbEntity
  8
0
100
AcDbCircle
 10
163.192425
 20
190.669705
 30
0.0
 40
9.917517
100
AcDbArc
 50
169.724488
 51
230.275512
  0
LINE
  5
4B
100
AcDbEntity
  8
1
100
AcDbLine
 10
145.018519
 20
203.590345
 30
0.0
 11
145.018519
 21
81.590345
 31
0.0
  0
LINE
  5
55
100
AcDbEntity
  8
1
100
AcDbLine
 10
220.022146
 20
230.03095
 30
0.0
 11
232.014893
 21
197.149739
 31
0.0
  0
LINE
  5
56
100
AcDbEntity
  8
1
100
AcDbLine
 10
145.018519
 20
184.047257
 30
0.0
 11
242.459125
 21
219.586718
 31
0.0
  0
LINE
  5
57
100
AcDbEntity
  8
0
100
AcDbLine
 10
217.867409
 20
205.295197
 30
0.0
 11
156.857322
 21
183.043029
 31
0.0
  0
LINE
  5
58
100
AcDbEntity
  8
0
100
AcDbLine
 10
214.440907
 20
214.689836
 30
0.0
 11
153.430823
 21
192.43766
 31
0.0
  0
LINE
  5
59
100
AcDbEntity
  8
0
100
AcDbLine
 10
137.018519
 20
149.590345
 30
0.0
 11
153.018519
 21
149.590345
 31
0.0
  0
LINE
  5
5A
100
AcDbEntity
  8
0
100
AcDbLine
 10
133.718519
 20
153.590345
 30
0.0
 11
156.318519
 21
153.590345
 31
0.0
  0
LINE
  5
5B
100
AcDbEntity
  8
0
100
AcDbLine
 10
133.018519
 20
182.590345
 30
0.0
 11
157.018519
 21
182.590345
 31
0.0
  0
LINE
  5
5C
100
AcDbEntity
  8
0
100
AcDbLine
 10
136.767413
 20
192.890345
 30
0.0
 11
153.269626
 21
192.890345
 31
0.0
  0
LINE
  5
5D
100
AcDbEntity
  8
0
100
AcDbLine
 10
137.767116
 20
193.590345
 30
0.0
 11
152.269922
 21
193.590345
 31
0.0
  0
LINE
  5
5E
100
AcDbEntity
  8
0
100
AcDbLine
 10
137.767116
 20
193.590345
 30
0.0
 11
136.767413
 21
192.890345
 31
0.0
  0
LINE
  5
5F
100
AcDbEntity
  8
0
100
AcDbLine
 10
136.767413
 20
192.890345
 30
0.0
 11
133.018519
 21
182.590345
 31
0.0
  0
LINE
  5
60
100
AcDbEntity
  8
0
100
AcDbLine
 10
133.018519
 20
182.590345
 30
0.0
 11
133.018519
 21
154.290345
 31
0.0
  0
LINE
  5
61
100
AcDbEntity
  8
0
100
AcDbLine
 10
133.018519
 20
154.290345
 30
0.0
 11
133.718519
 21
153.590345
 31
0.0
  0
LINE
  5
62
100
AcDbEntity
  8
0
100
AcDbLine
 10
136.518519
 20
153.590345
 30
0.0
 11
136.518519
 21
150.090345
 31
0.0
  0
LINE
  5
63
100
AcDbEntity
  8
0
100
AcDbLine
 10
136.518519
 20
150.090345
 30
0.0
 11
137.018519
 21
149.590345
 31
0.0
  0
LINE
  5
64
100
AcDbEntity
  8
0
100
AcDbLine
 10
153.518519
 20
150.090345
 30
0.0
 11
153.018519
 21
149.590345
 31
0.0
  0
LINE
  5
65
100
AcDbEntity
  8
0
100
AcDbLine
 10
153.518519
 20
153.590345
 30
0.0
 11
153.518519
 21
150.090345
 31
0.0
  0
LINE
  5
66
100
AcDbEntity
  8
0
100
AcDbLine
 10
157.018519
 20
154.290345
 30
0.0
 11
156.318519
 21
153.590345
 31
0.0
  0
LINE
  5
67
100
AcDbEntity
  8
0
100
AcDbLine
 10
157.018519
 20
182.590345
 30
0.0
 11
157.018519
 21
154.290345
 31
0.0
  0
LINE
  5
68
100
AcDbEntity
  8
0
100
AcDbLine
 10
153.269626
 20
192.890345
 30
0.0
 11
153.433972
 21
192.438809
 31
0.0
  0
LINE
  5
69
100
AcDbEntity
  8
0
100
AcDbLine
 10
152.269922
 20
193.590345
 30
0.0
 11
153.269626
 21
192.890345
 31
0.0
  0
LINE
  5
6A
100
AcDbEntity
  8
0
100
AcDbLine
 10
155.927232
 20
20.421397
 30
0.0
 11
216.154156
 21
20.421397
 31
0.0
  0
LINE
  5
6B
100
AcDbEntity
  8
0
100
AcDbLine
 10
216.154156
 20
30.421397
 30
0.0
 11
155.927232
 21
30.421397
 31
0.0
  0
LINE
  5
6C
100
AcDbEntity
  8
1
100
AcDbLine
 10
128.018519
 20
25.421397
 30
0.0
 11
243.518519
 21
25.421397
 31
0.0
  0
LINE
  5
6D
100
AcDbEntity
  8
1
100
AcDbLine
 10
226.018519
 20
42.921397
 30
0.0
 11
226.018519
 21
7.921397
 31
0.0
  0
LINE
  5
6E
100
AcDbEntity
  8
1
100
AcDbLine
 10
145.018519
 20
42.421397
 30
0.0
 11
145.018519
 21
8.421397
 31
0.0
  0
ARC
  5
6F
100
AcDbEntity
  8
0
100
AcDbCircle
 10
226.018519
 20
25.421397
 30
0.0
 40
12.5
100
AcDbArc
 50
217.893939
 51
142.106061
  0
CIRCLE
  5
70
100
AcDbEntity
  8
0
100
AcDbCircle
 10
145.018519
 20
25.421397
 30
0.0
 40
12.0
  0
CIRCLE
  5
71
100
AcDbEntity
  8
0
100
AcDbCircle
 10
145.018519
 20
25.421397
 30
0.0
 40
11.3
  0
CIRCLE
  5
72
100
AcDbEntity
  8
0
100
AcDbCircle
 10
145.018519
 20
25.421397
 30
0.0
 40
8.5
  0
CIRCLE
  5
73
100
AcDbEntity
  8
0
100
AcDbCircle
 10
145.018519
 20
25.421397
 30
0.0
 40
8.0
  0
CIRCLE
  5
74
100
AcDbEntity
  8
0
100
AcDbCircle
 10
145.018519
 20
25.421397
 30
0.0
 40
5.0
  0
CIRCLE
  5
75
100
AcDbEntity
  8
3
100
AcDbCircle
 10
145.018519
 20
25.421397
 30
0.0
 40
4.188
  0
LINE
  5
9B
100
AcDbEntity
  8
0
100
AcDbLine
 10
60.494313
 20
192.890345
 30
0.0
 11
64.243207
 21
182.590345
 31
0.0
  0
LINE
  5
9C
100
AcDbEntity
  8
0
100
AcDbLine
 10
43.9921
 20
192.890345
 30
0.0
 11
40.243207
 21
182.590345
 31
0.0
  0
LINE
  5
9D
100
AcDbEntity
  8
0
100
AcDbLine
 10
59.49461
 20
193.590345
 30
0.0
 11
60.494313
 21
192.890345
 31
0.0
  0
LINE
  5
9E
100
AcDbEntity
  8
0
100
AcDbLine
 10
44.991804
 20
193.590345
 30
0.0
 11
43.9921
 21
192.890345
 31
0.0
  0
LINE
  5
9F
100
AcDbEntity
  8
0
100
AcDbLine
 10
44.991804
 20
193.590345
 30
0.0
 11
59.49461
 21
193.590345
 31
0.0
  0
LINE
  5
A0
100
AcDbEntity
  8
0
100
AcDbLine
 10
43.9921
 20
192.890345
 30
0.0
 11
60.494313
 21
192.890345
 31
0.0
  0
LINE
  5
A1
100
AcDbEntity
  8
0
100
AcDbLine
 10
57.243207
 20
209.992521
 30
0.0
 11
57.243207
 21
193.590345
 31
0.0
  0
LINE
  5
A2
100
AcDbEntity
  8
0
100
AcDbLine
 10
47.243207
 20
209.992521
 30
0.0
 11
47.243207
 21
193.590345
 31
0.0
  0
LINE
  5
A3
100
AcDbEntity
  8
0
100
AcDbLine
 10
40.243207
 20
182.590345
 30
0.0
 11
40.243207
 21
154.290345
 31
0.0
  0
LINE
  5
A4
100
AcDbEntity
  8
0
100
AcDbLine
 10
40.243207
 20
182.590345
 30
0.0
 11
64.243207
 21
182.590345
 31
0.0
  0
LINE
  5
A5
100
AcDbEntity
  8
0
100
AcDbLine
 10
64.243207
 20
182.590345
 30
0.0
 11
64.243207
 21
154.290345
 31
0.0
  0
LINE
  5
A6
100
AcDbEntity
  8
0
100
AcDbLine
 10
43.743207
 20
150.090345
 30
0.0
 11
60.743207
 21
150.090345
 31
0.0
  0
LINE
  5
A7
100
AcDbEntity
  8
0
100
AcDbLine
 10
40.243207
 20
154.290345
 30
0.0
 11
64.243207
 21
154.290345
 31
0.0
  0
LINE
  5
A8
100
AcDbEntity
  8
0
100
AcDbLine
 10
44.243207
 20
149.590345
 30
0.0
 11
60.243207
 21
149.590345
 31
0.0
  0
LINE
  5
A9
100
AcDbEntity
  8
0
100
AcDbLine
 10
40.943207
 20
153.590345
 30
0.0
 11
63.543207
 21
153.590345
 31
0.0
  0
LINE
  5
AA
100
AcDbEntity
  8
0
100
AcDbLine
 10
40.243207
 20
154.290345
 30
0.0
 11
40.943207
 21
153.590345
 31
0.0
  0
LINE
  5
AB
100
AcDbEntity
  8
0
100
AcDbLine
 10
43.743207
 20
153.590345
 30
0.0
 11
43.743207
 21
150.090345
 31
0.0
  0
LINE
  5
AC
100
AcDbEntity
  8
0
100
AcDbLine
 10
43.743207
 20
150.090345
 30
0.0
 11
44.243207
 21
149.590345
 31
0.0
  0
LINE
  5
AD
100
AcDbEntity
  8
0
100
AcDbLine
 10
60.743207
 20
150.090345
 30
0.0
 11
60.243207
 21
149.590345
 31
0.0
  0
LINE
  5
AE
100
AcDbEntity
  8
0
100
AcDbLine
 10
60.743207
 20
153.590345
 30
0.0
 11
60.743207
 21
150.090345
 31
0.0
  0
LINE
  5
AF
100
AcDbEntity
  8
0
100
AcDbLine
 10
64.243207
 20
154.290345
 30
0.0
 11
63.543207
 21
153.590345
 31
0.0
  0
LINE
  5
B0
100
AcDbEntity
  8
1
100
AcDbLine
 10
52.243207
 20
231.090345
 30
0.0
 11
52.243207
 21
81.590345
 31
0.0
  0
LINE
  5
B1
100
AcDbEntity
  8
1
100
AcDbLine
 10
69.743207
 20
213.590345
 30
0.0
 11
34.743207
 21
213.590345
 31
0.0
  0
ARC
  5
B2
100
AcDbEntity
  8
0
100
AcDbCircle
 10
52.243207
 20
213.590345
 30
0.0
 40
12.5
100
AcDbArc
 50
293.578178
 51
246.421822
  0
LWPOLYLINE
  5
B3
100
AcDbEntity
  8
0
100
AcDbPolyline
 90
        9
 70
     0
 43
0.0
 10
57.243207
 20
209.992521
 42
0.104191
 10
56.867548
 20
211.775698
 42
0.100672
 10
55.778741
 20
213.314024
 42
0.096066
 10
54.170958
 20
214.327972
 42
0.093044
 10
52.243207
 20
214.689836
 42
0.093044
 10
50.315456
 20
214.327972
 42
0.096066
 10
48.707673
 20
213.314024
 42
0.100672
 10
47.618866
 20
211.775698
 42
0.104191
 10
47.243207
 20
209.992521
 42
0.104191
  0
LWPOLYLINE
  5
BE
100
AcDbEntity
  8
0
100
AcDbPolyline
 90
        4
 70
     0
 43
0.0
 10
44.565685
 20
209.992521
 42
0.116251
 10
45.12574
 20
207.61626
 42
0.104161
 10
46.814379
 20
205.487014
 42
0.015973
 10
47.243207
 20
205.153662
 42
0.099641
  0
LWPOLYLINE
  5
C4
100
AcDbEntity
  8
0
100
AcDbPolyline
 90
       12
 70
     0
 43
0.0
 10
57.243207
 20
205.155742
 42
0.017488
 10
57.672034
 20
205.487014
 42
0.104161
 10
59.360674
 20
207.61626
 42
0.116251
 10
59.920728
 20
209.992521
 42
0.116251
 10
59.360674
 20
212.368781
 42
0.104161
 10
57.672034
 20
214.498028
 42
0.09065
 10
55.242477
 20
215.863139
 42
0.082967
 10
52.243207
 20
216.36427
 42
0.082967
 10
49.243936
 20
215.863139
 42
0.09065
 10
46.814379
 20
214.498028
 42
0.104161
 10
45.12574
 20
212.368781
 42
0.116251
 10
44.565685
 20
209.992521
 42
0.116251
  0
LINE
  5
D2
100
AcDbEntity
  8
0
100
AcDbLine
 10
48.743207
 20
86.590345
 30
0.0
 11
55.743207
 21
86.590345
 31
0.0
  0
LINE
  5
D3
100
AcDbEntity
  8
0
100
AcDbLine
 10
47.243207
 20
88.090345
 30
0.0
 11
57.243207
 21
88.090345
 31
0.0
  0
LINE
  5
D4
100
AcDbEntity
  8
0
100
AcDbLine
 10
47.243207
 20
147.783919
 30
0.0
 11
57.243207
 21
147.783919
 31
0.0
  0
LINE
  5
D5
100
AcDbEntity
  8
0
100
AcDbLine
 10
48.743207
 20
86.590345
 30
0.0
 11
47.243207
 21
88.090345
 31
0.0
  0
LINE
  5
D6
100
AcDbEntity
  8
0
100
AcDbLine
 10
47.243207
 20
88.090345
 30
0.0
 11
47.243207
 21
149.190345
 31
0.0
  0
LINE
  5
D7
100
AcDbEntity
  8
3
100
AcDbLine
 10
47.243207
 20
149.190345
 30
0.0
 11
48.055207
 21
147.783919
 31
0.0
  0
LINE
  5
D8
100
AcDbEntity
  8
3
100
AcDbLine
 10
48.055207
 20
147.783919
 30
0.0
 11
48.055207
 21
87.278345
 31
0.0
  0
LINE
  5
D9
100
AcDbEntity
  8
3
100
AcDbLine
 10
56.431207
 20
147.783919
 30
0.0
 11
56.431207
 21
87.278345
 31
0.0
  0
LINE
  5
DA
100
AcDbEntity
  8
3
100
AcDbLine
 10
57.243207
 20
149.190345
 30
0.0
 11
56.431207
 21
147.783919
 31
0.0
  0
ARC
  5
DB
100
AcDbEntity
  8
0
100
AcDbCircle
 10
57.643207
 20
149.190345
 30
0.0
 40
0.4
100
AcDbArc
 50
90.0
 51
180.0
  0
LINE
  5
DC
100
AcDbEntity
  8
0
100
AcDbLine
 10
57.243207
 20
88.090345
 30
0.0
 11
57.243207
 21
149.190345
 31
0.0
  0
LINE
  5
DD
100
AcDbEntity
  8
0
100
AcDbLine
 10
55.743207
 20
86.590345
 30
0.0
 11
57.243207
 21
88.090345
 31
0.0
  0
LWPOLYLINE
  5
EB
100
AcDbEntity
  8
0
100
AcDbPolyline
 90
        4
 70
     0
 43
0.0
 10
216.154156
 20
33.098919
 42
0.239348
 10
215.455003
 20
32.743899
 42
0.084489
 10
214.510865
 20
30.850225
 42
0.007078
 10
214.387658
 20
30.421397
  0
LWPOLYLINE
  5
F1
100
AcDbEntity
  8
0
100
AcDbPolyline
 90
       12
 70
     0
 43
0.0
 10
214.388599
 20
20.421397
 42
0.008091
 10
214.510865
 20
19.992569
 42
0.084489
 10
215.455003
 20
18.098895
 42
0.239348
 10
216.154156
 20
17.743875
 42
0.239348
 10
216.85331
 20
18.098895
 42
0.084489
 10
217.797447
 20
19.992569
 42
0.042325
 10
218.281353
 20
22.270391
 42
0.031193
 10
218.478121
 20
25.421397
 42
0.031193
 10
218.281353
 20
28.572403
 42
0.042325
 10
217.797447
 20
30.850225
 42
0.084489
 10
216.85331
 20
32.743899
 42
0.239348
 10
216.154156
 20
33.098919
  0
LWPOLYLINE
  5
FF
100
AcDbEntity
  8
0
100
AcDbPolyline
 90
        9
 70
     0
 43
0.0
 10
216.154156
 20
20.421397
 42
0.223533
 10
216.685256
 20
20.671321
 42
0.090499
 10
217.365609
 20
21.885863
 42
0.047316
 10
217.722868
 20
23.374406
 42
0.035262
 10
217.867409
 20
25.421397
 42
0.035262
 10
217.722868
 20
27.468388
 42
0.047316
 10
217.365609
 20
28.956931
 42
0.090499
 10
216.685256
 20
30.171472
 42
0.223533
 10
216.154156
 20
30.421397
  0
ENDSEC
  0
SECTION
  2
OBJECTS
  0
DICTIONARY
  5
C
100
AcDbDictionary
  3
ACAD_GROUP
350
D
  3
ACAD_MLINESTYLE
350
1B
  0
DICTIONARY
  5
D
102
{ACAD_REACTORS
330
C
102
}
100
AcDbDictionary
  0
DICTIONARY
  5
1B
102
{ACAD_REACTORS
330
C
102
}
100
AcDbDictionary
  3
STANDARD
350
1C
  0
MLINESTYLE
  5
1C
102
{ACAD_REACTORS
330
1B
102
}
100
AcDbMlineStyle
  2
STANDARD
 70
     0
  3

 62
   256
 51
90.0
 52
90.0
 71
     2
 49
0.5
 62
   256
  6
BYLAYER
 49
-0.5
 62
   256
  6
BYLAYER
  0
ENDSEC
  0
EOF
