  0
SECTION
  2
HEADER
  9
$ACADVER
  1
AC1009
  9
$INSBASE
 10
0.0
 20
0.0
 30
0.0
  9
$EXTMIN
 10
0.0
 20
0.0
 30
0.0
  9
$EXTMAX
 10
375.0
 20
270.0
 30
0.0
  9
$LIMMIN
 10
0.0
 20
0.0
  9
$LIMMAX
 10
375.0
 20
270.0
  9
$ORTHOMODE
 70
     0
  9
$REGENMODE
 70
     1
  9
$FILLMODE
 70
     1
  9
$QTEXTMODE
 70
     0
  9
$MIRRTEXT
 70
     1
  9
$DRAGMODE
 70
     1
  9
$LTSCALE
 40
10.0
  9
$OSMODE
 70
     0
  9
$ATTMODE
 70
     1
  9
$TEXTSIZE
 40
6.0
  9
$TRACEWID
 40
0.05
  9
$TEXTSTYLE
  7
BIGFONT
  9
$CLAYER
  8
0
  9
$CELTYPE
  6
BYLAYER
  9
$CECOLOR
 62
   256
  9
$DIMSCALE
 40
1.0
  9
$DIMASZ
 40
3.0
  9
$DIMEXO
 40
2.0
  9
$DIMDLI
 40
0.38
  9
$DIMRND
 40
0.0
  9
$DIMDLE
 40
0.0
  9
$DIMEXE
 40
2.0
  9
$DIMTP
 40
0.0
  9
$DIMTM
 40
0.0
  9
$DIMTXT
 40
3.2
  9
$DIMCEN
 40
0.0
  9
$DIMTSZ
 40
0.0
  9
$DIMTOL
 70
     0
  9
$DIMLIM
 70
     0
  9
$DIMTIH
 70
     0
  9
$DIMTOH
 70
     0
  9
$DIMSE1
 70
     0
  9
$DIMSE2
 70
     0
  9
$DIMTAD
 70
     1
  9
$DIMZIN
 70
     0
  9
$DIMBLK
  1

  9
$DIMASO
 70
     0
  9
$DIMSHO
 70
     0
  9
$DIMPOST
  1

  9
$DIMAPOST
  1

  9
$DIMALT
 70
     0
  9
$DIMALTD
 70
     2
  9
$DIMALTF
 40
25.4
  9
$DIMLFAC
 40
1.0
  9
$DIMTOFL
 70
     1
  9
$DIMTVP
 40
1.6
  9
$DIMTIX
 70
     1
  9
$DIMSOXD
 70
     0
  9
$DIMSAH
 70
     0
  9
$DIMBLK1
  1

  9
$DIMBLK2
  1

  9
$DIMSTYLE
  2
STANDARD
  9
$DIMCLRD
 70
     0
  9
$DIMCLRE
 70
     0
  9
$DIMCLRT
 70
     0
  9
$DIMTFAC
 40
1.0
  9
$DIMGAP
 40
0.09
  9
$LUNITS
 70
     2
  9
$LUPREC
 70
     4
  9
$SKETCHINC
 40
0.1
  9
$FILLETRAD
 40
0.0
  9
$AUNITS
 70
     0
  9
$AUPREC
 70
     4
  9
$MENU
  1
ACAD
  9
$ELEVATION
 40
0.0
  9
$PELEVATION
 40
0.0
  9
$THICKNESS
 40
0.0
  9
$LIMCHECK
 70
     0
  9
$BLIPMODE
 70
     0
  9
$CHAMFERA
 40
0.0
  9
$CHAMFERB
 40
0.0
  9
$SKPOLY
 70
     0
  9
$TDCREATE
 40
2449373.391273
  9
$TDUPDATE
 40
2450826.581586
  9
$TDINDWG
 40
0.000914
  9
$TDUSRTIMER
 40
0.000914
  9
$USRTIMER
 70
     1
  9
$ANGBASE
 50
0.0
  9
$ANGDIR
 70
     0
  9
$PDMODE
 70
     0
  9
$PDSIZE
 40
0.0
  9
$PLINEWID
 40
0.0
  9
$COORDS
 70
     0
  9
$SPLFRAME
 70
     0
  9
$SPLINETYPE
 70
     6
  9
$SPLINESEGS
 70
     8
  9
$ATTDIA
 70
     0
  9
$ATTREQ
 70
     1
  9
$HANDLING
 70
     1
  9
$HANDSEED
  5
15D
  9
$SURFTAB1
 70
     6
  9
$SURFTAB2
 70
     6
  9
$SURFTYPE
 70
     6
  9
$SURFU
 70
     6
  9
$SURFV
 70
     6
  9
$UCSNAME
  2

  9
$UCSORG
 10
0.0
 20
0.0
 30
0.0
  9
$UCSXDIR
 10
1.0
 20
0.0
 30
0.0
  9
$UCSYDIR
 10
0.0
 20
1.0
 30
0.0
  9
$PUCSNAME
  2

  9
$PUCSORG
 10
0.0
 20
0.0
 30
0.0
  9
$PUCSXDIR
 10
1.0
 20
0.0
 30
0.0
  9
$PUCSYDIR
 10
0.0
 20
1.0
 30
0.0
  9
$USERI1
 70
     0
  9
$USERI2
 70
     0
  9
$USERI3
 70
     0
  9
$USERI4
 70
     0
  9
$USERI5
 70
     0
  9
$USERR1
 40
0.0
  9
$USERR2
 40
0.0
  9
$USERR3
 40
0.0
  9
$USERR4
 40
0.0
  9
$USERR5
 40
0.0
  9
$WORLDVIEW
 70
     1
  9
$SHADEDGE
 70
     3
  9
$SHADEDIF
 70
    70
  9
$TILEMODE
 70
     1
  9
$MAXACTVP
 70
    48
  9
$PLIMCHECK
 70
     0
  9
$PEXTMIN
 10
1.000000E+020
 20
1.000000E+020
 30
1.000000E+020
  9
$PEXTMAX
 10
-1.000000E+020
 20
-1.000000E+020
 30
-1.000000E+020
  9
$PLIMMIN
 10
0.0
 20
0.0
  9
$PLIMMAX
 10
12.0
 20
9.0
  9
$UNITMODE
 70
     0
  9
$VISRETAIN
 70
     1
  9
$PLINEGEN
 70
     1
  9
$PSLTSCALE
 70
     0
  0
ENDSEC
  0
SECTION
  2
TABLES
  0
TABLE
  2
VPORT
 70
     2
  0
VPORT
  2
*ACTIVE
 70
     0
 10
0.0
 20
0.0
 11
1.0
 21
1.0
 12
187.5
 22
139.328063
 13
0.0
 23
0.0
 14
1.0
 24
1.0
 15
0.0
 25
0.0
 16
0.0
 26
0.0
 36
1.0
 17
0.0
 27
0.0
 37
0.0
 40
278.656126
 41
1.345745
 42
50.0
 43
0.0
 44
0.0
 50
0.0
 51
0.0
 71
     0
 72
   100
 73
     1
 74
     1
 75
     0
 76
     0
 77
     0
 78
     0
  0
ENDTAB
  0
TABLE
  2
LTYPE
 70
     2
  0
LTYPE
  2
CONTINUOUS
 70
     0
  3
実線
 72
    65
 73
     0
 40
0.0
  0
LTYPE
  2
CENTER
 70
     0
  3
____ _ ____ _ ____ _ ____ _ ____ _ ____ _ ____
 72
    65
 73
     4
 40
2.0
 49
1.25
 49
-0.25
 49
0.25
 49
-0.25
  0
ENDTAB
  0
TABLE
  2
LAYER
 70
     5
  0
LAYER
  2
0
 70
     0
 62
     7
  6
CONTINUOUS
  0
LAYER
  2
1
 70
     0
 62
     1
  6
CENTER
  0
LAYER
  2
3
 70
     0
 62
     3
  6
CONTINUOUS
  0
LAYER
  2
10
 70
     0
 62
     7
  6
CONTINUOUS
  0
LAYER
  2
11
 70
     0
 62
     3
  6
CONTINUOUS
  0
ENDTAB
  0
TABLE
  2
STYLE
 70
     4
  0
STYLE
  2
STANDARD
 70
     0
 40
0.0
 41
1.0
 50
0.0
 71
     0
 42
4.0
  3
TXT
  4
BIGFONT
  0
STYLE
  2
BIGFONT
 70
     0
 40
6.0
 41
1.0
 50
0.0
 71
     0
 42
6.0
  3
txt.shx
  4
bigfont
  0
STYLE
  2
COMPLEX
 70
     0
 40
2.0
 41
0.4
 50
0.0
 71
     0
 42
3.0
  3
COMPLEX
  4

  0
STYLE
  2
07500
 70
     0
 40
0.0
 41
0.75
 50
0.0
 71
     0
 42
3.0
  3
TXT
  4
BIGFONT
  0
ENDTAB
  0
TABLE
  2
VIEW
 70
     1
  0
VIEW
  2
ALL
 70
     0
 40
270.0
 10
220.991597
 20
135.0
 41
0.0
 11
0.0
 21
0.0
 31
1.0
 12
0.0
 22
0.0
 32
0.0
 42
1.0
 43
0.0
 44
0.0
 50
0.0
 71
     0
  0
ENDTAB
  0
TABLE
  2
UCS
 70
     0
  0
ENDTAB
  0
TABLE
  2
APPID
 70
     1
  0
APPID
  2
ACAD
 70
     0
  0
ENDTAB
  0
TABLE
  2
DIMSTYLE
 70
     1
  0
DIMSTYLE
  2
STANDARD
 70
     0
  3

  4

  5

  6

  7

 40
1.0
 41
0.18
 42
0.0625
 43
0.38
 44
0.18
 45
0.0
 46
0.0
 47
0.0
 48
0.0
140
0.18
141
0.09
142
0.0
143
25.4
144
1.0
145
0.0
146
1.0
147
0.09
 71
     0
 72
     0
 73
     1
 74
     1
 75
     0
 76
     0
 77
     0
 78
     0
170
     0
171
     2
172
     0
173
     0
174
     0
175
     0
176
     0
177
     0
178
     0
  0
ENDTAB
  0
ENDSEC
  0
SECTION
  2
BLOCKS
  0
BLOCK
  8
0
  2
$MODEL_SPACE
 70
     0
 10
0.0
 20
0.0
 30
0.0
  3
$MODEL_SPACE
  1

  0
ENDBLK
  5
1A
  8
0
  0
BLOCK
 67
     1
  8
0
  2
$PAPER_SPACE
 70
     0
 10
0.0
 20
0.0
 30
0.0
  3
$PAPER_SPACE
  1

  0
ENDBLK
  5
17
 67
     1
  8
0
  0
BLOCK
  8
0
  2
WWW
 70
     0
 10
375.0
 20
0.0
 30
0.0
  3
WWW
  1

  0
LINE
  5
2C
  8
11
 10
278.0
 20
36.0
 30
0.0
 11
375.0
 21
36.0
 31
0.0
  0
TEXT
  5
2D
  8
11
 10
280.0
 20
32.5
 30
0.0
 40
2.5
  1
部品名称
  0
LINE
  5
2E
  8
11
 10
278.0
 20
36.0
 30
0.0
 11
278.0
 21
0.0
 31
0.0
  0
LINE
  5
2F
  8
11
 10
278.0
 20
24.0
 30
0.0
 11
375.0
 21
24.0
 31
0.0
  0
TEXT
  5
30
  8
11
 10
280.0
 20
20.5
 30
0.0
 40
2.5
  1
品番
  0
TEXT
  5
31
  8
11
 10
280.0
 20
8.5
 30
0.0
 40
2.5
  1
尺度
  0
LINE
  5
32
  8
11
 10
278.0
 20
12.0
 30
0.0
 11
375.0
 21
12.0
 31
0.0
  0
TEXT
  5
33
  8
11
 10
305.0
 20
8.5
 30
0.0
 40
2.5
  1
図番
  0
LINE
  5
34
  8
11
 10
303.0
 20
0.0
 30
0.0
 11
303.0
 21
12.0
 31
0.0
  0
ENDBLK
  5
35
  8
0
  0
ENDSEC
  0
SECTION
  2
ENTITIES
  0
LINE
  5
36
  8
0
 10
148.518519
 20
79.585257
 30
0.0
 11
150.018519
 21
81.085257
 31
0.0
  0
LINE
  5
37
  8
0
 10
150.018519
 20
81.085257
 30
0.0
 11
150.018519
 21
109.185257
 31
0.0
  0
ARC
  5
38
  8
0
 10
150.418519
 20
109.185257
 30
0.0
 40
0.4
 50
90.0
 51
180.0
  0
LINE
  5
39
  8
3
 10
150.018519
 20
109.185257
 30
0.0
 11
149.206519
 21
107.778832
 31
0.0
  0
LINE
  5
3A
  8
3
 10
149.206519
 20
107.778832
 30
0.0
 11
149.206519
 21
80.273257
 31
0.0
  0
LINE
  5
3B
  8
3
 10
140.830519
 20
107.778832
 30
0.0
 11
140.830519
 21
80.273257
 31
0.0
  0
LINE
  5
3C
  8
3
 10
140.018519
 20
109.185257
 30
0.0
 11
140.830519
 21
107.778832
 31
0.0
  0
ARC
  5
3D
  8
0
 10
139.618519
 20
109.185257
 30
0.0
 40
0.4
 50
0.0
 51
90.0
  0
LINE
  5
3E
  8
0
 10
140.018519
 20
81.085257
 30
0.0
 11
140.018519
 21
109.185257
 31
0.0
  0
LINE
  5
3F
  8
0
 10
141.518519
 20
79.585257
 30
0.0
 11
140.018519
 21
81.085257
 31
0.0
  0
LINE
  5
40
  8
0
 10
140.018519
 20
107.778832
 30
0.0
 11
150.018519
 21
107.778832
 31
0.0
  0
LINE
  5
41
  8
0
 10
140.018519
 20
81.085257
 30
0.0
 11
150.018519
 21
81.085257
 31
0.0
  0
LINE
  5
42
  8
0
 10
141.518519
 20
79.585257
 30
0.0
 11
148.518519
 21
79.585257
 31
0.0
  0
LINE
  5
43
  8
0
 10
136.518519
 20
110.085257
 30
0.0
 11
153.518519
 21
110.085257
 31
0.0
  0
LINE
  5
44
  8
0
 10
133.018519
 20
114.285257
 30
0.0
 11
157.018519
 21
114.285257
 31
0.0
  0
ARC
  5
45
  8
0
 10
227.674022
 20
230.515821
 30
0.0
 40
13.843831
 50
146.31816
 51
213.68184
  0
ARC
  5
46
  8
0
 10
226.018519
 20
230.515821
 30
0.0
 40
12.5
 50
217.893939
 51
142.106061
  0
ARC
  5
47
  8
0
 10
226.018519
 20
173.585257
 30
0.0
 40
12.5
 50
232.898284
 51
167.178523
  0
LINE
  5
48
  8
0
 10
213.830191
 20
176.359182
 30
0.0
 11
218.478121
 21
163.615684
 31
0.0
  0
LINE
  5
49
  8
0
 10
156.854174
 20
143.036793
 30
0.0
 11
157.018519
 21
142.585257
 31
0.0
  0
ARC
  5
4A
  8
0
 10
163.192425
 20
150.664618
 30
0.0
 40
9.917517
 50
169.724488
 51
230.275512
  0
LINE
  5
4B
  8
1
 10
145.018519
 20
163.585257
 30
0.0
 11
145.018519
 21
74.585257
 31
0.0
  0
LINE
  5
4C
  8
1
 10
145.018519
 20
247.515821
 30
0.0
 11
145.018519
 21
213.515821
 31
0.0
  0
LINE
  5
4D
  8
1
 10
226.018519
 20
248.015821
 30
0.0
 11
226.018519
 21
213.015821
 31
0.0
  0
LINE
  5
4E
  8
1
 10
128.018519
 20
230.515821
 30
0.0
 11
243.518519
 21
230.515821
 31
0.0
  0
ARC
  5
4F
  8
0
 10
145.018519
 20
230.515821
 30
0.0
 40
12.0
 50
24.624318
 51
335.375682
  0
LINE
  5
50
  8
0
 10
214.764659
 20
235.515821
 30
0.0
 11
155.144073
 21
235.515821
 31
0.0
  0
LINE
  5
51
  8
0
 10
155.144073
 20
225.515821
 30
0.0
 11
214.764659
 21
225.515821
 31
0.0
  0
ARC
  5
52
  8
0
 10
161.598532
 20
230.515821
 30
0.0
 40
8.16456
 50
142.23655
 51
217.76345
  0
CIRCLE
  5
53
  8
0
 10
145.018519
 20
230.515821
 30
0.0
 40
8.251107
  0
CIRCLE
  5
54
  8
0
 10
145.018519
 20
230.515821
 30
0.0
 40
7.251403
  0
LINE
  5
55
  8
1
 10
220.022146
 20
190.025862
 30
0.0
 11
232.014893
 21
157.144651
 31
0.0
  0
LINE
  5
56
  8
1
 10
145.018519
 20
144.042169
 30
0.0
 11
242.459125
 21
179.58163
 31
0.0
  0
LINE
  5
57
  8
0
 10
217.867409
 20
165.290109
 30
0.0
 11
156.857322
 21
143.037941
 31
0.0
  0
LINE
  5
58
  8
0
 10
214.440907
 20
174.684749
 30
0.0
 11
153.430823
 21
152.432573
 31
0.0
  0
LINE
  5
59
  8
0
 10
137.018519
 20
109.585257
 30
0.0
 11
153.018519
 21
109.585257
 31
0.0
  0
LINE
  5
5A
  8
0
 10
133.718519
 20
113.585257
 30
0.0
 11
156.318519
 21
113.585257
 31
0.0
  0
LINE
  5
5B
  8
0
 10
133.018519
 20
142.585257
 30
0.0
 11
157.018519
 21
142.585257
 31
0.0
  0
LINE
  5
5C
  8
0
 10
136.767413
 20
152.885257
 30
0.0
 11
153.269626
 21
152.885257
 31
0.0
  0
LINE
  5
5D
  8
0
 10
137.767116
 20
153.585257
 30
0.0
 11
152.269922
 21
153.585257
 31
0.0
  0
LINE
  5
5E
  8
0
 10
137.767116
 20
153.585257
 30
0.0
 11
136.767413
 21
152.885257
 31
0.0
  0
LINE
  5
5F
  8
0
 10
136.767413
 20
152.885257
 30
0.0
 11
133.018519
 21
142.585257
 31
0.0
  0
LINE
  5
60
  8
0
 10
133.018519
 20
142.585257
 30
0.0
 11
133.018519
 21
114.285257
 31
0.0
  0
LINE
  5
61
  8
0
 10
133.018519
 20
114.285257
 30
0.0
 11
133.718519
 21
113.585257
 31
0.0
  0
LINE
  5
62
  8
0
 10
136.518519
 20
113.585257
 30
0.0
 11
136.518519
 21
110.085257
 31
0.0
  0
LINE
  5
63
  8
0
 10
136.518519
 20
110.085257
 30
0.0
 11
137.018519
 21
109.585257
 31
0.0
  0
LINE
  5
64
  8
0
 10
153.518519
 20
110.085257
 30
0.0
 11
153.018519
 21
109.585257
 31
0.0
  0
LINE
  5
65
  8
0
 10
153.518519
 20
113.585257
 30
0.0
 11
153.518519
 21
110.085257
 31
0.0
  0
LINE
  5
66
  8
0
 10
157.018519
 20
114.285257
 30
0.0
 11
156.318519
 21
113.585257
 31
0.0
  0
LINE
  5
67
  8
0
 10
157.018519
 20
142.585257
 30
0.0
 11
157.018519
 21
114.285257
 31
0.0
  0
LINE
  5
68
  8
0
 10
153.269626
 20
152.885257
 30
0.0
 11
153.433972
 21
152.433721
 31
0.0
  0
LINE
  5
69
  8
0
 10
152.269922
 20
153.585257
 30
0.0
 11
153.269626
 21
152.885257
 31
0.0
  0
LINE
  5
6A
  8
0
 10
155.927232
 20
30.421397
 30
0.0
 11
216.154156
 21
30.421397
 31
0.0
  0
LINE
  5
6B
  8
0
 10
216.154156
 20
40.421397
 30
0.0
 11
155.927232
 21
40.421397
 31
0.0
  0
LINE
  5
6C
  8
1
 10
128.018519
 20
35.421397
 30
0.0
 11
243.518519
 21
35.421397
 31
0.0
  0
LINE
  5
6D
  8
1
 10
226.018519
 20
52.921397
 30
0.0
 11
226.018519
 21
17.921397
 31
0.0
  0
LINE
  5
6E
  8
1
 10
145.018519
 20
52.421397
 30
0.0
 11
145.018519
 21
18.421397
 31
0.0
  0
ARC
  5
6F
  8
0
 10
226.018519
 20
35.421397
 30
0.0
 40
12.5
 50
217.893939
 51
142.106061
  0
CIRCLE
  5
70
  8
0
 10
145.018519
 20
35.421397
 30
0.0
 40
12.0
  0
CIRCLE
  5
71
  8
0
 10
145.018519
 20
35.421397
 30
0.0
 40
11.3
  0
CIRCLE
  5
72
  8
0
 10
145.018519
 20
35.421397
 30
0.0
 40
8.5
  0
CIRCLE
  5
73
  8
0
 10
145.018519
 20
35.421397
 30
0.0
 40
8.0
  0
CIRCLE
  5
74
  8
0
 10
145.018519
 20
35.421397
 30
0.0
 40
5.0
  0
CIRCLE
  5
75
  8
3
 10
145.018519
 20
35.421397
 30
0.0
 40
4.188
  0
CIRCLE
  5
76
  8
0
 10
315.900763
 20
173.585257
 30
0.0
 40
12.5
  0
LINE
  5
77
  8
1
 10
333.400763
 20
173.585257
 30
0.0
 11
298.400763
 21
173.585257
 31
0.0
  0
LINE
  5
78
  8
1
 10
315.900763
 20
191.085257
 30
0.0
 11
315.900763
 21
74.585257
 31
0.0
  0
LINE
  5
79
  8
0
 10
327.900763
 20
114.285257
 30
0.0
 11
327.200763
 21
113.585257
 31
0.0
  0
LINE
  5
7A
  8
0
 10
324.400763
 20
113.585257
 30
0.0
 11
324.400763
 21
110.085257
 31
0.0
  0
LINE
  5
7B
  8
0
 10
324.400763
 20
110.085257
 30
0.0
 11
323.900763
 21
109.585257
 31
0.0
  0
LINE
  5
7C
  8
0
 10
307.400763
 20
110.085257
 30
0.0
 11
307.900763
 21
109.585257
 31
0.0
  0
LINE
  5
7D
  8
0
 10
307.400763
 20
113.585257
 30
0.0
 11
307.400763
 21
110.085257
 31
0.0
  0
LINE
  5
7E
  8
0
 10
303.900763
 20
114.285257
 30
0.0
 11
304.600763
 21
113.585257
 31
0.0
  0
LINE
  5
7F
  8
0
 10
304.600763
 20
113.585257
 30
0.0
 11
327.200763
 21
113.585257
 31
0.0
  0
LINE
  5
80
  8
0
 10
307.900763
 20
109.585257
 30
0.0
 11
323.900763
 21
109.585257
 31
0.0
  0
LINE
  5
81
  8
0
 10
303.900763
 20
114.285257
 30
0.0
 11
327.900763
 21
114.285257
 31
0.0
  0
LINE
  5
82
  8
0
 10
307.400763
 20
110.085257
 30
0.0
 11
324.400763
 21
110.085257
 31
0.0
  0
LINE
  5
83
  8
0
 10
327.900763
 20
142.585257
 30
0.0
 11
327.900763
 21
114.285257
 31
0.0
  0
LINE
  5
84
  8
0
 10
303.900763
 20
142.585257
 30
0.0
 11
327.900763
 21
142.585257
 31
0.0
  0
LINE
  5
85
  8
0
 10
303.900763
 20
142.585257
 30
0.0
 11
303.900763
 21
114.285257
 31
0.0
  0
POLYLINE
  5
86
  8
0
 66
     1
 10
0.0
 20
0.0
 30
0.0
  0
VERTEX
  5
11A
  8
0
 10
310.900763
 20
147.271775
 30
0.0
 42
0.114203
  0
VERTEX
  5
11B
  8
0
 10
311.267396
 20
145.687523
 30
0.0
 42
0.103671
  0
VERTEX
  5
11C
  8
0
 10
312.365229
 20
144.27719
 30
0.0
 42
0.091587
  0
VERTEX
  5
11D
  8
0
 10
314.104074
 20
143.2814
 30
0.0
 42
0.1014
  0
VERTEX
  5
11E
  8
0
 10
315.900763
 20
143.036793
 30
0.0
 42
0.084556
  0
VERTEX
  5
11F
  8
0
 10
317.850113
 20
143.368824
 30
0.0
 42
0.091587
  0
VERTEX
  5
120
  8
0
 10
319.436297
 20
144.27719
 30
0.0
 42
0.103671
  0
VERTEX
  5
121
  8
0
 10
320.53413
 20
145.687523
 30
0.0
 42
0.114203
  0
VERTEX
  5
122
  8
0
 10
320.900763
 20
147.271775
 30
0.0
 42
0.114203
  0
SEQEND
  5
123
  8
0
  0
LINE
  5
91
  8
0
 10
310.900763
 20
162.128818
 30
0.0
 11
310.900763
 21
147.271778
 31
0.0
  0
LINE
  5
92
  8
0
 10
320.900763
 20
162.128818
 30
0.0
 11
320.900763
 21
147.271773
 31
0.0
  0
LINE
  5
93
  8
0
 10
307.649657
 20
152.885257
 30
0.0
 11
310.900763
 21
152.885257
 31
0.0
  0
LINE
  5
94
  8
0
 10
308.64936
 20
153.585257
 30
0.0
 11
310.900763
 21
153.585257
 31
0.0
  0
LINE
  5
95
  8
0
 10
308.64936
 20
153.585257
 30
0.0
 11
307.649657
 21
152.885257
 31
0.0
  0
LINE
  5
96
  8
0
 10
323.152166
 20
153.585257
 30
0.0
 11
324.15187
 21
152.885257
 31
0.0
  0
LINE
  5
97
  8
0
 10
307.649657
 20
152.885257
 30
0.0
 11
303.900763
 21
142.585257
 31
0.0
  0
LINE
  5
98
  8
0
 10
324.15187
 20
152.885257
 30
0.0
 11
327.900763
 21
142.585257
 31
0.0
  0
LINE
  5
99
  8
0
 10
320.900763
 20
152.885257
 30
0.0
 11
324.15187
 21
152.885257
 31
0.0
  0
LINE
  5
9A
  8
0
 10
320.900763
 20
153.585257
 30
0.0
 11
323.152166
 21
153.585257
 31
0.0
  0
LINE
  5
9B
  8
0
 10
60.494313
 20
152.885257
 30
0.0
 11
64.243207
 21
142.585257
 31
0.0
  0
LINE
  5
9C
  8
0
 10
43.9921
 20
152.885257
 30
0.0
 11
40.243207
 21
142.585257
 31
0.0
  0
LINE
  5
9D
  8
0
 10
59.49461
 20
153.585257
 30
0.0
 11
60.494313
 21
152.885257
 31
0.0
  0
LINE
  5
9E
  8
0
 10
44.991804
 20
153.585257
 30
0.0
 11
43.9921
 21
152.885257
 31
0.0
  0
LINE
  5
9F
  8
0
 10
44.991804
 20
153.585257
 30
0.0
 11
59.49461
 21
153.585257
 31
0.0
  0
LINE
  5
A0
  8
0
 10
43.9921
 20
152.885257
 30
0.0
 11
60.494313
 21
152.885257
 31
0.0
  0
LINE
  5
A1
  8
0
 10
57.243207
 20
169.987433
 30
0.0
 11
57.243207
 21
153.585257
 31
0.0
  0
LINE
  5
A2
  8
0
 10
47.243207
 20
169.987433
 30
0.0
 11
47.243207
 21
153.585257
 31
0.0
  0
LINE
  5
A3
  8
0
 10
40.243207
 20
142.585257
 30
0.0
 11
40.243207
 21
114.285257
 31
0.0
  0
LINE
  5
A4
  8
0
 10
40.243207
 20
142.585257
 30
0.0
 11
64.243207
 21
142.585257
 31
0.0
  0
LINE
  5
A5
  8
0
 10
64.243207
 20
142.585257
 30
0.0
 11
64.243207
 21
114.285257
 31
0.0
  0
LINE
  5
A6
  8
0
 10
43.743207
 20
110.085257
 30
0.0
 11
60.743207
 21
110.085257
 31
0.0
  0
LINE
  5
A7
  8
0
 10
40.243207
 20
114.285257
 30
0.0
 11
64.243207
 21
114.285257
 31
0.0
  0
LINE
  5
A8
  8
0
 10
44.243207
 20
109.585257
 30
0.0
 11
60.243207
 21
109.585257
 31
0.0
  0
LINE
  5
A9
  8
0
 10
40.943207
 20
113.585257
 30
0.0
 11
63.543207
 21
113.585257
 31
0.0
  0
LINE
  5
AA
  8
0
 10
40.243207
 20
114.285257
 30
0.0
 11
40.943207
 21
113.585257
 31
0.0
  0
LINE
  5
AB
  8
0
 10
43.743207
 20
113.585257
 30
0.0
 11
43.743207
 21
110.085257
 31
0.0
  0
LINE
  5
AC
  8
0
 10
43.743207
 20
110.085257
 30
0.0
 11
44.243207
 21
109.585257
 31
0.0
  0
LINE
  5
AD
  8
0
 10
60.743207
 20
110.085257
 30
0.0
 11
60.243207
 21
109.585257
 31
0.0
  0
LINE
  5
AE
  8
0
 10
60.743207
 20
113.585257
 30
0.0
 11
60.743207
 21
110.085257
 31
0.0
  0
LINE
  5
AF
  8
0
 10
64.243207
 20
114.285257
 30
0.0
 11
63.543207
 21
113.585257
 31
0.0
  0
LINE
  5
B0
  8
1
 10
52.243207
 20
191.085257
 30
0.0
 11
52.243207
 21
74.585257
 31
0.0
  0
LINE
  5
B1
  8
1
 10
69.743207
 20
173.585257
 30
0.0
 11
34.743207
 21
173.585257
 31
0.0
  0
ARC
  5
B2
  8
0
 10
52.243207
 20
173.585257
 30
0.0
 40
12.5
 50
293.578178
 51
246.421822
  0
POLYLINE
  5
B3
  8
0
 66
     1
 10
0.0
 20
0.0
 30
0.0
  0
VERTEX
  5
124
  8
0
 10
57.243207
 20
169.987433
 30
0.0
 42
0.104191
  0
VERTEX
  5
125
  8
0
 10
56.867548
 20
171.77061
 30
0.0
 42
0.100672
  0
VERTEX
  5
126
  8
0
 10
55.778741
 20
173.308937
 30
0.0
 42
0.096066
  0
VERTEX
  5
127
  8
0
 10
54.170958
 20
174.322884
 30
0.0
 42
0.093044
  0
VERTEX
  5
128
  8
0
 10
52.243207
 20
174.684749
 30
0.0
 42
0.093044
  0
VERTEX
  5
129
  8
0
 10
50.315456
 20
174.322884
 30
0.0
 42
0.096066
  0
VERTEX
  5
12A
  8
0
 10
48.707673
 20
173.308937
 30
0.0
 42
0.100672
  0
VERTEX
  5
12B
  8
0
 10
47.618866
 20
171.77061
 30
0.0
 42
0.104191
  0
VERTEX
  5
12C
  8
0
 10
47.243207
 20
169.987433
 30
0.0
 42
0.104191
  0
SEQEND
  5
12D
  8
0
  0
POLYLINE
  5
BE
  8
0
 66
     1
 10
0.0
 20
0.0
 30
0.0
  0
VERTEX
  5
12E
  8
0
 10
44.565685
 20
169.987433
 30
0.0
 42
0.116251
  0
VERTEX
  5
12F
  8
0
 10
45.12574
 20
167.611172
 30
0.0
 42
0.104161
  0
VERTEX
  5
130
  8
0
 10
46.814379
 20
165.481926
 30
0.0
 42
0.015973
  0
VERTEX
  5
131
  8
0
 10
47.243207
 20
165.148574
 30
0.0
 42
0.099641
  0
SEQEND
  5
132
  8
0
  0
POLYLINE
  5
C4
  8
0
 66
     1
 10
0.0
 20
0.0
 30
0.0
  0
VERTEX
  5
133
  8
0
 10
57.243207
 20
165.150654
 30
0.0
 42
0.017488
  0
VERTEX
  5
134
  8
0
 10
57.672034
 20
165.481926
 30
0.0
 42
0.104161
  0
VERTEX
  5
135
  8
0
 10
59.360674
 20
167.611172
 30
0.0
 42
0.116251
  0
VERTEX
  5
136
  8
0
 10
59.920728
 20
169.987433
 30
0.0
 42
0.116251
  0
VERTEX
  5
137
  8
0
 10
59.360674
 20
172.363693
 30
0.0
 42
0.104161
  0
VERTEX
  5
138
  8
0
 10
57.672034
 20
174.49294
 30
0.0
 42
0.09065
  0
VERTEX
  5
139
  8
0
 10
55.242477
 20
175.858051
 30
0.0
 42
0.082967
  0
VERTEX
  5
13A
  8
0
 10
52.243207
 20
176.359182
 30
0.0
 42
0.082967
  0
VERTEX
  5
13B
  8
0
 10
49.243936
 20
175.858051
 30
0.0
 42
0.09065
  0
VERTEX
  5
13C
  8
0
 10
46.814379
 20
174.49294
 30
0.0
 42
0.104161
  0
VERTEX
  5
13D
  8
0
 10
45.12574
 20
172.363693
 30
0.0
 42
0.116251
  0
VERTEX
  5
13E
  8
0
 10
44.565685
 20
169.987433
 30
0.0
 42
0.116251
  0
SEQEND
  5
13F
  8
0
  0
LINE
  5
D2
  8
0
 10
48.743207
 20
79.585257
 30
0.0
 11
55.743207
 21
79.585257
 31
0.0
  0
LINE
  5
D3
  8
0
 10
47.243207
 20
81.085257
 30
0.0
 11
57.243207
 21
81.085257
 31
0.0
  0
LINE
  5
D4
  8
0
 10
47.243207
 20
107.778832
 30
0.0
 11
57.243207
 21
107.778832
 31
0.0
  0
LINE
  5
D5
  8
0
 10
48.743207
 20
79.585257
 30
0.0
 11
47.243207
 21
81.085257
 31
0.0
  0
LINE
  5
D6
  8
0
 10
47.243207
 20
81.085257
 30
0.0
 11
47.243207
 21
109.185257
 31
0.0
  0
LINE
  5
D7
  8
3
 10
47.243207
 20
109.185257
 30
0.0
 11
48.055207
 21
107.778832
 31
0.0
  0
LINE
  5
D8
  8
3
 10
48.055207
 20
107.778832
 30
0.0
 11
48.055207
 21
80.273257
 31
0.0
  0
LINE
  5
D9
  8
3
 10
56.431207
 20
107.778832
 30
0.0
 11
56.431207
 21
80.273257
 31
0.0
  0
LINE
  5
DA
  8
3
 10
57.243207
 20
109.185257
 30
0.0
 11
56.431207
 21
107.778832
 31
0.0
  0
ARC
  5
DB
  8
0
 10
57.643207
 20
109.185257
 30
0.0
 40
0.4
 50
90.0
 51
180.0
  0
LINE
  5
DC
  8
0
 10
57.243207
 20
81.085257
 30
0.0
 11
57.243207
 21
109.185257
 31
0.0
  0
LINE
  5
DD
  8
0
 10
55.743207
 20
79.585257
 30
0.0
 11
57.243207
 21
81.085257
 31
0.0
  0
LINE
  5
DE
  8
0
 10
312.400763
 20
79.585257
 30
0.0
 11
319.400763
 21
79.585257
 31
0.0
  0
LINE
  5
DF
  8
0
 10
310.900763
 20
81.085257
 30
0.0
 11
320.900763
 21
81.085257
 31
0.0
  0
LINE
  5
E0
  8
0
 10
310.900763
 20
107.778832
 30
0.0
 11
320.900763
 21
107.778832
 31
0.0
  0
LINE
  5
E1
  8
0
 10
312.400763
 20
79.585257
 30
0.0
 11
310.900763
 21
81.085257
 31
0.0
  0
LINE
  5
E2
  8
0
 10
310.900763
 20
81.085257
 30
0.0
 11
310.900763
 21
109.185257
 31
0.0
  0
ARC
  5
E3
  8
0
 10
310.500763
 20
109.185257
 30
0.0
 40
0.4
 50
0.0
 51
90.0
  0
LINE
  5
E4
  8
3
 10
310.900763
 20
109.185257
 30
0.0
 11
311.712763
 21
107.778832
 31
0.0
  0
LINE
  5
E5
  8
3
 10
311.712763
 20
107.778832
 30
0.0
 11
311.712763
 21
80.273257
 31
0.0
  0
LINE
  5
E6
  8
3
 10
320.088763
 20
107.778832
 30
0.0
 11
320.088763
 21
80.273257
 31
0.0
  0
LINE
  5
E7
  8
3
 10
320.900763
 20
109.185257
 30
0.0
 11
320.088763
 21
107.778832
 31
0.0
  0
ARC
  5
E8
  8
0
 10
321.300763
 20
109.185257
 30
0.0
 40
0.4
 50
90.0
 51
180.0
  0
LINE
  5
E9
  8
0
 10
320.900763
 20
81.085257
 30
0.0
 11
320.900763
 21
109.185257
 31
0.0
  0
LINE
  5
EA
  8
0
 10
319.400763
 20
79.585257
 30
0.0
 11
320.900763
 21
81.085257
 31
0.0
  0
POLYLINE
  5
EB
  8
0
 66
     1
 10
0.0
 20
0.0
 30
0.0
  0
VERTEX
  5
140
  8
0
 10
216.154156
 20
43.098919
 30
0.0
 42
0.239348
  0
VERTEX
  5
141
  8
0
 10
215.455003
 20
42.743899
 30
0.0
 42
0.084489
  0
VERTEX
  5
142
  8
0
 10
214.510865
 20
40.850225
 30
0.0
 42
0.007078
  0
VERTEX
  5
143
  8
0
 10
214.387658
 20
40.421397
 30
0.0
 42
0.039879
  0
SEQEND
  5
144
  8
0
  0
POLYLINE
  5
F1
  8
0
 66
     1
 10
0.0
 20
0.0
 30
0.0
  0
VERTEX
  5
145
  8
0
 10
214.388599
 20
30.421397
 30
0.0
 42
0.008091
  0
VERTEX
  5
146
  8
0
 10
214.510865
 20
29.992569
 30
0.0
 42
0.084489
  0
VERTEX
  5
147
  8
0
 10
215.455003
 20
28.098895
 30
0.0
 42
0.239348
  0
VERTEX
  5
148
  8
0
 10
216.154156
 20
27.743875
 30
0.0
 42
0.239348
  0
VERTEX
  5
149
  8
0
 10
216.85331
 20
28.098895
 30
0.0
 42
0.084489
  0
VERTEX
  5
14A
  8
0
 10
217.797447
 20
29.992569
 30
0.0
 42
0.042325
  0
VERTEX
  5
14B
  8
0
 10
218.281353
 20
32.270391
 30
0.0
 42
0.031193
  0
VERTEX
  5
14C
  8
0
 10
218.478121
 20
35.421397
 30
0.0
 42
0.031193
  0
VERTEX
  5
14D
  8
0
 10
218.281353
 20
38.572403
 30
0.0
 42
0.042325
  0
VERTEX
  5
14E
  8
0
 10
217.797447
 20
40.850225
 30
0.0
 42
0.084489
  0
VERTEX
  5
14F
  8
0
 10
216.85331
 20
42.743899
 30
0.0
 42
0.239348
  0
VERTEX
  5
150
  8
0
 10
216.154156
 20
43.098919
 30
0.0
 42
0.239348
  0
SEQEND
  5
151
  8
0
  0
POLYLINE
  5
FF
  8
0
 66
     1
 10
0.0
 20
0.0
 30
0.0
  0
VERTEX
  5
152
  8
0
 10
216.154156
 20
30.421397
 30
0.0
 42
0.223533
  0
VERTEX
  5
153
  8
0
 10
216.685256
 20
30.671321
 30
0.0
 42
0.090499
  0
VERTEX
  5
154
  8
0
 10
217.365609
 20
31.885863
 30
0.0
 42
0.047316
  0
VERTEX
  5
155
  8
0
 10
217.722868
 20
33.374406
 30
0.0
 42
0.035262
  0
VERTEX
  5
156
  8
0
 10
217.867409
 20
35.421397
 30
0.0
 42
0.035262
  0
VERTEX
  5
157
  8
0
 10
217.722868
 20
37.468388
 30
0.0
 42
0.047316
  0
VERTEX
  5
158
  8
0
 10
217.365609
 20
38.956931
 30
0.0
 42
0.090499
  0
VERTEX
  5
159
  8
0
 10
216.685256
 20
40.171472
 30
0.0
 42
0.223533
  0
VERTEX
  5
15A
  8
0
 10
216.154156
 20
40.421397
 30
0.0
 42
0.223533
  0
SEQEND
  5
15B
  8
0
  0
INSERT
  5
10A
  8
0
  2
WWW
 10
375.0
 20
0.0
 30
0.0
  0
TEXT
  5
10B
  8
11
 10
280.0
 20
1.0
 30
0.0
 40
4.0
  1
1/1
  0
LINE
  5
10C
  8
10
 10
0.0
 20
0.0
 30
0.0
 11
375.0
 21
0.0
 31
0.0
  0
LINE
  5
10D
  8
10
 10
375.0
 20
0.0
 30
0.0
 11
375.0
 21
270.0
 31
0.0
  0
TEXT
  5
10E
  8
11
 10
280.0
 20
25.0
 30
0.0
 40
6.0
  1
テンション・レバー
 41
0.75
  7
07500
  0
LINE
  5
10F
  8
10
 10
375.0
 20
270.0
 30
0.0
 11
0.0
 21
270.0
 31
0.0
  0
LINE
  5
110
  8
10
 10
0.0
 20
270.0
 30
0.0
 11
0.0
 21
0.0
 31
0.0
  0
TEXT
  5
111
  8
3
 10
280.456423
 20
12.99831
 30
0.0
 40
6.0
  1
ＴＬ－１０－３０
  7
BIGFONT
  0
TEXT
  5
112
  8
0
 10
312.860665
 20
2.964526
 30
0.0
 40
6.0
  1
MKR02301
  7
BIGFONT
  0
ENDSEC
  0
EOF
