  0
SECTION
  2
HEADER
  9
$ACADVER
  1
AC1015
  9
$ACADMAINTVER
 70
    13
  9
$DWGCODEPAGE
  3
ANSI_932
  9
$INSBASE
 10
0.0
 20
0.0
 30
0.0
  9
$EXTMIN
 10
35.5
 20
42.0
 30
0.0
  9
$EXTMAX
 10
173.7377416948261
 20
122.3
 30
0.0
  9
$LIMMIN
 10
0.0
 20
0.0
  9
$LIMMAX
 10
200.0
 20
150.0
  9
$ORTHOMODE
 70
     1
  9
$REGENMODE
 70
     1
  9
$FILLMODE
 70
     1
  9
$QTEXTMODE
 70
     0
  9
$MIRRTEXT
 70
     1
  9
$LTSCALE
 40
1.0
  9
$ATTMODE
 70
     1
  9
$TEXTSIZE
 40
2.5
  9
$TRACEWID
 40
1.0
  9
$TEXTSTYLE
  7
STANDARD
  9
$CLAYER
  8
0
  9
$CELTYPE
  6
ByLayer
  9
$CECOLOR
 62
   256
  9
$CELTSCALE
 40
1.0
  9
$DISPSILH
 70
     0
  9
$DIMSCALE
 40
1.0
  9
$DIMASZ
 40
2.5
  9
$DIMEXO
 40
0.625
  9
$DIMDLI
 40
3.75
  9
$DIMRND
 40
0.0
  9
$DIMDLE
 40
0.0
  9
$DIMEXE
 40
1.25
  9
$DIMTP
 40
0.0
  9
$DIMTM
 40
0.0
  9
$DIMTXT
 40
2.5
  9
$DIMCEN
 40
2.5
  9
$DIMTSZ
 40
0.0
  9
$DIMTOL
 70
     0
  9
$DIMLIM
 70
     0
  9
$DIMTIH
 70
     0
  9
$DIMTOH
 70
     0
  9
$DIMSE1
 70
     0
  9
$DIMSE2
 70
     0
  9
$DIMTAD
 70
     1
  9
$DIMZIN
 70
     8
  9
$DIMBLK
  1

  9
$DIMASO
 70
     1
  9
$DIMSHO
 70
     1
  9
$DIMPOST
  1

  9
$DIMAPOST
  1

  9
$DIMALT
 70
     0
  9
$DIMALTD
 70
     4
  9
$DIMALTF
 40
0.0394
  9
$DIMLFAC
 40
1.0
  9
$DIMTOFL
 70
     1
  9
$DIMTVP
 40
0.0
  9
$DIMTIX
 70
     0
  9
$DIMSOXD
 70
     0
  9
$DIMSAH
 70
     0
  9
$DIMBLK1
  1

  9
$DIMBLK2
  1

  9
$DIMSTYLE
  2
STANDARD
  9
$DIMCLRD
 70
     0
  9
$DIMCLRE
 70
     0
  9
$DIMCLRT
 70
     0
  9
$DIMTFAC
 40
1.0
  9
$DIMGAP
 40
0.625
  9
$DIMJUST
 70
     0
  9
$DIMSD1
 70
     0
  9
$DIMSD2
 70
     0
  9
$DIMTOLJ
 70
     1
  9
$DIMTZIN
 70
     0
  9
$DIMALTZ
 70
     0
  9
$DIMALTTZ
 70
     0
  9
$DIMUPT
 70
     0
  9
$DIMDEC
 70
     4
  9
$DIMTDEC
 70
     4
  9
$DIMALTU
 70
     2
  9
$DIMALTTD
 70
     2
  9
$DIMTXSTY
  7
STANDARD
  9
$DIMAUNIT
 70
     0
  9
$DIMADEC
 70
     0
  9
$DIMALTRND
 40
0.0
  9
$DIMAZIN
 70
     0
  9
$DIMDSEP
 70
    46
  9
$DIMATFIT
 70
     3
  9
$DIMFRAC
 70
     0
  9
$DIMLDRBLK
  1

  9
$DIMLUNIT
 70
     2
  9
$DIMLWD
 70
    -2
  9
$DIMLWE
 70
    -2
  9
$DIMTMOVE
 70
     0
  9
$LUNITS
 70
     2
  9
$LUPREC
 70
     4
  9
$SKETCHINC
 40
1.0
  9
$FILLETRAD
 40
1.0
  9
$AUNITS
 70
     0
  9
$AUPREC
 70
     0
  9
$MENU
  1
.
  9
$ELEVATION
 40
0.0
  9
$PELEVATION
 40
0.0
  9
$THICKNESS
 40
0.0
  9
$LIMCHECK
 70
     0
  9
$CHAMFERA
 40
10.0
  9
$CHAMFERB
 40
10.0
  9
$CHAMFERC
 40
0.0
  9
$CHAMFERD
 40
0.0
  9
$SKPOLY
 70
     0
  9
$TDCREATE
 40
2452125.683722997
  9
$TDUCREATE
 40
2452125.308722997
  9
$TDUPDATE
 40
2454700.445256979
  9
$TDUUPDATE
 40
2454700.070256979
  9
$TDINDWG
 40
0.0206743519
  9
$TDUSRTIMER
 40
0.0206743519
  9
$USRTIMER
 70
     1
  9
$ANGBASE
 50
0.0
  9
$ANGDIR
 70
     0
  9
$PDMODE
 70
     0
  9
$PDSIZE
 40
0.0
  9
$PLINEWID
 40
0.0
  9
$SPLFRAME
 70
     0
  9
$SPLINETYPE
 70
     6
  9
$SPLINESEGS
 70
     8
  9
$HANDSEED
  5
80B
  9
$SURFTAB1
 70
     6
  9
$SURFTAB2
 70
     6
  9
$SURFTYPE
 70
     6
  9
$SURFU
 70
     6
  9
$SURFV
 70
     6
  9
$UCSBASE
  2

  9
$UCSNAME
  2

  9
$UCSORG
 10
0.0
 20
0.0
 30
0.0
  9
$UCSXDIR
 10
1.0
 20
0.0
 30
0.0
  9
$UCSYDIR
 10
0.0
 20
1.0
 30
0.0
  9
$UCSORTHOREF
  2

  9
$UCSORTHOVIEW
 70
     0
  9
$UCSORGTOP
 10
0.0
 20
0.0
 30
0.0
  9
$UCSORGBOTTOM
 10
0.0
 20
0.0
 30
0.0
  9
$UCSORGLEFT
 10
0.0
 20
0.0
 30
0.0
  9
$UCSORGRIGHT
 10
0.0
 20
0.0
 30
0.0
  9
$UCSORGFRONT
 10
0.0
 20
0.0
 30
0.0
  9
$UCSORGBACK
 10
0.0
 20
0.0
 30
0.0
  9
$PUCSBASE
  2

  9
$PUCSNAME
  2

  9
$PUCSORG
 10
0.0
 20
0.0
 30
0.0
  9
$PUCSXDIR
 10
1.0
 20
0.0
 30
0.0
  9
$PUCSYDIR
 10
0.0
 20
1.0
 30
0.0
  9
$PUCSORTHOREF
  2

  9
$PUCSORTHOVIEW
 70
     0
  9
$PUCSORGTOP
 10
0.0
 20
0.0
 30
0.0
  9
$PUCSORGBOTTOM
 10
0.0
 20
0.0
 30
0.0
  9
$PUCSORGLEFT
 10
0.0
 20
0.0
 30
0.0
  9
$PUCSORGRIGHT
 10
0.0
 20
0.0
 30
0.0
  9
$PUCSORGFRONT
 10
0.0
 20
0.0
 30
0.0
  9
$PUCSORGBACK
 10
0.0
 20
0.0
 30
0.0
  9
$USERI1
 70
     0
  9
$USERI2
 70
     0
  9
$USERI3
 70
     0
  9
$USERI4
 70
     0
  9
$USERI5
 70
     0
  9
$USERR1
 40
0.0
  9
$USERR2
 40
0.0
  9
$USERR3
 40
0.0
  9
$USERR4
 40
0.0
  9
$USERR5
 40
0.0
  9
$WORLDVIEW
 70
     1
  9
$SHADEDGE
 70
     3
  9
$SHADEDIF
 70
    70
  9
$TILEMODE
 70
     1
  9
$MAXACTVP
 70
    48
  9
$PINSBASE
 10
0.0
 20
0.0
 30
0.0
  9
$PLIMCHECK
 70
     0
  9
$PEXTMIN
 10
1.000000000000000E+20
 20
1.000000000000000E+20
 30
1.000000000000000E+20
  9
$PEXTMAX
 10
-1.000000000000000E+20
 20
-1.000000000000000E+20
 30
-1.000000000000000E+20
  9
$PLIMMIN
 10
0.0
 20
0.0
  9
$PLIMMAX
 10
420.0
 20
297.0
  9
$UNITMODE
 70
     0
  9
$VISRETAIN
 70
     1
  9
$PLINEGEN
 70
     0
  9
$PSLTSCALE
 70
     1
  9
$TREEDEPTH
 70
  3020
  9
$CMLSTYLE
  2
Standard
  9
$CMLJUST
 70
     0
  9
$CMLSCALE
 40
1.0
  9
$PROXYGRAPHICS
 70
     1
  9
$MEASUREMENT
 70
     0
  9
$CELWEIGHT
370
    -1
  9
$ENDCAPS
280
     0
  9
$JOINSTYLE
280
     0
  9
$LWDISPLAY
290
     0
  9
$INSUNITS
 70
     0
  9
$HYPERLINKBASE
  1

  9
$STYLESHEET
  1

  9
$XEDIT
290
     1
  9
$CEPSNTYPE
380
     0
  9
$PSTYLEMODE
290
     1
  9
$FINGERPRINTGUID
  2
{05F31F09-7233-4C8E-A729-9629AA051B0B}
  9
$VERSIONGUID
  2
{13638807-9D11-4AAE-9BF1-51C81F31F18F}
  9
$EXTNAMES
290
     1
  9
$PSVPSCALE
 40
0.0
  9
$OLESTARTUP
290
     0
  0
ENDSEC
  0
SECTION
  2
CLASSES
  0
CLASS
  1
ACDBDICTIONARYWDFLT
  2
AcDbDictionaryWithDefault
  3
AutoCAD 2000
 90
        0
280
     0
281
     0
  0
CLASS
  1
ACDBPLACEHOLDER
  2
AcDbPlaceHolder
  3
AutoCAD 2000
 90
        0
280
     0
281
     0
  0
CLASS
  1
LAYOUT
  2
AcDbLayout
  3
AutoCAD 2000
 90
        0
280
     0
281
     0
  0
CLASS
  1
AMGSETTINGSOBJ
  2
AmgSettingsObj
  3
"AcadM|Product Description: AutoCAD Mechanical 2000|Company: Autodesk"
 90
        0
280
     0
281
     0
  0
CLASS
  1
ACME_DOCUMENT
  2
AcMeDbDoc
  3
AcMeServices
 90
        0
280
     0
281
     0
  0
CLASS
  1
ACMESCOPE
  2
AcMeScope
  3
AcMeServices
 90
        0
280
     0
281
     0
  0
CLASS
  1
ACMECOMMANDHISTORY
  2
AcMeCommandHistory
  3
AcMeServices
 90
        0
280
     0
281
     0
  0
CLASS
  1
ACIMSYSVARMAN
  2
AcImSysVarManager
  3
AcMeServices
 90
        0
280
     0
281
     0
  0
CLASS
  1
ACIMREALSYSVAR
  2
AcImRealSysVar
  3
AcMeServices
 90
        0
280
     0
281
     0
  0
CLASS
  1
ACIMINTSYSVAR
  2
AcImIntSysVar
  3
AcMeServices
 90
        0
280
     0
281
     0
  0
CLASS
  1
ACMEDRAWINGMAN
  2
AcMeDrawingMan
  3
AcMeServices
 90
        0
280
     0
281
     0
  0
CLASS
  1
ACMEVIEW
  2
AcMeView
  3
AcMeServices
 90
        0
280
     0
281
     0
  0
CLASS
  1
ACDBENTITYCACHE
  2
AcMeEntityCache
  3
AcMeServices
 90
        0
280
     0
281
     0
  0
CLASS
  1
GSMANAGER
  2
AcMeGSManager
  3
AcMeServices
 90
        0
280
     0
281
     0
  0
CLASS
  1
AMDTINTERNALREACTOR
  2
AmdtInternalReactor
  3
AcMeServices
 90
        0
280
     0
281
     0
  0
CLASS
  1
ACMESTATEMGR
  2
AcMeStateMgr
  3
AcMeServices
 90
        0
280
     0
281
     0
  0
CLASS
  1
ACGREFMASTER
  2
AcGrefMaster
  3
AcAttribServices
 90
        0
280
     0
281
     0
  0
CLASS
  1
AM_DRAWING_MGR
  2
AcDmDwgMgr
  3
AcMechDwgViewMgmt
 90
        0
280
     0
281
     0
  0
CLASS
  1
AM_DWG_DOCUMENT
  2
AcDmDwgDocument
  3
AcMechDwgViewMgmt
 90
        0
280
     0
281
     0
  0
CLASS
  1
AM_DWG_SHEET
  2
AcDmSheet
  3
AcMechDwgViewMgmt
 90
        0
280
     0
281
     0
  0
CLASS
  1
AM_VIEWDIMPARMAP
  2
AcDmViewDimParMap
  3
AcMechDwgViewMgmt
 90
        0
280
     0
281
     0
  0
CLASS
  1
AM_DWGMGR_NAME
  2
AcDmDwgMgrName
  3
AcMechDwgViewMgmt
 90
        0
280
     0
281
     0
  0
CLASS
  1
ACME_DATABASE
  2
AcMeDbDatabase
  3
AcMeServices
 90
        0
280
     0
281
     0
  0
CLASS
  1
ACRFINSADJUSTERMGR
  2
AcRfInsAdjusterMgr
  3
AcMeServices
 90
        0
280
     0
281
     0
  0
CLASS
  1
ACGREFACADMASTER
  2
AcGrefacadMaster
  3
AcGrefServices
 90
        0
280
     0
281
     0
  0
CLASS
  1
AMDTMENUSTATEMGR
  2
AmdtMenuStateMgr
  3
McadcomServices
 90
        0
280
     0
281
     0
  0
CLASS
  1
AMDTMCOMMENUSTATE
  2
AmdtMcomMenuState
  3
McadcomServices
 90
        0
280
     0
281
     0
  0
CLASS
  1
AMIMASTER
  2
AmiMaster
  3
AmiServices
 90
        0
280
     0
281
     0
  0
CLASS
  1
ASAPP
  2
AcAsAppObject
  3
AutoSurfServices
 90
        0
280
     0
281
     0
  0
CLASS
  1
IM_STATIC_MAN
  2
AcImStaticVarManager
  3
AcMeServices
 90
        0
280
     0
281
     0
  0
CLASS
  1
ACIMSTRSYSVAR
  2
AcImStrSysVar
  3
AcMeServices
 90
        0
280
     0
281
     0
  0
CLASS
  1
ACIMDBLSTATICVAR
  2
AcImDblStaticVar
  3
AcMeServices
 90
        0
280
     0
281
     0
  0
CLASS
  1
ACIMSTRSTATICVAR
  2
AcImStrStaticVar
  3
AcMeServices
 90
        0
280
     0
281
     0
  0
CLASS
  1
ACIMINTSTATICVAR
  2
AcImIntStaticVar
  3
AcMeServices
 90
        0
280
     0
281
     0
  0
CLASS
  1
ACASGREFMASTER
  2
AcAsGrefMaster
  3
AutoSurfResolverServices
 90
        0
280
     0
281
     0
  0
CLASS
  1
ACADGREFMODULE
  2
AcAdGrefModule
  3
AdGrefServices
 90
        0
280
     0
281
     0
  0
CLASS
  1
AMDTMAPISURFMOUDULE
  2
AmdtMApiSurfModule
  3
MApiSurfServices
 90
        0
280
     0
281
     0
  0
CLASS
  1
MAPIAMMOUDLE
  2
MApiAmModule
  3
MApiAmServices
 90
        0
280
     0
281
     0
  0
CLASS
  1
AMDTADMENUSTATE
  2
AmdtAdMenuState
  3
DesignerServices
 90
        0
280
     0
281
     0
  0
CLASS
  1
ADAPPL
  2
AcAdAppl
  3
DesignerServices
 90
        0
280
     0
281
     0
  0
CLASS
  1
DEPMGR
  2
AcAdDepMgr
  3
DesignerServices
 90
        0
280
     0
281
     0
  0
CLASS
  1
PARAMMGR
  2
AcAdParamMgr
  3
DesignerServices
 90
        0
280
     0
281
     0
  0
CLASS
  1
PARAMSCOPE
  2
AcAdParamScope
  3
DesignerServices
 90
        0
280
     0
281
     0
  0
CLASS
  1
NAMEDAPPL
  2
AcAdNamedAppl
  3
DesignerServices
 90
        0
280
     0
281
     0
  0
CLASS
  1
AMDTDMMENUSTATE
  2
AmdtDmMenuState
  3
AcMechDwgViewMgmt
 90
        0
280
     0
281
     0
  0
CLASS
  1
MAPIADMODULE
  2
MApiAdModule
  3
MApiAdServices
 90
        0
280
     0
281
     0
  0
CLASS
  1
AMDTAMMENUSTATE
  2
AmdtAmMenuState
  3
DesignerAssemblies
 90
        0
280
     0
281
     0
  0
CLASS
  1
ACAMPROJECT
  2
AcAmProject
  3
DesignerAssemblies
 90
        0
280
     0
281
     0
  0
CLASS
  1
ACAMGRCOMPDEF
  2
AcAmGrCompDef
  3
DesignerAssemblies
 90
        0
280
     0
281
     0
  0
CLASS
  1
ACCMCONTEXT
  2
AcCmContext
  3
DesignerAssemblies
 90
        0
280
     0
281
     0
  0
CLASS
  1
ACAMCOMPDEF
  2
AcAmCompDef
  3
DesignerAssemblies
 90
        0
280
     0
281
     0
  0
CLASS
  1
ACAMCOMPDEFMGR
  2
AcAmCompDefMgr
  3
DesignerAssemblies
 90
        0
280
     0
281
     0
  0
CLASS
  1
AMCONTEXTMGR
  2
AcAmContextMgr
  3
DesignerAssemblies
 90
        0
280
     0
281
     0
  0
CLASS
  1
ACAMCONTEXTMODELER
  2
AcAmContextModeler
  3
DesignerAssemblies
 90
        0
280
     0
281
     0
  0
CLASS
  1
ACMDATADICTIONARY
  2
AcmDataDictionary
  3
"AcmSymBB|Product Description: AutoCAD Mechanical 2000|Company: Autodesk"
 90
        0
280
     0
281
     0
  0
CLASS
  1
ACMDATAENTRYBLOCK
  2
AcmDataEntryBlock
  3
"AcmSymBB|Product Description: AutoCAD Mechanical 2000|Company: Autodesk"
 90
        0
280
     0
281
     0
  0
CLASS
  1
CATALOGSTATE
  2
AcAmCatalogState
  3
DesignerAssemblies
 90
        0
280
     0
281
     0
  0
CLASS
  1
ACAMGRCOMPDEFSET
  2
AcAmGrCompDefSet
  3
DesignerAssemblies
 90
        0
280
     0
281
     0
  0
CLASS
  1
AMDTBROWSERDBTAB
  2
AmdtBrowserDbTab
  3
McadcomServices
 90
        0
280
     0
281
     0
  0
CLASS
  1
CBROWSERAPPOBJECT
  2
CBrowserAppObject
  3
McadcomServices
 90
        0
280
     0
281
     0
  0
CLASS
  1
DM_PLACEHOLDER
  2
AcDmSelsetPlaceholder
  3
AcMechDwgViewMgmt
 90
        0
280
     0
281
     0
  0
CLASS
  1
ACMSTANDARDANSI
  2
AcmStandardANSI
  3
"Amdt_StdImp|Product Description: AutoCAD Mechanical 2000|Company: Autodesk"
 90
        0
280
     0
281
     0
  0
CLASS
  1
AMGOBJPROPCFG
  2
AmgObjPropCfg
  3
"AmgLay|Product Description: AutoCAD Mechanical 2000|Company: Autodesk"
 90
        1
280
     0
281
     0
  0
CLASS
  1
ACMSURFSTANDARDANSI
  2
AcmSurfTextStdANSI
  3
"Amdt_StdImp|Product Description: AutoCAD Mechanical 2000|Company: Autodesk"
 90
        0
280
     0
281
     0
  0
CLASS
  1
ACMFCFSTANDARDANSI
  2
AcmFCFStdANSI
  3
"Amdt_StdImp|Product Description: AutoCAD Mechanical 2000|Company: Autodesk"
 90
        0
280
     0
281
     0
  0
CLASS
  1
ACMWELDSTANDARDANSI
  2
AcmWeldingStdANSI
  3
"Amdt_StdImp|Product Description: AutoCAD Mechanical 2000|Company: Autodesk"
 90
        0
280
     0
281
     0
  0
CLASS
  1
ACMIDSTANDARDANSI
  2
AcmIdStdANSI
  3
"Amdt_StdImp|Product Description: AutoCAD Mechanical 2000|Company: Autodesk"
 90
        0
280
     0
281
     0
  0
CLASS
  1
ACMDATUMSTANDARDANSI
  2
AcmDatumStdANSI
  3
"Amdt_StdImp|Product Description: AutoCAD Mechanical 2000|Company: Autodesk"
 90
        0
280
     0
281
     0
  0
CLASS
  1
ACMBOMSTANDARDANSI
  2
AcmBOMStdANSI
  3
"Amdt_StdImp|Product Description: AutoCAD Mechanical 2000|Company: Autodesk"
 90
        0
280
     0
281
     0
  0
CLASS
  1
ACMDETAILSTANDARDANSI
  2
AmdtDetailSymStdANSI
  3
"Amdt_StdImp|Product Description: AutoCAD Mechanical 2000|Company: Autodesk"
 90
        0
280
     0
281
     0
  0
CLASS
  1
ACMSECTIONSTANDARDANSI
  2
AmdtSectionSymStdANSI
  3
"Amdt_StdImp|Product Description: AutoCAD Mechanical 2000|Company: Autodesk"
 90
        0
280
     0
281
     0
  0
CLASS
  1
ACMCENTERLINESTANDARDANSI
  2
AmdtCenterLineStdANSI
  3
"Amdt_StdImp|Product Description: AutoCAD Mechanical 2000|Company: Autodesk"
 90
        0
280
     0
281
     0
  0
CLASS
  1
ACMTHREADLINESTANDARDANSI
  2
AmdtThreadLineStdANSI
  3
"Amdt_StdImp|Product Description: AutoCAD Mechanical 2000|Company: Autodesk"
 90
        0
280
     0
281
     0
  0
CLASS
  1
ACMNOTESTANDARDANSI
  2
AmdtNoteStdANSI
  3
"Amdt_StdImp|Product Description: AutoCAD Mechanical 2000|Company: Autodesk"
 90
        0
280
     0
281
     0
  0
CLASS
  1
ACAMGLAYSTD
  2
AcAmgLayStd
  3
"AcAmgLayStd|Product Description: AutoCAD Mechanical 2000|Company: Autodesk"
 90
        0
280
     0
281
     0
  0
CLASS
  1
ACAMGDIMSTD
  2
AcAmgDimStd
  3
"AcAmgDimStd|Product Description: AutoCAD Mechanical 2000|Company: Autodesk"
 90
        0
280
     0
281
     0
  0
CLASS
  1
ACAMGHOLECHARTSTDANSI
  2
AcAmgHoleChartStdANSI
  3
ACMSYMBB_MODULE_NAME
 90
        0
280
     0
281
     0
  0
CLASS
  1
ACAMGTITLESTD
  2
AcAmgTitleStd
  3
"TITLEAPP"
 90
        0
280
     0
281
     0
  0
CLASS
  1
LAYER_INDEX
  2
AcDbLayerIndex
  3
AutoCAD 2000
 90
        0
280
     0
281
     0
  0
CLASS
  1
IDBUFFER
  2
AcDbIdBuffer
  3
AutoCAD 2000
 90
        0
280
     0
281
     0
  0
CLASS
  1
DICTIONARYVAR
  2
AcDbDictionaryVar
  3
AutoCAD 2000
 90
        0
280
     0
281
     0
  0
CLASS
  1
ACAMGFILTERDAT
  2
AcAmgFilterDat
  3
"AcadM|Product Description: AutoCAD Mechanical 2000|Company: Autodesk"
 90
        0
280
     0
281
     0
  0
ENDSEC
  0
SECTION
  2
TABLES
  0
TABLE
  2
VPORT
  5
3AF
330
0
100
AcDbSymbolTable
 70
     5
  0
VPORT
  5
80A
330
3AF
100
AcDbSymbolTableRecord
100
AcDbViewportTableRecord
  2
*Active
 70
     0
 10
0.0
 20
0.0
 11
1.0
 21
1.0
 12
0.0
 22
0.0
 13
0.0
 23
0.0
 14
0.5
 24
0.5
 15
1.0
 25
1.0
 16
0.0
 26
0.0
 36
1.0
 17
113.7736169056603
 27
75.0
 37
0.0
 40
150.0
 41
1.516981132075471
 42
50.0
 43
0.0
 44
0.0
 50
0.0
 51
0.0
 71
     0
 72
   100
 73
     1
 74
     1
 75
     0
 76
     0
 77
     0
 78
     0
281
     0
 65
     0
110
0.0
120
0.0
130
0.0
111
1.0
121
0.0
131
0.0
112
0.0
122
1.0
132
0.0
 79
     0
146
0.0
  0
ENDTAB
  0
TABLE
  2
LTYPE
  5
3AC
330
0
100
AcDbSymbolTable
 70
    18
  0
LTYPE
  5
3BA
330
3AC
100
AcDbSymbolTableRecord
100
AcDbLinetypeTableRecord
  2
ByBlock
 70
     0
  3

 72
    65
 73
     0
 40
0.0
  0
LTYPE
  5
3BB
330
3AC
100
AcDbSymbolTableRecord
100
AcDbLinetypeTableRecord
  2
ByLayer
 70
     0
  3

 72
    65
 73
     0
 40
0.0
  0
LTYPE
  5
3BC
330
3AC
100
AcDbSymbolTableRecord
100
AcDbLinetypeTableRecord
  2
CONTINUOUS
 70
     0
  3
Solid line
 72
    65
 73
     0
 40
0.0
  0
LTYPE
  5
3CA
330
3AC
100
AcDbSymbolTableRecord
100
AcDbLinetypeTableRecord
  2
CENTER
 70
     0
  3
____ _ ____ _ ____ _ ____ _ ____ _ ____ _ ____
 72
    65
 73
     4
 40
2.0
 49
1.25
 74
     0
 49
-0.25
 74
     0
 49
0.25
 74
     0
 49
-0.25
 74
     0
  0
LTYPE
  5
715
330
3AC
100
AcDbSymbolTableRecord
100
AcDbLinetypeTableRecord
  2
HIDDEN
 70
     0
  3
Hidden __ __ __ __ __ __ __ __ __ __ __ __ __ _
 72
    65
 73
     2
 40
0.375
 49
0.25
 74
     0
 49
-0.125
 74
     0
  0
LTYPE
  5
716
330
3AC
100
AcDbSymbolTableRecord
100
AcDbLinetypeTableRecord
  2
PHANTOM2
 70
     0
  3
Phantom (.5x) ___ _ _ ___ _ _ ___ _ _ ___ _ _
 72
    65
 73
     6
 40
1.25
 49
0.625
 74
     0
 49
-0.125
 74
     0
 49
0.125
 74
     0
 49
-0.125
 74
     0
 49
0.125
 74
     0
 49
-0.125
 74
     0
  0
LTYPE
  5
778
330
3AC
100
AcDbSymbolTableRecord
100
AcDbLinetypeTableRecord
  2
ASULTYPE
 70
     0
  3
実線
 72
    65
 73
     2
 40
3.0
 49
2.5
 74
     0
 49
0.5
 74
     0
  0
LTYPE
  5
779
330
3AC
100
AcDbSymbolTableRecord
100
AcDbLinetypeTableRecord
  2
ASVLTYPE
 70
     0
  3
__ __ __ __ __ __ __ __ __ __ __ __ __ __ __ __ __ __ __ __ __
 72
    65
 73
     2
 40
0.75
 49
0.5
 74
     0
 49
-0.25
 74
     0
  0
LTYPE
  5
7BD
330
3AC
100
AcDbSymbolTableRecord
100
AcDbLinetypeTableRecord
  2
AM_ISO02W050
 70
     0
  3
__ __ __ __ __ __ __ __ __ __ __ __ __ __ __
 72
    65
 73
     2
 40
7.5
 49
6.0
 74
     0
 49
-1.5
 74
     0
  0
LTYPE
  5
7BE
330
3AC
100
AcDbSymbolTableRecord
100
AcDbLinetypeTableRecord
  2
AM_ISO08W050
 70
     0
  3
____ . ____ . ____ . ____ . ____ . ____ . ____
 72
    65
 73
     4
 40
18.0
 49
12.0
 74
     0
 49
-1.5
 74
     0
 49
3.0
 74
     0
 49
-1.5
 74
     0
  0
LTYPE
  5
7BF
330
3AC
100
AcDbSymbolTableRecord
100
AcDbLinetypeTableRecord
  2
AM_ISO09W050
 70
     0
  3
_____ . . _____ . . _____ . . ____ .. ____
 72
    65
 73
     6
 40
22.5
 49
12.0
 74
     0
 49
-1.5
 74
     0
 49
3.0
 74
     0
 49
-1.5
 74
     0
 49
3.0
 74
     0
 49
-1.5
 74
     0
  0
LTYPE
  5
7C0
330
3AC
100
AcDbSymbolTableRecord
100
AcDbLinetypeTableRecord
  2
Amconstr
 70
     0
  3
_______________________
 72
    65
 73
     2
 40
9999.0
 49
9999.0
 74
     0
 49
0.0
 74
     0
  0
LTYPE
  5
7C1
330
3AC
100
AcDbSymbolTableRecord
100
AcDbLinetypeTableRecord
  2
AM_ISO08W050x2
 70
     0
  3
__ . __ . __ . __ . __ . __
 72
    65
 73
     4
 40
9.0
 49
6.0
 74
     0
 49
-0.75
 74
     0
 49
1.5
 74
     0
 49
-0.75
 74
     0
  0
LTYPE
  5
7C2
330
3AC
100
AcDbSymbolTableRecord
100
AcDbLinetypeTableRecord
  2
AM_ISO02W050x2
 70
     0
  3
 _ _ _ _ _ _ _ _ _ _ _ _
 72
    65
 73
     2
 40
3.75
 49
3.0
 74
     0
 49
-0.75
 74
     0
  0
LTYPE
  5
7C5
330
3AC
100
AcDbSymbolTableRecord
100
AcDbLinetypeTableRecord
  2
Amzigzag
 70
     0
  3
/\/-/\/-/\/-/\/-/\/-/\/
 72
    65
 73
     2
 40
11.00009999999999
 49
0.0001
 74
     4
 75
   135
340
7C4
 46
0.04
 50
0.0
 44
0.0
 45
0.0
 49
-11.0
 74
     0
  0
LTYPE
  5
7C6
330
3AC
100
AcDbSymbolTableRecord
100
AcDbLinetypeTableRecord
  2
CENTER2
 70
     0
  3
Center (.5x) ___ _ ___ _ ___ _ ___ _ ___ _ ___
 72
    65
 73
     4
 40
1.125
 49
0.75
 74
     0
 49
-0.125
 74
     0
 49
0.125
 74
     0
 49
-0.125
 74
     0
  0
LTYPE
  5
7C7
330
3AC
100
AcDbSymbolTableRecord
100
AcDbLinetypeTableRecord
  2
HIDDEN2
 70
     0
  3
Hidden (.5x) _ _ _ _ _ _ _ _ _ _ _ _ _ _ _ _ _
 72
    65
 73
     2
 40
0.1875
 49
0.125
 74
     0
 49
-0.0625
 74
     0
  0
LTYPE
  5
7C8
330
3AC
100
AcDbSymbolTableRecord
100
AcDbLinetypeTableRecord
  2
Amzigzag2
 70
     0
  3
/\/-/\/-/\/-/\/-/\/-/\/
 72
    65
 73
     2
 40
0.4401
 49
0.0001
 74
     4
 75
   135
340
7C4
 46
0.0016
 50
0.0
 44
0.0
 45
0.0
 49
-0.4400000000000001
 74
     0
  0
LTYPE
  5
7D6
330
3AC
100
AcDbSymbolTableRecord
100
AcDbLinetypeTableRecord
  2
ACANSTGB
 70
     0
  3
__ . . __ . .
 72
    65
 73
     6
 40
0.35433070866
 49
0.15748031496
 74
     0
 49
-0.03937007874
 74
     0
 49
0.03937007874
 74
     0
 49
-0.03937007874
 74
     0
 49
0.03937007874
 74
     0
 49
-0.03937007874
 74
     0
  0
LTYPE
  5
7D7
330
3AC
100
AcDbSymbolTableRecord
100
AcDbLinetypeTableRecord
  2
ACANSTGL
 70
     0
  3
_ _ _ _ _
 72
    65
 73
     2
 40
0.11811023622
 49
0.07874015748
 74
     0
 49
-0.03937007874
 74
     0
  0
ENDTAB
  0
TABLE
  2
LAYER
  5
3A9
330
0
100
AcDbSymbolTable
 70
     3
  0
LAYER
  5
3B7
330
3A9
100
AcDbSymbolTableRecord
100
AcDbLayerTableRecord
  2
0
 70
     0
 62
     7
  6
CONTINUOUS
370
    -3
390
3B6
  0
LAYER
  5
3CB
330
3A9
100
AcDbSymbolTableRecord
100
AcDbLayerTableRecord
  2
1
 70
     0
 62
     1
  6
CENTER
370
    -3
390
3B6
  0
LAYER
  5
7FA
330
3A9
100
AcDbSymbolTableRecord
100
AcDbLayerTableRecord
  2
Defpoints
 70
     0
 62
     7
  6
CONTINUOUS
290
     0
370
    -3
390
3B6
  0
ENDTAB
  0
TABLE
  2
STYLE
  5
3AA
330
0
100
AcDbSymbolTable
 70
     5
  0
STYLE
  5
3B8
330
3AA
100
AcDbSymbolTableRecord
100
AcDbTextStyleTableRecord
  2
STANDARD
 70
     0
 40
0.0
 41
1.0
 50
0.0
 71
     0
 42
2.5
  3
txt
  4

  0
STYLE
  5
3CC
330
3AA
100
AcDbSymbolTableRecord
100
AcDbTextStyleTableRecord
  2
BIGFONT
 70
     0
 40
10.0
 41
0.8
 50
0.0
 71
     0
 42
10.0
  3
txt.shx
  4
bigfont
  0
STYLE
  5
7C4
330
3AA
100
AcDbSymbolTableRecord
100
AcDbTextStyleTableRecord
  2

 70
     1
 40
0.0
 41
1.0
 50
0.0
 71
     0
 42
2.5
  3
ltypeshp.shx
  4

  0
STYLE
  5
7C9
330
3AA
100
AcDbSymbolTableRecord
100
AcDbTextStyleTableRecord
  2
ACANSTS
 70
     0
 40
1.0
 41
1.0
 50
0.0
 71
     0
 42
2.5
  3
romans.shx
  4
extfont.shx
  0
STYLE
  5
7D5
330
3AA
100
AcDbSymbolTableRecord
100
AcDbTextStyleTableRecord
  2
ACANSGDT
 70
     0
 40
0.0
 41
1.0
 50
0.0
 71
     0
 42
2.5
  3
amgdtans.shx
  4

  0
ENDTAB
  0
TABLE
  2
VIEW
  5
3AD
330
0
100
AcDbSymbolTable
 70
     0
  0
ENDTAB
  0
TABLE
  2
UCS
  5
3AE
330
0
100
AcDbSymbolTable
 70
     0
  0
ENDTAB
  0
TABLE
  2
APPID
  5
3B0
330
0
100
AcDbSymbolTable
 70
    13
  0
APPID
  5
3B9
330
3B0
100
AcDbSymbolTableRecord
100
AcDbRegAppTableRecord
  2
ACAD
 70
     0
  0
APPID
  5
6F3
330
3B0
100
AcDbSymbolTableRecord
100
AcDbRegAppTableRecord
  2
GENIUS_GENDIM_13
 70
     0
  0
APPID
  5
6F4
330
3B0
100
AcDbSymbolTableRecord
100
AcDbRegAppTableRecord
  2
GENIUS_GENDTOL_13
 70
     0
  0
APPID
  5
6F5
330
3B0
100
AcDbSymbolTableRecord
100
AcDbRegAppTableRecord
  2
GENIUS_GE3DTOL_13
 70
     0
  0
APPID
  5
6F8
330
3B0
100
AcDbSymbolTableRecord
100
AcDbRegAppTableRecord
  2
MCAD_NO_VIS
 70
     0
  0
APPID
  5
6F9
330
3B0
100
AcDbSymbolTableRecord
100
AcDbRegAppTableRecord
  2
ACAD_TEMP_GRAPHIC
 70
     0
  0
APPID
  5
72B
330
3B0
100
AcDbSymbolTableRecord
100
AcDbRegAppTableRecord
  2
AD_DRAW
 70
     0
  0
APPID
  5
72E
330
3B0
100
AcDbSymbolTableRecord
100
AcDbRegAppTableRecord
  2
ACATTRIBSERVICES
 70
     0
  0
APPID
  5
77A
330
3B0
100
AcDbSymbolTableRecord
100
AcDbRegAppTableRecord
  2
ASURF_PCURVE_APPNAME
 70
     0
  0
APPID
  5
77F
330
3B0
100
AcDbSymbolTableRecord
100
AcDbRegAppTableRecord
  2
AMG_3D2D_5.0
 70
     0
  0
APPID
  5
7AA
330
3B0
100
AcDbSymbolTableRecord
100
AcDbRegAppTableRecord
  2
DESIGNERASSEMBLIES
 70
     0
  0
APPID
  5
7B2
330
3B0
100
AcDbSymbolTableRecord
100
AcDbRegAppTableRecord
  2
ACADM_DIM_EDIT
 70
     0
  0
APPID
  5
7B3
330
3B0
100
AcDbSymbolTableRecord
100
AcDbRegAppTableRecord
  2
AMDT_DM_ADJ
 70
     0
  0
ENDTAB
  0
TABLE
  2
DIMSTYLE
  5
3B1
330
0
100
AcDbSymbolTable
 70
     7
100
AcDbDimStyleTable
 71
     1
340
3CD
  0
DIMSTYLE
105
3CD
330
3B1
100
AcDbSymbolTableRecord
100
AcDbDimStyleTableRecord
  2
STANDARD
 70
     0
274
     4
279
     2
284
     8
285
     8
286
     8
340
3B8
  0
DIMSTYLE
105
7DC
330
3B1
100
AcDbSymbolTableRecord
100
AcDbDimStyleTableRecord
  2
AM_ANSI
 70
     0
  4
mm
 41
0.1
 42
0.05
 43
0.5
 44
0.1
 47
0.1
 48
0.1
 78
     7
 79
     2
140
0.12
141
0.0
146
0.71
147
0.06
176
   256
177
   256
178
     2
274
     4
284
     7
340
3B8
371
    -1
372
    -1
  0
DIMSTYLE
105
7DD
330
3B1
100
AcDbSymbolTableRecord
100
AcDbDimStyleTableRecord
  2
AM_ANSI$3
 70
     0
  4
mm
 41
0.1
 42
0.05
 43
0.5
 44
0.1
 47
0.1
 48
0.1
 78
     7
 79
     2
140
0.12
141
0.0
146
0.71
147
0.06
176
   256
177
   256
178
     2
274
     4
284
     7
288
     1
289
     0
340
3B8
371
    -1
372
    -1
  0
DIMSTYLE
105
7DE
330
3B1
100
AcDbSymbolTableRecord
100
AcDbDimStyleTableRecord
  2
AM_ANSI$4
 70
     0
  4
mm
 41
0.1
 42
0.05
 43
0.5
 44
0.1
 47
0.1
 48
0.1
 78
     7
 79
     2
140
0.12
141
0.0
146
0.71
147
0.06
176
   256
177
   256
178
     2
274
     4
284
     7
288
     1
289
     0
340
3B8
371
    -1
372
    -1
  0
DIMSTYLE
105
7DF
330
3B1
100
AcDbSymbolTableRecord
100
AcDbDimStyleTableRecord
  2
AM_ANSI$7
 70
     0
  4
mm
 41
0.1
 42
0.05
 43
0.5
 44
0.1
 47
0.1
 48
0.1
 78
     7
 79
     2
140
0.24
141
0.0
146
0.71
147
0.06
176
   256
177
   256
178
     2
274
     4
284
     7
340
3B8
371
    -1
372
    -1
  0
DIMSTYLE
105
7E0
330
3B1
100
AcDbSymbolTableRecord
100
AcDbDimStyleTableRecord
  2
AM_ANSI$SF
 70
     0
  4
mm
 41
0.1
 42
0.05
 43
0.5
 44
0.1
 47
0.1
 48
0.1
 75
     1
 76
     1
 78
     7
 79
     2
140
0.12
141
0.0
146
0.71
147
0.06
176
   256
177
   256
178
     2
274
     4
284
     7
340
3B8
371
    -1
372
    -1
  0
DIMSTYLE
105
7E5
330
3B1
100
AcDbSymbolTableRecord
100
AcDbDimStyleTableRecord
  2
AM_ANSI$SH
 70
     0
  4
mm
 41
0.1
 42
0.05
 43
0.5
 44
0.1
 47
0.1
 48
0.1
 75
     1
 76
     1
 78
     7
 79
     2
140
0.12
141
0.0
146
0.71
147
0.06
173
     1
176
   256
177
   256
178
     2
274
     4
284
     7
340
3B8
343
7E1
371
    -1
372
    -1
  0
ENDTAB
  0
TABLE
  2
BLOCK_RECORD
  5
3A8
330
0
100
AcDbSymbolTable
 70
     6
  0
BLOCK_RECORD
  5
3C5
102
{ACAD_XDICTIONARY
360
7E9
102
}
330
3A8
100
AcDbSymbolTableRecord
100
AcDbBlockTableRecord
  2
*Model_Space
340
3C8
  0
BLOCK_RECORD
  5
3C1
330
3A8
100
AcDbSymbolTableRecord
100
AcDbBlockTableRecord
  2
*Paper_Space
340
3C4
  0
BLOCK_RECORD
  5
3D0
330
3A8
100
AcDbSymbolTableRecord
100
AcDbBlockTableRecord
  2
$MODEL_SPACE
340
0
  0
BLOCK_RECORD
  5
3D3
330
3A8
100
AcDbSymbolTableRecord
100
AcDbBlockTableRecord
  2
$PAPER_SPACE
340
0
  0
BLOCK_RECORD
  5
3D6
330
3A8
100
AcDbSymbolTableRecord
100
AcDbBlockTableRecord
  2
A$C0C13436D
340
0
  0
BLOCK_RECORD
  5
7A1
330
3A8
100
AcDbSymbolTableRecord
100
AcDbBlockTableRecord
  2
*U3
340
0
  0
BLOCK_RECORD
  5
7E1
330
3A8
100
AcDbSymbolTableRecord
100
AcDbBlockTableRecord
  2
GENAXEH
340
0
  0
BLOCK_RECORD
  5
7FB
330
3A8
100
AcDbSymbolTableRecord
100
AcDbBlockTableRecord
  2
*D5
340
0
  0
ENDTAB
  0
ENDSEC
  0
SECTION
  2
BLOCKS
  0
BLOCK
  5
3C6
330
3C5
100
AcDbEntity
  8
0
100
AcDbBlockBegin
  2
*Model_Space
 70
     0
 10
0.0
 20
0.0
 30
0.0
  3
*Model_Space
  1

  0
ENDBLK
  5
3C7
330
3C5
100
AcDbEntity
  8
0
100
AcDbBlockEnd
  0
BLOCK
  5
3C2
330
3C1
100
AcDbEntity
 67
     1
  8
0
100
AcDbBlockBegin
  2
*Paper_Space
 70
     0
 10
0.0
 20
0.0
 30
0.0
  3
*Paper_Space
  1

  0
ENDBLK
  5
3C3
330
3C1
100
AcDbEntity
 67
     1
  8
0
100
AcDbBlockEnd
  0
BLOCK
  5
3D1
330
3D0
100
AcDbEntity
  8
0
100
AcDbBlockBegin
  2
$MODEL_SPACE
 70
     0
 10
0.0
 20
0.0
 30
0.0
  3
$MODEL_SPACE
  1

  0
ENDBLK
  5
3D2
330
3D0
100
AcDbEntity
  8
0
100
AcDbBlockEnd
  0
BLOCK
  5
3D4
330
3D3
100
AcDbEntity
  8
0
100
AcDbBlockBegin
  2
$PAPER_SPACE
 70
     0
 10
0.0
 20
0.0
 30
0.0
  3
$PAPER_SPACE
  1

  0
ENDBLK
  5
3D5
330
3D3
100
AcDbEntity
  8
0
100
AcDbBlockEnd
  0
BLOCK
  5
3D7
330
3D6
100
AcDbEntity
  8
0
100
AcDbBlockBegin
  2
A$C0C13436D
 70
     0
 10
0.0
 20
0.0
 30
0.0
  3
A$C0C13436D
  1

  0
ARC
  5
3D8
330
3D6
100
AcDbEntity
  8
0
100
AcDbCircle
 10
55.0
 20
38.004234
 30
0.0
 40
1.0
100
AcDbArc
 50
180.0
 51
285.0428009999999
  0
LINE
  5
3D9
330
3D6
100
AcDbEntity
  8
0
100
AcDbLine
 10
54.73933399999999
 20
55.69962
 30
0.0
 11
102.7393339999999
 21
68.65961999999999
 31
0.0
  0
LINE
  5
3DA
330
3D6
100
AcDbEntity
  8
1
100
AcDbLine
 10
8.0
 20
70.5
 30
0.0
 11
8.0
 21
0.0
 31
0.0
  0
LINE
  5
3DB
330
3D6
100
AcDbEntity
  8
0
100
AcDbLine
 10
14.0
 20
33.5
 30
0.0
 11
14.0
 21
37.26708099999999
 31
0.0
  0
LINE
  5
3DC
330
3D6
100
AcDbEntity
  8
0
100
AcDbLine
 10
2.0
 20
33.5
 30
0.0
 11
2.0
 21
37.26708099999999
 31
0.0
  0
LINE
  5
3DD
330
3D6
100
AcDbEntity
  8
0
100
AcDbLine
 10
5.0
 20
33.5
 30
0.0
 11
5.0
 21
4.0
 31
0.0
  0
LINE
  5
3DE
330
3D6
100
AcDbEntity
  8
0
100
AcDbLine
 10
5.5
 20
3.5
 30
0.0
 11
5.5
 21
32.5
 31
0.0
  0
LINE
  5
3DF
330
3D6
100
AcDbEntity
  8
0
100
AcDbLine
 10
10.5
 20
3.5
 30
0.0
 11
10.5
 21
32.5
 31
0.0
  0
LINE
  5
3E0
330
3D6
100
AcDbEntity
  8
0
100
AcDbLine
 10
11.0
 20
33.5
 30
0.0
 11
11.0
 21
4.0
 31
0.0
  0
LINE
  5
3E1
330
3D6
100
AcDbEntity
  8
0
100
AcDbLine
 10
10.5
 20
3.5
 30
0.0
 11
8.0
 21
3.5
 31
0.0
  0
LINE
  5
3E2
330
3D6
100
AcDbEntity
  8
0
100
AcDbLine
 10
11.0
 20
4.0
 30
0.0
 11
8.0
 21
4.0
 31
0.0
  0
LINE
  5
3E3
330
3D6
100
AcDbEntity
  8
0
100
AcDbLine
 10
5.5
 20
3.5
 30
0.0
 11
8.0
 21
3.5
 31
0.0
  0
LINE
  5
3E4
330
3D6
100
AcDbEntity
  8
0
100
AcDbLine
 10
5.0
 20
4.0
 30
0.0
 11
8.0
 21
4.0
 31
0.0
  0
LINE
  5
3E5
330
3D6
100
AcDbEntity
  8
0
100
AcDbLine
 10
5.0
 20
4.0
 30
0.0
 11
5.5
 21
3.5
 31
0.0
  0
LINE
  5
3E6
330
3D6
100
AcDbEntity
  8
0
100
AcDbLine
 10
11.0
 20
4.0
 30
0.0
 11
10.5
 21
3.5
 31
0.0
  0
LINE
  5
3E7
330
3D6
100
AcDbEntity
  8
0
100
AcDbLine
 10
11.0
 20
32.5
 30
0.0
 11
8.0
 21
32.5
 31
0.0
  0
LINE
  5
3E8
330
3D6
100
AcDbEntity
  8
0
100
AcDbLine
 10
8.0
 20
33.5
 30
0.0
 11
14.0
 21
33.5
 31
0.0
  0
LINE
  5
3E9
330
3D6
100
AcDbEntity
  8
0
100
AcDbLine
 10
8.0
 20
33.5
 30
0.0
 11
2.0
 21
33.5
 31
0.0
  0
LINE
  5
3EA
330
3D6
100
AcDbEntity
  8
0
100
AcDbLine
 10
5.0
 20
32.5
 30
0.0
 11
8.0
 21
32.5
 31
0.0
  0
LINE
  5
3EB
330
3D6
100
AcDbEntity
  8
0
100
AcDbLine
 10
16.0
 20
38.5
 30
0.0
 11
16.0
 21
57.5
 31
0.0
  0
ARC
  5
3EC
330
3D6
100
AcDbEntity
  8
0
100
AcDbCircle
 10
8.0
 20
65.0
 30
0.0
 40
8.5
100
AcDbArc
 50
241.9275129999999
 51
298.072487
  0
POLYLINE
  5
3ED
330
3D6
100
AcDbEntity
  8
0
100
AcDb3dPolyline
 66
     1
 10
0.0
 20
0.0
 30
0.0
 70
     8
  0
VERTEX
  5
3EE
330
3ED
100
AcDbEntity
  8
0
100
AcDbVertex
100
AcDb3dPolylineVertex
 10
0.267585
 20
58.0129
 30
0.0
 70
    32
  0
VERTEX
  5
3EF
330
3ED
100
AcDbEntity
  8
0
100
AcDbVertex
100
AcDb3dPolylineVertex
 10
0.212081
 20
57.9575
 30
0.0
 70
    32
  0
VERTEX
  5
3F0
330
3ED
100
AcDbEntity
  8
0
100
AcDbVertex
100
AcDb3dPolylineVertex
 10
0.162945
 20
57.9016
 30
0.0
 70
    32
  0
VERTEX
  5
3F1
330
3ED
100
AcDbEntity
  8
0
100
AcDbVertex
100
AcDb3dPolylineVertex
 10
0.120218
 20
57.84539999999999
 30
0.0
 70
    32
  0
VERTEX
  5
3F2
330
3ED
100
AcDbEntity
  8
0
100
AcDbVertex
100
AcDb3dPolylineVertex
 10
0.0839342
 20
57.789
 30
0.0
 70
    32
  0
VERTEX
  5
3F3
330
3ED
100
AcDbEntity
  8
0
100
AcDbVertex
100
AcDb3dPolylineVertex
 10
0.0541232
 20
57.7323
 30
0.0
 70
    32
  0
VERTEX
  5
3F4
330
3ED
100
AcDbEntity
  8
0
100
AcDbVertex
100
AcDb3dPolylineVertex
 10
0.0308095
 20
57.6754
 30
0.0
 70
    32
  0
VERTEX
  5
3F5
330
3ED
100
AcDbEntity
  8
0
100
AcDbVertex
100
AcDb3dPolylineVertex
 10
0.0140121
 20
57.61829999999999
 30
0.0
 70
    32
  0
VERTEX
  5
3F6
330
3ED
100
AcDbEntity
  8
0
100
AcDbVertex
100
AcDb3dPolylineVertex
 10
0.00374481
 20
57.5612
 30
0.0
 70
    32
  0
VERTEX
  5
3F7
330
3ED
100
AcDbEntity
  8
0
100
AcDbVertex
100
AcDb3dPolylineVertex
 10
0.0000160367
 20
57.50399999999999
 30
0.0
 70
    32
  0
VERTEX
  5
3F8
330
3ED
100
AcDbEntity
  8
0
100
AcDbVertex
100
AcDb3dPolylineVertex
 10
0.00282881
 20
57.4468
 30
0.0
 70
    32
  0
VERTEX
  5
3F9
330
3ED
100
AcDbEntity
  8
0
100
AcDbVertex
100
AcDb3dPolylineVertex
 10
0.0121808
 20
57.3897
 30
0.0
 70
    32
  0
VERTEX
  5
3FA
330
3ED
100
AcDbEntity
  8
0
100
AcDbVertex
100
AcDb3dPolylineVertex
 10
0.0280644
 20
57.3326
 30
0.0
 70
    32
  0
VERTEX
  5
3FB
330
3ED
100
AcDbEntity
  8
0
100
AcDbVertex
100
AcDb3dPolylineVertex
 10
0.0504667
 20
57.2757
 30
0.0
 70
    32
  0
VERTEX
  5
3FC
330
3ED
100
AcDbEntity
  8
0
100
AcDbVertex
100
AcDb3dPolylineVertex
 10
0.0793692
 20
57.219
 30
0.0
 70
    32
  0
VERTEX
  5
3FD
330
3ED
100
AcDbEntity
  8
0
100
AcDbVertex
100
AcDb3dPolylineVertex
 10
0.114748
 20
57.1625
 30
0.0
 70
    32
  0
VERTEX
  5
3FE
330
3ED
100
AcDbEntity
  8
0
100
AcDbVertex
100
AcDb3dPolylineVertex
 10
0.156575
 20
57.1062
 30
0.0
 70
    32
  0
VERTEX
  5
3FF
330
3ED
100
AcDbEntity
  8
0
100
AcDbVertex
100
AcDb3dPolylineVertex
 10
0.204816
 20
57.0503
 30
0.0
 70
    32
  0
VERTEX
  5
400
330
3ED
100
AcDbEntity
  8
0
100
AcDbVertex
100
AcDb3dPolylineVertex
 10
0.25943
 20
56.9948
 30
0.0
 70
    32
  0
VERTEX
  5
401
330
3ED
100
AcDbEntity
  8
0
100
AcDbVertex
100
AcDb3dPolylineVertex
 10
0.320374
 20
56.9397
 30
0.0
 70
    32
  0
VERTEX
  5
402
330
3ED
100
AcDbEntity
  8
0
100
AcDbVertex
100
AcDb3dPolylineVertex
 10
0.387598
 20
56.885
 30
0.0
 70
    32
  0
VERTEX
  5
403
330
3ED
100
AcDbEntity
  8
0
100
AcDbVertex
100
AcDb3dPolylineVertex
 10
0.461046
 20
56.83089999999999
 30
0.0
 70
    32
  0
VERTEX
  5
404
330
3ED
100
AcDbEntity
  8
0
100
AcDbVertex
100
AcDb3dPolylineVertex
 10
0.540659
 20
56.7772
 30
0.0
 70
    32
  0
VERTEX
  5
405
330
3ED
100
AcDbEntity
  8
0
100
AcDbVertex
100
AcDb3dPolylineVertex
 10
0.626371
 20
56.7242
 30
0.0
 70
    32
  0
VERTEX
  5
406
330
3ED
100
AcDbEntity
  8
0
100
AcDbVertex
100
AcDb3dPolylineVertex
 10
0.718112
 20
56.6718
 30
0.0
 70
    32
  0
VERTEX
  5
407
330
3ED
100
AcDbEntity
  8
0
100
AcDbVertex
100
AcDb3dPolylineVertex
 10
0.8158079999999999
 20
56.6201
 30
0.0
 70
    32
  0
VERTEX
  5
408
330
3ED
100
AcDbEntity
  8
0
100
AcDbVertex
100
AcDb3dPolylineVertex
 10
0.9193789999999999
 20
56.56909999999999
 30
0.0
 70
    32
  0
VERTEX
  5
409
330
3ED
100
AcDbEntity
  8
0
100
AcDbVertex
100
AcDb3dPolylineVertex
 10
1.028739999999999
 20
56.5189
 30
0.0
 70
    32
  0
VERTEX
  5
40A
330
3ED
100
AcDbEntity
  8
0
100
AcDbVertex
100
AcDb3dPolylineVertex
 10
1.143799999999999
 20
56.4695
 30
0.0
 70
    32
  0
VERTEX
  5
40B
330
3ED
100
AcDbEntity
  8
0
100
AcDbVertex
100
AcDb3dPolylineVertex
 10
1.264469999999999
 20
56.4209
 30
0.0
 70
    32
  0
VERTEX
  5
40C
330
3ED
100
AcDbEntity
  8
0
100
AcDbVertex
100
AcDb3dPolylineVertex
 10
1.390639999999999
 20
56.37319999999999
 30
0.0
 70
    32
  0
VERTEX
  5
40D
330
3ED
100
AcDbEntity
  8
0
100
AcDbVertex
100
AcDb3dPolylineVertex
 10
1.52222
 20
56.3264
 30
0.0
 70
    32
  0
VERTEX
  5
40E
330
3ED
100
AcDbEntity
  8
0
100
AcDbVertex
100
AcDb3dPolylineVertex
 10
1.6591
 20
56.2806
 30
0.0
 70
    32
  0
VERTEX
  5
40F
330
3ED
100
AcDbEntity
  8
0
100
AcDbVertex
100
AcDb3dPolylineVertex
 10
1.801159999999999
 20
56.2357
 30
0.0
 70
    32
  0
VERTEX
  5
410
330
3ED
100
AcDbEntity
  8
0
100
AcDbVertex
100
AcDb3dPolylineVertex
 10
1.94829
 20
56.19189999999999
 30
0.0
 70
    32
  0
VERTEX
  5
411
330
3ED
100
AcDbEntity
  8
0
100
AcDbVertex
100
AcDb3dPolylineVertex
 10
2.100359999999999
 20
56.1492
 30
0.0
 70
    32
  0
VERTEX
  5
412
330
3ED
100
AcDbEntity
  8
0
100
AcDbVertex
100
AcDb3dPolylineVertex
 10
2.25727
 20
56.10759999999999
 30
0.0
 70
    32
  0
VERTEX
  5
413
330
3ED
100
AcDbEntity
  8
0
100
AcDbVertex
100
AcDb3dPolylineVertex
 10
2.41886
 20
56.0671
 30
0.0
 70
    32
  0
VERTEX
  5
414
330
3ED
100
AcDbEntity
  8
0
100
AcDbVertex
100
AcDb3dPolylineVertex
 10
2.58502
 20
56.0278
 30
0.0
 70
    32
  0
VERTEX
  5
415
330
3ED
100
AcDbEntity
  8
0
100
AcDbVertex
100
AcDb3dPolylineVertex
 10
2.755609999999999
 20
55.9897
 30
0.0
 70
    32
  0
VERTEX
  5
416
330
3ED
100
AcDbEntity
  8
0
100
AcDbVertex
100
AcDb3dPolylineVertex
 10
2.93049
 20
55.9528
 30
0.0
 70
    32
  0
VERTEX
  5
417
330
3ED
100
AcDbEntity
  8
0
100
AcDbVertex
100
AcDb3dPolylineVertex
 10
3.109509999999999
 20
55.9172
 30
0.0
 70
    32
  0
VERTEX
  5
418
330
3ED
100
AcDbEntity
  8
0
100
AcDbVertex
100
AcDb3dPolylineVertex
 10
3.29254
 20
55.8829
 30
0.0
 70
    32
  0
VERTEX
  5
419
330
3ED
100
AcDbEntity
  8
0
100
AcDbVertex
100
AcDb3dPolylineVertex
 10
3.479409999999999
 20
55.8499
 30
0.0
 70
    32
  0
VERTEX
  5
41A
330
3ED
100
AcDbEntity
  8
0
100
AcDbVertex
100
AcDb3dPolylineVertex
 10
3.669969999999999
 20
55.8183
 30
0.0
 70
    32
  0
VERTEX
  5
41B
330
3ED
100
AcDbEntity
  8
0
100
AcDbVertex
100
AcDb3dPolylineVertex
 10
3.86408
 20
55.788
 30
0.0
 70
    32
  0
VERTEX
  5
41C
330
3ED
100
AcDbEntity
  8
0
100
AcDbVertex
100
AcDb3dPolylineVertex
 10
4.061569999999999
 20
55.75919999999999
 30
0.0
 70
    32
  0
VERTEX
  5
41D
330
3ED
100
AcDbEntity
  8
0
100
AcDbVertex
100
AcDb3dPolylineVertex
 10
4.26228
 20
55.7317
 30
0.0
 70
    32
  0
VERTEX
  5
41E
330
3ED
100
AcDbEntity
  8
0
100
AcDbVertex
100
AcDb3dPolylineVertex
 10
4.46605
 20
55.7057
 30
0.0
 70
    32
  0
VERTEX
  5
41F
330
3ED
100
AcDbEntity
  8
0
100
AcDbVertex
100
AcDb3dPolylineVertex
 10
4.672709999999999
 20
55.6812
 30
0.0
 70
    32
  0
VERTEX
  5
420
330
3ED
100
AcDbEntity
  8
0
100
AcDbVertex
100
AcDb3dPolylineVertex
 10
4.88208
 20
55.65809999999999
 30
0.0
 70
    32
  0
VERTEX
  5
421
330
3ED
100
AcDbEntity
  8
0
100
AcDbVertex
100
AcDb3dPolylineVertex
 10
5.094009999999999
 20
55.6366
 30
0.0
 70
    32
  0
VERTEX
  5
422
330
3ED
100
AcDbEntity
  8
0
100
AcDbVertex
100
AcDb3dPolylineVertex
 10
5.308309999999999
 20
55.61659999999999
 30
0.0
 70
    32
  0
VERTEX
  5
423
330
3ED
100
AcDbEntity
  8
0
100
AcDbVertex
100
AcDb3dPolylineVertex
 10
5.52482
 20
55.5981
 30
0.0
 70
    32
  0
VERTEX
  5
424
330
3ED
100
AcDbEntity
  8
0
100
AcDbVertex
100
AcDb3dPolylineVertex
 10
5.74335
 20
55.5812
 30
0.0
 70
    32
  0
VERTEX
  5
425
330
3ED
100
AcDbEntity
  8
0
100
AcDbVertex
100
AcDb3dPolylineVertex
 10
5.963719999999999
 20
55.56589999999999
 30
0.0
 70
    32
  0
VERTEX
  5
426
330
3ED
100
AcDbEntity
  8
0
100
AcDbVertex
100
AcDb3dPolylineVertex
 10
6.18576
 20
55.5521
 30
0.0
 70
    32
  0
VERTEX
  5
427
330
3ED
100
AcDbEntity
  8
0
100
AcDbVertex
100
AcDb3dPolylineVertex
 10
6.409279999999999
 20
55.5399
 30
0.0
 70
    32
  0
VERTEX
  5
428
330
3ED
100
AcDbEntity
  8
0
100
AcDbVertex
100
AcDb3dPolylineVertex
 10
6.6341
 20
55.5294
 30
0.0
 70
    32
  0
VERTEX
  5
429
330
3ED
100
AcDbEntity
  8
0
100
AcDbVertex
100
AcDb3dPolylineVertex
 10
6.860039999999999
 20
55.5204
 30
0.0
 70
    32
  0
VERTEX
  5
42A
330
3ED
100
AcDbEntity
  8
0
100
AcDbVertex
100
AcDb3dPolylineVertex
 10
7.08691
 20
55.5131
 30
0.0
 70
    32
  0
VERTEX
  5
42B
330
3ED
100
AcDbEntity
  8
0
100
AcDbVertex
100
AcDb3dPolylineVertex
 10
7.31453
 20
55.5074
 30
0.0
 70
    32
  0
VERTEX
  5
42C
330
3ED
100
AcDbEntity
  8
0
100
AcDbVertex
100
AcDb3dPolylineVertex
 10
7.54271
 20
55.5033
 30
0.0
 70
    32
  0
VERTEX
  5
42D
330
3ED
100
AcDbEntity
  8
0
100
AcDbVertex
100
AcDb3dPolylineVertex
 10
7.77126
 20
55.5008
 30
0.0
 70
    32
  0
VERTEX
  5
42E
330
3ED
100
AcDbEntity
  8
0
100
AcDbVertex
100
AcDb3dPolylineVertex
 10
8.0
 20
55.5
 30
0.0
 70
    32
  0
VERTEX
  5
42F
330
3ED
100
AcDbEntity
  8
0
100
AcDbVertex
100
AcDb3dPolylineVertex
 10
8.22874
 20
55.5008
 30
0.0
 70
    32
  0
VERTEX
  5
430
330
3ED
100
AcDbEntity
  8
0
100
AcDbVertex
100
AcDb3dPolylineVertex
 10
8.457289999999998
 20
55.5033
 30
0.0
 70
    32
  0
VERTEX
  5
431
330
3ED
100
AcDbEntity
  8
0
100
AcDbVertex
100
AcDb3dPolylineVertex
 10
8.68547
 20
55.5074
 30
0.0
 70
    32
  0
VERTEX
  5
432
330
3ED
100
AcDbEntity
  8
0
100
AcDbVertex
100
AcDb3dPolylineVertex
 10
8.913089999999998
 20
55.5131
 30
0.0
 70
    32
  0
VERTEX
  5
433
330
3ED
100
AcDbEntity
  8
0
100
AcDbVertex
100
AcDb3dPolylineVertex
 10
9.13996
 20
55.5204
 30
0.0
 70
    32
  0
VERTEX
  5
434
330
3ED
100
AcDbEntity
  8
0
100
AcDbVertex
100
AcDb3dPolylineVertex
 10
9.365899999999999
 20
55.5294
 30
0.0
 70
    32
  0
VERTEX
  5
435
330
3ED
100
AcDbEntity
  8
0
100
AcDbVertex
100
AcDb3dPolylineVertex
 10
9.590719999999999
 20
55.5399
 30
0.0
 70
    32
  0
VERTEX
  5
436
330
3ED
100
AcDbEntity
  8
0
100
AcDbVertex
100
AcDb3dPolylineVertex
 10
9.814239999999999
 20
55.5521
 30
0.0
 70
    32
  0
VERTEX
  5
437
330
3ED
100
AcDbEntity
  8
0
100
AcDbVertex
100
AcDb3dPolylineVertex
 10
10.0363
 20
55.56589999999999
 30
0.0
 70
    32
  0
VERTEX
  5
438
330
3ED
100
AcDbEntity
  8
0
100
AcDbVertex
100
AcDb3dPolylineVertex
 10
10.2567
 20
55.5812
 30
0.0
 70
    32
  0
VERTEX
  5
439
330
3ED
100
AcDbEntity
  8
0
100
AcDbVertex
100
AcDb3dPolylineVertex
 10
10.4752
 20
55.5981
 30
0.0
 70
    32
  0
VERTEX
  5
43A
330
3ED
100
AcDbEntity
  8
0
100
AcDbVertex
100
AcDb3dPolylineVertex
 10
10.6917
 20
55.61659999999999
 30
0.0
 70
    32
  0
VERTEX
  5
43B
330
3ED
100
AcDbEntity
  8
0
100
AcDbVertex
100
AcDb3dPolylineVertex
 10
10.906
 20
55.6366
 30
0.0
 70
    32
  0
VERTEX
  5
43C
330
3ED
100
AcDbEntity
  8
0
100
AcDbVertex
100
AcDb3dPolylineVertex
 10
11.1179
 20
55.65809999999999
 30
0.0
 70
    32
  0
VERTEX
  5
43D
330
3ED
100
AcDbEntity
  8
0
100
AcDbVertex
100
AcDb3dPolylineVertex
 10
11.3273
 20
55.6812
 30
0.0
 70
    32
  0
VERTEX
  5
43E
330
3ED
100
AcDbEntity
  8
0
100
AcDbVertex
100
AcDb3dPolylineVertex
 10
11.53389999999999
 20
55.7057
 30
0.0
 70
    32
  0
VERTEX
  5
43F
330
3ED
100
AcDbEntity
  8
0
100
AcDbVertex
100
AcDb3dPolylineVertex
 10
11.73769999999999
 20
55.7317
 30
0.0
 70
    32
  0
VERTEX
  5
440
330
3ED
100
AcDbEntity
  8
0
100
AcDbVertex
100
AcDb3dPolylineVertex
 10
11.9384
 20
55.75919999999999
 30
0.0
 70
    32
  0
VERTEX
  5
441
330
3ED
100
AcDbEntity
  8
0
100
AcDbVertex
100
AcDb3dPolylineVertex
 10
12.13589999999999
 20
55.788
 30
0.0
 70
    32
  0
VERTEX
  5
442
330
3ED
100
AcDbEntity
  8
0
100
AcDbVertex
100
AcDb3dPolylineVertex
 10
12.33
 20
55.8183
 30
0.0
 70
    32
  0
VERTEX
  5
443
330
3ED
100
AcDbEntity
  8
0
100
AcDbVertex
100
AcDb3dPolylineVertex
 10
12.5206
 20
55.8499
 30
0.0
 70
    32
  0
VERTEX
  5
444
330
3ED
100
AcDbEntity
  8
0
100
AcDbVertex
100
AcDb3dPolylineVertex
 10
12.7075
 20
55.8829
 30
0.0
 70
    32
  0
VERTEX
  5
445
330
3ED
100
AcDbEntity
  8
0
100
AcDbVertex
100
AcDb3dPolylineVertex
 10
12.8905
 20
55.9172
 30
0.0
 70
    32
  0
VERTEX
  5
446
330
3ED
100
AcDbEntity
  8
0
100
AcDbVertex
100
AcDb3dPolylineVertex
 10
13.0695
 20
55.9528
 30
0.0
 70
    32
  0
VERTEX
  5
447
330
3ED
100
AcDbEntity
  8
0
100
AcDbVertex
100
AcDb3dPolylineVertex
 10
13.2444
 20
55.9897
 30
0.0
 70
    32
  0
VERTEX
  5
448
330
3ED
100
AcDbEntity
  8
0
100
AcDbVertex
100
AcDb3dPolylineVertex
 10
13.41499999999999
 20
56.0278
 30
0.0
 70
    32
  0
VERTEX
  5
449
330
3ED
100
AcDbEntity
  8
0
100
AcDbVertex
100
AcDb3dPolylineVertex
 10
13.58109999999999
 20
56.0671
 30
0.0
 70
    32
  0
VERTEX
  5
44A
330
3ED
100
AcDbEntity
  8
0
100
AcDbVertex
100
AcDb3dPolylineVertex
 10
13.7427
 20
56.10759999999999
 30
0.0
 70
    32
  0
VERTEX
  5
44B
330
3ED
100
AcDbEntity
  8
0
100
AcDbVertex
100
AcDb3dPolylineVertex
 10
13.8996
 20
56.1492
 30
0.0
 70
    32
  0
VERTEX
  5
44C
330
3ED
100
AcDbEntity
  8
0
100
AcDbVertex
100
AcDb3dPolylineVertex
 10
14.0517
 20
56.19189999999999
 30
0.0
 70
    32
  0
VERTEX
  5
44D
330
3ED
100
AcDbEntity
  8
0
100
AcDbVertex
100
AcDb3dPolylineVertex
 10
14.1988
 20
56.2357
 30
0.0
 70
    32
  0
VERTEX
  5
44E
330
3ED
100
AcDbEntity
  8
0
100
AcDbVertex
100
AcDb3dPolylineVertex
 10
14.3409
 20
56.2806
 30
0.0
 70
    32
  0
VERTEX
  5
44F
330
3ED
100
AcDbEntity
  8
0
100
AcDbVertex
100
AcDb3dPolylineVertex
 10
14.4778
 20
56.3264
 30
0.0
 70
    32
  0
VERTEX
  5
450
330
3ED
100
AcDbEntity
  8
0
100
AcDbVertex
100
AcDb3dPolylineVertex
 10
14.6094
 20
56.37319999999999
 30
0.0
 70
    32
  0
VERTEX
  5
451
330
3ED
100
AcDbEntity
  8
0
100
AcDbVertex
100
AcDb3dPolylineVertex
 10
14.7355
 20
56.4209
 30
0.0
 70
    32
  0
VERTEX
  5
452
330
3ED
100
AcDbEntity
  8
0
100
AcDbVertex
100
AcDb3dPolylineVertex
 10
14.85619999999999
 20
56.4695
 30
0.0
 70
    32
  0
VERTEX
  5
453
330
3ED
100
AcDbEntity
  8
0
100
AcDbVertex
100
AcDb3dPolylineVertex
 10
14.9713
 20
56.5189
 30
0.0
 70
    32
  0
VERTEX
  5
454
330
3ED
100
AcDbEntity
  8
0
100
AcDbVertex
100
AcDb3dPolylineVertex
 10
15.0806
 20
56.56909999999999
 30
0.0
 70
    32
  0
VERTEX
  5
455
330
3ED
100
AcDbEntity
  8
0
100
AcDbVertex
100
AcDb3dPolylineVertex
 10
15.1842
 20
56.6201
 30
0.0
 70
    32
  0
VERTEX
  5
456
330
3ED
100
AcDbEntity
  8
0
100
AcDbVertex
100
AcDb3dPolylineVertex
 10
15.2819
 20
56.6718
 30
0.0
 70
    32
  0
VERTEX
  5
457
330
3ED
100
AcDbEntity
  8
0
100
AcDbVertex
100
AcDb3dPolylineVertex
 10
15.3736
 20
56.7242
 30
0.0
 70
    32
  0
VERTEX
  5
458
330
3ED
100
AcDbEntity
  8
0
100
AcDbVertex
100
AcDb3dPolylineVertex
 10
15.4593
 20
56.7772
 30
0.0
 70
    32
  0
VERTEX
  5
459
330
3ED
100
AcDbEntity
  8
0
100
AcDbVertex
100
AcDb3dPolylineVertex
 10
15.539
 20
56.83089999999999
 30
0.0
 70
    32
  0
VERTEX
  5
45A
330
3ED
100
AcDbEntity
  8
0
100
AcDbVertex
100
AcDb3dPolylineVertex
 10
15.61239999999999
 20
56.885
 30
0.0
 70
    32
  0
VERTEX
  5
45B
330
3ED
100
AcDbEntity
  8
0
100
AcDbVertex
100
AcDb3dPolylineVertex
 10
15.6796
 20
56.9397
 30
0.0
 70
    32
  0
VERTEX
  5
45C
330
3ED
100
AcDbEntity
  8
0
100
AcDbVertex
100
AcDb3dPolylineVertex
 10
15.7406
 20
56.9948
 30
0.0
 70
    32
  0
VERTEX
  5
45D
330
3ED
100
AcDbEntity
  8
0
100
AcDbVertex
100
AcDb3dPolylineVertex
 10
15.7952
 20
57.0503
 30
0.0
 70
    32
  0
VERTEX
  5
45E
330
3ED
100
AcDbEntity
  8
0
100
AcDbVertex
100
AcDb3dPolylineVertex
 10
15.8434
 20
57.1062
 30
0.0
 70
    32
  0
VERTEX
  5
45F
330
3ED
100
AcDbEntity
  8
0
100
AcDbVertex
100
AcDb3dPolylineVertex
 10
15.8853
 20
57.1625
 30
0.0
 70
    32
  0
VERTEX
  5
460
330
3ED
100
AcDbEntity
  8
0
100
AcDbVertex
100
AcDb3dPolylineVertex
 10
15.9206
 20
57.219
 30
0.0
 70
    32
  0
VERTEX
  5
461
330
3ED
100
AcDbEntity
  8
0
100
AcDbVertex
100
AcDb3dPolylineVertex
 10
15.9495
 20
57.2757
 30
0.0
 70
    32
  0
VERTEX
  5
462
330
3ED
100
AcDbEntity
  8
0
100
AcDbVertex
100
AcDb3dPolylineVertex
 10
15.9719
 20
57.3326
 30
0.0
 70
    32
  0
VERTEX
  5
463
330
3ED
100
AcDbEntity
  8
0
100
AcDbVertex
100
AcDb3dPolylineVertex
 10
15.9878
 20
57.3897
 30
0.0
 70
    32
  0
VERTEX
  5
464
330
3ED
100
AcDbEntity
  8
0
100
AcDbVertex
100
AcDb3dPolylineVertex
 10
15.9972
 20
57.4468
 30
0.0
 70
    32
  0
VERTEX
  5
465
330
3ED
100
AcDbEntity
  8
0
100
AcDbVertex
100
AcDb3dPolylineVertex
 10
16.0
 20
57.50399999999999
 30
0.0
 70
    32
  0
VERTEX
  5
466
330
3ED
100
AcDbEntity
  8
0
100
AcDbVertex
100
AcDb3dPolylineVertex
 10
15.9963
 20
57.5612
 30
0.0
 70
    32
  0
VERTEX
  5
467
330
3ED
100
AcDbEntity
  8
0
100
AcDbVertex
100
AcDb3dPolylineVertex
 10
15.986
 20
57.61829999999999
 30
0.0
 70
    32
  0
VERTEX
  5
468
330
3ED
100
AcDbEntity
  8
0
100
AcDbVertex
100
AcDb3dPolylineVertex
 10
15.9692
 20
57.6754
 30
0.0
 70
    32
  0
VERTEX
  5
469
330
3ED
100
AcDbEntity
  8
0
100
AcDbVertex
100
AcDb3dPolylineVertex
 10
15.9459
 20
57.7323
 30
0.0
 70
    32
  0
VERTEX
  5
46A
330
3ED
100
AcDbEntity
  8
0
100
AcDbVertex
100
AcDb3dPolylineVertex
 10
15.9161
 20
57.789
 30
0.0
 70
    32
  0
VERTEX
  5
46B
330
3ED
100
AcDbEntity
  8
0
100
AcDbVertex
100
AcDb3dPolylineVertex
 10
15.87979999999999
 20
57.84539999999999
 30
0.0
 70
    32
  0
VERTEX
  5
46C
330
3ED
100
AcDbEntity
  8
0
100
AcDbVertex
100
AcDb3dPolylineVertex
 10
15.83709999999999
 20
57.9016
 30
0.0
 70
    32
  0
VERTEX
  5
46D
330
3ED
100
AcDbEntity
  8
0
100
AcDbVertex
100
AcDb3dPolylineVertex
 10
15.7879
 20
57.9575
 30
0.0
 70
    32
  0
VERTEX
  5
46E
330
3ED
100
AcDbEntity
  8
0
100
AcDbVertex
100
AcDb3dPolylineVertex
 10
15.7324
 20
58.0129
 30
0.0
 70
    32
  0
SEQEND
  5
46F
330
3ED
100
AcDbEntity
  8
0
  0
LINE
  5
470
330
3D6
100
AcDbEntity
  8
0
100
AcDbLine
 10
0.0
 20
38.5
 30
0.0
 11
0.0
 21
57.5
 31
0.0
  0
POLYLINE
  5
471
330
3D6
100
AcDbEntity
  8
0
100
AcDb3dPolyline
 66
     1
 10
0.0
 20
0.0
 30
0.0
 70
     8
  0
VERTEX
  5
472
330
471
100
AcDbEntity
  8
0
100
AcDbVertex
100
AcDb3dPolylineVertex
 10
0.0
 20
38.5
 30
0.0
 70
    32
  0
VERTEX
  5
473
330
471
100
AcDbEntity
  8
0
100
AcDbVertex
100
AcDb3dPolylineVertex
 10
0.00240945
 20
38.4543
 30
0.0
 70
    32
  0
VERTEX
  5
474
330
471
100
AcDbEntity
  8
0
100
AcDbVertex
100
AcDb3dPolylineVertex
 10
0.00963635
 20
38.40849999999999
 30
0.0
 70
    32
  0
VERTEX
  5
475
330
471
100
AcDbEntity
  8
0
100
AcDbVertex
100
AcDb3dPolylineVertex
 10
0.0216763
 20
38.3629
 30
0.0
 70
    32
  0
VERTEX
  5
476
330
471
100
AcDbEntity
  8
0
100
AcDbVertex
100
AcDb3dPolylineVertex
 10
0.0385222
 20
38.3173
 30
0.0
 70
    32
  0
VERTEX
  5
477
330
471
100
AcDbEntity
  8
0
100
AcDbVertex
100
AcDb3dPolylineVertex
 10
0.0601637
 20
38.2718
 30
0.0
 70
    32
  0
VERTEX
  5
478
330
471
100
AcDbEntity
  8
0
100
AcDbVertex
100
AcDb3dPolylineVertex
 10
0.0865879
 20
38.2265
 30
0.0
 70
    32
  0
VERTEX
  5
479
330
471
100
AcDbEntity
  8
0
100
AcDbVertex
100
AcDb3dPolylineVertex
 10
0.117779
 20
38.1813
 30
0.0
 70
    32
  0
VERTEX
  5
47A
330
471
100
AcDbEntity
  8
0
100
AcDbVertex
100
AcDb3dPolylineVertex
 10
0.153718
 20
38.1364
 30
0.0
 70
    32
  0
VERTEX
  5
47B
330
471
100
AcDbEntity
  8
0
100
AcDbVertex
100
AcDb3dPolylineVertex
 10
0.194383
 20
38.0916
 30
0.0
 70
    32
  0
VERTEX
  5
47C
330
471
100
AcDbEntity
  8
0
100
AcDbVertex
100
AcDb3dPolylineVertex
 10
0.23975
 20
38.0471
 30
0.0
 70
    32
  0
VERTEX
  5
47D
330
471
100
AcDbEntity
  8
0
100
AcDbVertex
100
AcDb3dPolylineVertex
 10
0.2897909999999999
 20
38.0028
 30
0.0
 70
    32
  0
VERTEX
  5
47E
330
471
100
AcDbEntity
  8
0
100
AcDbVertex
100
AcDb3dPolylineVertex
 10
0.344477
 20
37.95889999999999
 30
0.0
 70
    32
  0
VERTEX
  5
47F
330
471
100
AcDbEntity
  8
0
100
AcDbVertex
100
AcDb3dPolylineVertex
 10
0.403775
 20
37.9153
 30
0.0
 70
    32
  0
VERTEX
  5
480
330
471
100
AcDbEntity
  8
0
100
AcDbVertex
100
AcDb3dPolylineVertex
 10
0.4676470000000001
 20
37.872
 30
0.0
 70
    32
  0
VERTEX
  5
481
330
471
100
AcDbEntity
  8
0
100
AcDbVertex
100
AcDb3dPolylineVertex
 10
0.5360580000000001
 20
37.8292
 30
0.0
 70
    32
  0
VERTEX
  5
482
330
471
100
AcDbEntity
  8
0
100
AcDbVertex
100
AcDb3dPolylineVertex
 10
0.6089640000000001
 20
37.7867
 30
0.0
 70
    32
  0
VERTEX
  5
483
330
471
100
AcDbEntity
  8
0
100
AcDbVertex
100
AcDb3dPolylineVertex
 10
0.686322
 20
37.74459999999999
 30
0.0
 70
    32
  0
VERTEX
  5
484
330
471
100
AcDbEntity
  8
0
100
AcDbVertex
100
AcDb3dPolylineVertex
 10
0.768086
 20
37.703
 30
0.0
 70
    32
  0
VERTEX
  5
485
330
471
100
AcDbEntity
  8
0
100
AcDbVertex
100
AcDb3dPolylineVertex
 10
0.8542059999999999
 20
37.6619
 30
0.0
 70
    32
  0
VERTEX
  5
486
330
471
100
AcDbEntity
  8
0
100
AcDbVertex
100
AcDb3dPolylineVertex
 10
0.9446299999999999
 20
37.62129999999999
 30
0.0
 70
    32
  0
VERTEX
  5
487
330
471
100
AcDbEntity
  8
0
100
AcDbVertex
100
AcDb3dPolylineVertex
 10
1.039299999999999
 20
37.5812
 30
0.0
 70
    32
  0
VERTEX
  5
488
330
471
100
AcDbEntity
  8
0
100
AcDbVertex
100
AcDb3dPolylineVertex
 10
1.13817
 20
37.5417
 30
0.0
 70
    32
  0
VERTEX
  5
489
330
471
100
AcDbEntity
  8
0
100
AcDbVertex
100
AcDb3dPolylineVertex
 10
1.24117
 20
37.5028
 30
0.0
 70
    32
  0
VERTEX
  5
48A
330
471
100
AcDbEntity
  8
0
100
AcDbVertex
100
AcDb3dPolylineVertex
 10
1.348239999999999
 20
37.46439999999999
 30
0.0
 70
    32
  0
VERTEX
  5
48B
330
471
100
AcDbEntity
  8
0
100
AcDbVertex
100
AcDb3dPolylineVertex
 10
1.45932
 20
37.42669999999999
 30
0.0
 70
    32
  0
VERTEX
  5
48C
330
471
100
AcDbEntity
  8
0
100
AcDbVertex
100
AcDb3dPolylineVertex
 10
1.57434
 20
37.3896
 30
0.0
 70
    32
  0
VERTEX
  5
48D
330
471
100
AcDbEntity
  8
0
100
AcDbVertex
100
AcDb3dPolylineVertex
 10
1.693229999999999
 20
37.3532
 30
0.0
 70
    32
  0
VERTEX
  5
48E
330
471
100
AcDbEntity
  8
0
100
AcDbVertex
100
AcDb3dPolylineVertex
 10
1.81592
 20
37.3175
 30
0.0
 70
    32
  0
VERTEX
  5
48F
330
471
100
AcDbEntity
  8
0
100
AcDbVertex
100
AcDb3dPolylineVertex
 10
1.942329999999999
 20
37.2825
 30
0.0
 70
    32
  0
VERTEX
  5
490
330
471
100
AcDbEntity
  8
0
100
AcDbVertex
100
AcDb3dPolylineVertex
 10
2.072389999999999
 20
37.24819999999999
 30
0.0
 70
    32
  0
VERTEX
  5
491
330
471
100
AcDbEntity
  8
0
100
AcDbVertex
100
AcDb3dPolylineVertex
 10
2.20602
 20
37.2147
 30
0.0
 70
    32
  0
VERTEX
  5
492
330
471
100
AcDbEntity
  8
0
100
AcDbVertex
100
AcDb3dPolylineVertex
 10
2.34315
 20
37.182
 30
0.0
 70
    32
  0
VERTEX
  5
493
330
471
100
AcDbEntity
  8
0
100
AcDbVertex
100
AcDb3dPolylineVertex
 10
2.48368
 20
37.14999999999999
 30
0.0
 70
    32
  0
VERTEX
  5
494
330
471
100
AcDbEntity
  8
0
100
AcDbVertex
100
AcDb3dPolylineVertex
 10
2.62753
 20
37.11889999999999
 30
0.0
 70
    32
  0
VERTEX
  5
495
330
471
100
AcDbEntity
  8
0
100
AcDbVertex
100
AcDb3dPolylineVertex
 10
2.77462
 20
37.0886
 30
0.0
 70
    32
  0
VERTEX
  5
496
330
471
100
AcDbEntity
  8
0
100
AcDbVertex
100
AcDb3dPolylineVertex
 10
2.92485
 20
37.0591
 30
0.0
 70
    32
  0
VERTEX
  5
497
330
471
100
AcDbEntity
  8
0
100
AcDbVertex
100
AcDb3dPolylineVertex
 10
3.078149999999999
 20
37.0305
 30
0.0
 70
    32
  0
VERTEX
  5
498
330
471
100
AcDbEntity
  8
0
100
AcDbVertex
100
AcDb3dPolylineVertex
 10
3.23441
 20
37.0028
 30
0.0
 70
    32
  0
VERTEX
  5
499
330
471
100
AcDbEntity
  8
0
100
AcDbVertex
100
AcDb3dPolylineVertex
 10
3.39353
 20
36.97599999999999
 30
0.0
 70
    32
  0
VERTEX
  5
49A
330
471
100
AcDbEntity
  8
0
100
AcDbVertex
100
AcDb3dPolylineVertex
 10
3.555439999999999
 20
36.95009999999999
 30
0.0
 70
    32
  0
VERTEX
  5
49B
330
471
100
AcDbEntity
  8
0
100
AcDbVertex
100
AcDb3dPolylineVertex
 10
3.720019999999999
 20
36.9252
 30
0.0
 70
    32
  0
VERTEX
  5
49C
330
471
100
AcDbEntity
  8
0
100
AcDbVertex
100
AcDb3dPolylineVertex
 10
3.88718
 20
36.9012
 30
0.0
 70
    32
  0
VERTEX
  5
49D
330
471
100
AcDbEntity
  8
0
100
AcDbVertex
100
AcDb3dPolylineVertex
 10
4.056809999999999
 20
36.8782
 30
0.0
 70
    32
  0
VERTEX
  5
49E
330
471
100
AcDbEntity
  8
0
100
AcDbVertex
100
AcDb3dPolylineVertex
 10
4.22883
 20
36.8561
 30
0.0
 70
    32
  0
VERTEX
  5
49F
330
471
100
AcDbEntity
  8
0
100
AcDbVertex
100
AcDb3dPolylineVertex
 10
4.403109999999999
 20
36.835
 30
0.0
 70
    32
  0
VERTEX
  5
4A0
330
471
100
AcDbEntity
  8
0
100
AcDbVertex
100
AcDb3dPolylineVertex
 10
4.579559999999999
 20
36.81499999999999
 30
0.0
 70
    32
  0
VERTEX
  5
4A1
330
471
100
AcDbEntity
  8
0
100
AcDbVertex
100
AcDb3dPolylineVertex
 10
4.75807
 20
36.7959
 30
0.0
 70
    32
  0
VERTEX
  5
4A2
330
471
100
AcDbEntity
  8
0
100
AcDbVertex
100
AcDb3dPolylineVertex
 10
4.93853
 20
36.7779
 30
0.0
 70
    32
  0
VERTEX
  5
4A3
330
471
100
AcDbEntity
  8
0
100
AcDbVertex
100
AcDb3dPolylineVertex
 10
5.12084
 20
36.7609
 30
0.0
 70
    32
  0
VERTEX
  5
4A4
330
471
100
AcDbEntity
  8
0
100
AcDbVertex
100
AcDb3dPolylineVertex
 10
5.30488
 20
36.745
 30
0.0
 70
    32
  0
VERTEX
  5
4A5
330
471
100
AcDbEntity
  8
0
100
AcDbVertex
100
AcDb3dPolylineVertex
 10
5.490549999999999
 20
36.7301
 30
0.0
 70
    32
  0
VERTEX
  5
4A6
330
471
100
AcDbEntity
  8
0
100
AcDbVertex
100
AcDb3dPolylineVertex
 10
5.677719999999999
 20
36.71629999999999
 30
0.0
 70
    32
  0
VERTEX
  5
4A7
330
471
100
AcDbEntity
  8
0
100
AcDbVertex
100
AcDb3dPolylineVertex
 10
5.866299999999999
 20
36.7035
 30
0.0
 70
    32
  0
VERTEX
  5
4A8
330
471
100
AcDbEntity
  8
0
100
AcDbVertex
100
AcDb3dPolylineVertex
 10
6.05616
 20
36.69189999999999
 30
0.0
 70
    32
  0
VERTEX
  5
4A9
330
471
100
AcDbEntity
  8
0
100
AcDbVertex
100
AcDb3dPolylineVertex
 10
6.247189999999999
 20
36.6813
 30
0.0
 70
    32
  0
VERTEX
  5
4AA
330
471
100
AcDbEntity
  8
0
100
AcDbVertex
100
AcDb3dPolylineVertex
 10
6.43928
 20
36.6718
 30
0.0
 70
    32
  0
VERTEX
  5
4AB
330
471
100
AcDbEntity
  8
0
100
AcDbVertex
100
AcDb3dPolylineVertex
 10
6.632299999999999
 20
36.6634
 30
0.0
 70
    32
  0
VERTEX
  5
4AC
330
471
100
AcDbEntity
  8
0
100
AcDbVertex
100
AcDb3dPolylineVertex
 10
6.82616
 20
36.6562
 30
0.0
 70
    32
  0
VERTEX
  5
4AD
330
471
100
AcDbEntity
  8
0
100
AcDbVertex
100
AcDb3dPolylineVertex
 10
7.02071
 20
36.65
 30
0.0
 70
    32
  0
VERTEX
  5
4AE
330
471
100
AcDbEntity
  8
0
100
AcDbVertex
100
AcDb3dPolylineVertex
 10
7.21586
 20
36.645
 30
0.0
 70
    32
  0
VERTEX
  5
4AF
330
471
100
AcDbEntity
  8
0
100
AcDbVertex
100
AcDb3dPolylineVertex
 10
7.41148
 20
36.6411
 30
0.0
 70
    32
  0
VERTEX
  5
4B0
330
471
100
AcDbEntity
  8
0
100
AcDbVertex
100
AcDb3dPolylineVertex
 10
7.60746
 20
36.63819999999999
 30
0.0
 70
    32
  0
VERTEX
  5
4B1
330
471
100
AcDbEntity
  8
0
100
AcDbVertex
100
AcDb3dPolylineVertex
 10
7.803669999999999
 20
36.6366
 30
0.0
 70
    32
  0
VERTEX
  5
4B2
330
471
100
AcDbEntity
  8
0
100
AcDbVertex
100
AcDb3dPolylineVertex
 10
8.0
 20
36.636
 30
0.0
 70
    32
  0
VERTEX
  5
4B3
330
471
100
AcDbEntity
  8
0
100
AcDbVertex
100
AcDb3dPolylineVertex
 10
8.196329999999999
 20
36.6366
 30
0.0
 70
    32
  0
VERTEX
  5
4B4
330
471
100
AcDbEntity
  8
0
100
AcDbVertex
100
AcDb3dPolylineVertex
 10
8.392539999999998
 20
36.63819999999999
 30
0.0
 70
    32
  0
VERTEX
  5
4B5
330
471
100
AcDbEntity
  8
0
100
AcDbVertex
100
AcDb3dPolylineVertex
 10
8.588519999999999
 20
36.6411
 30
0.0
 70
    32
  0
VERTEX
  5
4B6
330
471
100
AcDbEntity
  8
0
100
AcDbVertex
100
AcDb3dPolylineVertex
 10
8.784139999999998
 20
36.645
 30
0.0
 70
    32
  0
VERTEX
  5
4B7
330
471
100
AcDbEntity
  8
0
100
AcDbVertex
100
AcDb3dPolylineVertex
 10
8.979289999999998
 20
36.65
 30
0.0
 70
    32
  0
VERTEX
  5
4B8
330
471
100
AcDbEntity
  8
0
100
AcDbVertex
100
AcDb3dPolylineVertex
 10
9.17384
 20
36.6562
 30
0.0
 70
    32
  0
VERTEX
  5
4B9
330
471
100
AcDbEntity
  8
0
100
AcDbVertex
100
AcDb3dPolylineVertex
 10
9.367699999999999
 20
36.6634
 30
0.0
 70
    32
  0
VERTEX
  5
4BA
330
471
100
AcDbEntity
  8
0
100
AcDbVertex
100
AcDb3dPolylineVertex
 10
9.560719999999999
 20
36.6718
 30
0.0
 70
    32
  0
VERTEX
  5
4BB
330
471
100
AcDbEntity
  8
0
100
AcDbVertex
100
AcDb3dPolylineVertex
 10
9.75281
 20
36.6813
 30
0.0
 70
    32
  0
VERTEX
  5
4BC
330
471
100
AcDbEntity
  8
0
100
AcDbVertex
100
AcDb3dPolylineVertex
 10
9.943839999999999
 20
36.69189999999999
 30
0.0
 70
    32
  0
VERTEX
  5
4BD
330
471
100
AcDbEntity
  8
0
100
AcDbVertex
100
AcDb3dPolylineVertex
 10
10.13369999999999
 20
36.7035
 30
0.0
 70
    32
  0
VERTEX
  5
4BE
330
471
100
AcDbEntity
  8
0
100
AcDbVertex
100
AcDb3dPolylineVertex
 10
10.32229999999999
 20
36.71629999999999
 30
0.0
 70
    32
  0
VERTEX
  5
4BF
330
471
100
AcDbEntity
  8
0
100
AcDbVertex
100
AcDb3dPolylineVertex
 10
10.5095
 20
36.7301
 30
0.0
 70
    32
  0
VERTEX
  5
4C0
330
471
100
AcDbEntity
  8
0
100
AcDbVertex
100
AcDb3dPolylineVertex
 10
10.69509999999999
 20
36.745
 30
0.0
 70
    32
  0
VERTEX
  5
4C1
330
471
100
AcDbEntity
  8
0
100
AcDbVertex
100
AcDb3dPolylineVertex
 10
10.8792
 20
36.7609
 30
0.0
 70
    32
  0
VERTEX
  5
4C2
330
471
100
AcDbEntity
  8
0
100
AcDbVertex
100
AcDb3dPolylineVertex
 10
11.0615
 20
36.7779
 30
0.0
 70
    32
  0
VERTEX
  5
4C3
330
471
100
AcDbEntity
  8
0
100
AcDbVertex
100
AcDb3dPolylineVertex
 10
11.2419
 20
36.7959
 30
0.0
 70
    32
  0
VERTEX
  5
4C4
330
471
100
AcDbEntity
  8
0
100
AcDbVertex
100
AcDb3dPolylineVertex
 10
11.4204
 20
36.81499999999999
 30
0.0
 70
    32
  0
VERTEX
  5
4C5
330
471
100
AcDbEntity
  8
0
100
AcDbVertex
100
AcDb3dPolylineVertex
 10
11.5969
 20
36.835
 30
0.0
 70
    32
  0
VERTEX
  5
4C6
330
471
100
AcDbEntity
  8
0
100
AcDbVertex
100
AcDb3dPolylineVertex
 10
11.7712
 20
36.8561
 30
0.0
 70
    32
  0
VERTEX
  5
4C7
330
471
100
AcDbEntity
  8
0
100
AcDbVertex
100
AcDb3dPolylineVertex
 10
11.9432
 20
36.8782
 30
0.0
 70
    32
  0
VERTEX
  5
4C8
330
471
100
AcDbEntity
  8
0
100
AcDbVertex
100
AcDb3dPolylineVertex
 10
12.1128
 20
36.9012
 30
0.0
 70
    32
  0
VERTEX
  5
4C9
330
471
100
AcDbEntity
  8
0
100
AcDbVertex
100
AcDb3dPolylineVertex
 10
12.27999999999999
 20
36.9252
 30
0.0
 70
    32
  0
VERTEX
  5
4CA
330
471
100
AcDbEntity
  8
0
100
AcDbVertex
100
AcDb3dPolylineVertex
 10
12.4446
 20
36.95009999999999
 30
0.0
 70
    32
  0
VERTEX
  5
4CB
330
471
100
AcDbEntity
  8
0
100
AcDbVertex
100
AcDb3dPolylineVertex
 10
12.6065
 20
36.97599999999999
 30
0.0
 70
    32
  0
VERTEX
  5
4CC
330
471
100
AcDbEntity
  8
0
100
AcDbVertex
100
AcDb3dPolylineVertex
 10
12.76559999999999
 20
37.0028
 30
0.0
 70
    32
  0
VERTEX
  5
4CD
330
471
100
AcDbEntity
  8
0
100
AcDbVertex
100
AcDb3dPolylineVertex
 10
12.9219
 20
37.0305
 30
0.0
 70
    32
  0
VERTEX
  5
4CE
330
471
100
AcDbEntity
  8
0
100
AcDbVertex
100
AcDb3dPolylineVertex
 10
13.0751
 20
37.0591
 30
0.0
 70
    32
  0
VERTEX
  5
4CF
330
471
100
AcDbEntity
  8
0
100
AcDbVertex
100
AcDb3dPolylineVertex
 10
13.2254
 20
37.0886
 30
0.0
 70
    32
  0
VERTEX
  5
4D0
330
471
100
AcDbEntity
  8
0
100
AcDbVertex
100
AcDb3dPolylineVertex
 10
13.3725
 20
37.11889999999999
 30
0.0
 70
    32
  0
VERTEX
  5
4D1
330
471
100
AcDbEntity
  8
0
100
AcDbVertex
100
AcDb3dPolylineVertex
 10
13.5163
 20
37.14999999999999
 30
0.0
 70
    32
  0
VERTEX
  5
4D2
330
471
100
AcDbEntity
  8
0
100
AcDbVertex
100
AcDb3dPolylineVertex
 10
13.6569
 20
37.182
 30
0.0
 70
    32
  0
VERTEX
  5
4D3
330
471
100
AcDbEntity
  8
0
100
AcDbVertex
100
AcDb3dPolylineVertex
 10
13.794
 20
37.2147
 30
0.0
 70
    32
  0
VERTEX
  5
4D4
330
471
100
AcDbEntity
  8
0
100
AcDbVertex
100
AcDb3dPolylineVertex
 10
13.92759999999999
 20
37.24819999999999
 30
0.0
 70
    32
  0
VERTEX
  5
4D5
330
471
100
AcDbEntity
  8
0
100
AcDbVertex
100
AcDb3dPolylineVertex
 10
14.0577
 20
37.2825
 30
0.0
 70
    32
  0
VERTEX
  5
4D6
330
471
100
AcDbEntity
  8
0
100
AcDbVertex
100
AcDb3dPolylineVertex
 10
14.1841
 20
37.3175
 30
0.0
 70
    32
  0
VERTEX
  5
4D7
330
471
100
AcDbEntity
  8
0
100
AcDbVertex
100
AcDb3dPolylineVertex
 10
14.3068
 20
37.3532
 30
0.0
 70
    32
  0
VERTEX
  5
4D8
330
471
100
AcDbEntity
  8
0
100
AcDbVertex
100
AcDb3dPolylineVertex
 10
14.4257
 20
37.3896
 30
0.0
 70
    32
  0
VERTEX
  5
4D9
330
471
100
AcDbEntity
  8
0
100
AcDbVertex
100
AcDb3dPolylineVertex
 10
14.54069999999999
 20
37.42669999999999
 30
0.0
 70
    32
  0
VERTEX
  5
4DA
330
471
100
AcDbEntity
  8
0
100
AcDbVertex
100
AcDb3dPolylineVertex
 10
14.6518
 20
37.46439999999999
 30
0.0
 70
    32
  0
VERTEX
  5
4DB
330
471
100
AcDbEntity
  8
0
100
AcDbVertex
100
AcDb3dPolylineVertex
 10
14.7588
 20
37.5028
 30
0.0
 70
    32
  0
VERTEX
  5
4DC
330
471
100
AcDbEntity
  8
0
100
AcDbVertex
100
AcDb3dPolylineVertex
 10
14.8618
 20
37.5417
 30
0.0
 70
    32
  0
VERTEX
  5
4DD
330
471
100
AcDbEntity
  8
0
100
AcDbVertex
100
AcDb3dPolylineVertex
 10
14.9607
 20
37.5812
 30
0.0
 70
    32
  0
VERTEX
  5
4DE
330
471
100
AcDbEntity
  8
0
100
AcDbVertex
100
AcDb3dPolylineVertex
 10
15.0554
 20
37.62129999999999
 30
0.0
 70
    32
  0
VERTEX
  5
4DF
330
471
100
AcDbEntity
  8
0
100
AcDbVertex
100
AcDb3dPolylineVertex
 10
15.1458
 20
37.6619
 30
0.0
 70
    32
  0
VERTEX
  5
4E0
330
471
100
AcDbEntity
  8
0
100
AcDbVertex
100
AcDb3dPolylineVertex
 10
15.2319
 20
37.703
 30
0.0
 70
    32
  0
VERTEX
  5
4E1
330
471
100
AcDbEntity
  8
0
100
AcDbVertex
100
AcDb3dPolylineVertex
 10
15.3137
 20
37.74459999999999
 30
0.0
 70
    32
  0
VERTEX
  5
4E2
330
471
100
AcDbEntity
  8
0
100
AcDbVertex
100
AcDb3dPolylineVertex
 10
15.391
 20
37.7867
 30
0.0
 70
    32
  0
VERTEX
  5
4E3
330
471
100
AcDbEntity
  8
0
100
AcDbVertex
100
AcDb3dPolylineVertex
 10
15.4639
 20
37.8292
 30
0.0
 70
    32
  0
VERTEX
  5
4E4
330
471
100
AcDbEntity
  8
0
100
AcDbVertex
100
AcDb3dPolylineVertex
 10
15.5324
 20
37.872
 30
0.0
 70
    32
  0
VERTEX
  5
4E5
330
471
100
AcDbEntity
  8
0
100
AcDbVertex
100
AcDb3dPolylineVertex
 10
15.59619999999999
 20
37.9153
 30
0.0
 70
    32
  0
VERTEX
  5
4E6
330
471
100
AcDbEntity
  8
0
100
AcDbVertex
100
AcDb3dPolylineVertex
 10
15.65549999999999
 20
37.95889999999999
 30
0.0
 70
    32
  0
VERTEX
  5
4E7
330
471
100
AcDbEntity
  8
0
100
AcDbVertex
100
AcDb3dPolylineVertex
 10
15.7102
 20
38.0028
 30
0.0
 70
    32
  0
VERTEX
  5
4E8
330
471
100
AcDbEntity
  8
0
100
AcDbVertex
100
AcDb3dPolylineVertex
 10
15.7603
 20
38.0471
 30
0.0
 70
    32
  0
VERTEX
  5
4E9
330
471
100
AcDbEntity
  8
0
100
AcDbVertex
100
AcDb3dPolylineVertex
 10
15.8056
 20
38.0916
 30
0.0
 70
    32
  0
VERTEX
  5
4EA
330
471
100
AcDbEntity
  8
0
100
AcDbVertex
100
AcDb3dPolylineVertex
 10
15.84629999999999
 20
38.1364
 30
0.0
 70
    32
  0
VERTEX
  5
4EB
330
471
100
AcDbEntity
  8
0
100
AcDbVertex
100
AcDb3dPolylineVertex
 10
15.88219999999999
 20
38.1813
 30
0.0
 70
    32
  0
VERTEX
  5
4EC
330
471
100
AcDbEntity
  8
0
100
AcDbVertex
100
AcDb3dPolylineVertex
 10
15.91339999999999
 20
38.2265
 30
0.0
 70
    32
  0
VERTEX
  5
4ED
330
471
100
AcDbEntity
  8
0
100
AcDbVertex
100
AcDb3dPolylineVertex
 10
15.9398
 20
38.2718
 30
0.0
 70
    32
  0
VERTEX
  5
4EE
330
471
100
AcDbEntity
  8
0
100
AcDbVertex
100
AcDb3dPolylineVertex
 10
15.96149999999999
 20
38.3173
 30
0.0
 70
    32
  0
VERTEX
  5
4EF
330
471
100
AcDbEntity
  8
0
100
AcDbVertex
100
AcDb3dPolylineVertex
 10
15.9783
 20
38.3629
 30
0.0
 70
    32
  0
VERTEX
  5
4F0
330
471
100
AcDbEntity
  8
0
100
AcDbVertex
100
AcDb3dPolylineVertex
 10
15.9904
 20
38.40849999999999
 30
0.0
 70
    32
  0
VERTEX
  5
4F1
330
471
100
AcDbEntity
  8
0
100
AcDbVertex
100
AcDb3dPolylineVertex
 10
15.9976
 20
38.4543
 30
0.0
 70
    32
  0
VERTEX
  5
4F2
330
471
100
AcDbEntity
  8
0
100
AcDbVertex
100
AcDb3dPolylineVertex
 10
16.0
 20
38.5
 30
0.0
 70
    32
  0
SEQEND
  5
4F3
330
471
100
AcDbEntity
  8
0
  0
LINE
  5
4F4
330
3D6
100
AcDbEntity
  8
0
100
AcDbLine
 10
2.029365
 20
56.16884599999999
 30
0.0
 11
2.0
 21
56.0
 31
0.0
  0
LINE
  5
4F5
330
3D6
100
AcDbEntity
  8
0
100
AcDbLine
 10
13.970635
 20
56.16884599999999
 30
0.0
 11
14.0
 21
56.0
 31
0.0
  0
LINE
  5
4F6
330
3D6
100
AcDbEntity
  8
0
100
AcDbLine
 10
8.0
 20
60.0
 30
0.0
 11
11.5
 21
60.0
 31
0.0
  0
ARC
  5
4F7
330
3D6
100
AcDbEntity
  8
0
100
AcDbCircle
 10
8.0
 20
62.916667
 30
0.0
 40
6.083333
100
AcDbArc
 50
48.88791
 51
131.1120899999999
  0
LINE
  5
4F8
330
3D6
100
AcDbEntity
  8
0
100
AcDbLine
 10
4.0
 20
67.5
 30
0.0
 11
2.514031999999999
 21
58.95568199999999
 31
0.0
  0
ARC
  5
4F9
330
3D6
100
AcDbEntity
  8
0
100
AcDbCircle
 10
4.5
 20
59.5
 30
0.0
 40
0.5
100
AcDbArc
 50
90.0
 51
180.0
  0
LINE
  5
4FA
330
3D6
100
AcDbEntity
  8
0
100
AcDbLine
 10
4.0
 20
59.5
 30
0.0
 11
4.0
 21
57.5
 31
0.0
  0
LINE
  5
4FB
330
3D6
100
AcDbEntity
  8
0
100
AcDbLine
 10
8.0
 20
60.0
 30
0.0
 11
4.5
 21
60.0
 31
0.0
  0
LINE
  5
4FC
330
3D6
100
AcDbEntity
  8
0
100
AcDbLine
 10
12.0
 20
67.5
 30
0.0
 11
13.485968
 21
58.95568199999999
 31
0.0
  0
ARC
  5
4FD
330
3D6
100
AcDbEntity
  8
0
100
AcDbCircle
 10
11.5
 20
59.5
 30
0.0
 40
0.5
100
AcDbArc
 50
0.0
 51
90.0
  0
LINE
  5
4FE
330
3D6
100
AcDbEntity
  8
0
100
AcDbLine
 10
12.0
 20
59.5
 30
0.0
 11
12.0
 21
57.5
 31
0.0
  0
LINE
  5
4FF
330
3D6
100
AcDbEntity
  8
0
100
AcDbLine
 10
54.0
 20
54.734191
 30
0.0
 11
54.0
 21
38.004234
 31
0.0
  0
ARC
  5
500
330
3D6
100
AcDbEntity
  8
0
100
AcDbCircle
 10
55.0
 20
54.734191
 30
0.0
 40
1.0
100
AcDbArc
 50
105.1095749999999
 51
180.0
  0
LINE
  5
501
330
3D6
100
AcDbEntity
  8
1
100
AcDbLine
 10
62.0
 20
63.0
 30
0.0
 11
62.0
 21
0.0
 31
0.0
  0
LINE
  5
502
330
3D6
100
AcDbEntity
  8
0
100
AcDbLine
 10
68.0
 20
33.5
 30
0.0
 11
68.0
 21
40.46249999999999
 31
0.0
  0
LINE
  5
503
330
3D6
100
AcDbEntity
  8
0
100
AcDbLine
 10
56.0
 20
33.5
 30
0.0
 11
56.0
 21
37.23749999999999
 31
0.0
  0
LINE
  5
504
330
3D6
100
AcDbEntity
  8
0
100
AcDbLine
 10
59.0
 20
33.5
 30
0.0
 11
59.0
 21
4.0
 31
0.0
  0
LINE
  5
505
330
3D6
100
AcDbEntity
  8
0
100
AcDbLine
 10
59.5
 20
3.5
 30
0.0
 11
59.5
 21
32.5
 31
0.0
  0
LINE
  5
506
330
3D6
100
AcDbEntity
  8
0
100
AcDbLine
 10
64.5
 20
3.5
 30
0.0
 11
64.5
 21
32.5
 31
0.0
  0
LINE
  5
507
330
3D6
100
AcDbEntity
  8
0
100
AcDbLine
 10
65.0
 20
33.5
 30
0.0
 11
65.0
 21
4.0
 31
0.0
  0
LINE
  5
508
330
3D6
100
AcDbEntity
  8
0
100
AcDbLine
 10
64.5
 20
3.5
 30
0.0
 11
62.0
 21
3.5
 31
0.0
  0
LINE
  5
509
330
3D6
100
AcDbEntity
  8
0
100
AcDbLine
 10
65.0
 20
4.0
 30
0.0
 11
62.0
 21
4.0
 31
0.0
  0
LINE
  5
50A
330
3D6
100
AcDbEntity
  8
0
100
AcDbLine
 10
59.5
 20
3.5
 30
0.0
 11
62.0
 21
3.5
 31
0.0
  0
LINE
  5
50B
330
3D6
100
AcDbEntity
  8
0
100
AcDbLine
 10
59.0
 20
4.0
 30
0.0
 11
62.0
 21
4.0
 31
0.0
  0
LINE
  5
50C
330
3D6
100
AcDbEntity
  8
0
100
AcDbLine
 10
59.0
 20
4.0
 30
0.0
 11
59.5
 21
3.5
 31
0.0
  0
LINE
  5
50D
330
3D6
100
AcDbEntity
  8
0
100
AcDbLine
 10
65.0
 20
4.0
 30
0.0
 11
64.5
 21
3.5
 31
0.0
  0
LINE
  5
50E
330
3D6
100
AcDbEntity
  8
0
100
AcDbLine
 10
65.0
 20
32.5
 30
0.0
 11
62.0
 21
32.5
 31
0.0
  0
LINE
  5
50F
330
3D6
100
AcDbEntity
  8
0
100
AcDbLine
 10
62.0
 20
33.5
 30
0.0
 11
68.0
 21
33.5
 31
0.0
  0
LINE
  5
510
330
3D6
100
AcDbEntity
  8
0
100
AcDbLine
 10
62.0
 20
33.5
 30
0.0
 11
56.0
 21
33.5
 31
0.0
  0
LINE
  5
511
330
3D6
100
AcDbEntity
  8
0
100
AcDbLine
 10
59.0
 20
32.5
 30
0.0
 11
62.0
 21
32.5
 31
0.0
  0
LINE
  5
512
330
3D6
100
AcDbEntity
  8
0
100
AcDbLine
 10
91.5
 20
57.0
 30
0.0
 11
68.0
 21
50.0
 31
0.0
  0
LINE
  5
513
330
3D6
100
AcDbEntity
  8
0
100
AcDbLine
 10
68.0
 20
50.0
 30
0.0
 11
68.0
 21
59.28
 31
0.0
  0
LINE
  5
514
330
3D6
100
AcDbEntity
  8
0
100
AcDbLine
 10
58.0
 20
56.58
 30
0.0
 11
58.0
 21
59.5
 31
0.0
  0
LINE
  5
515
330
3D6
100
AcDbEntity
  8
0
100
AcDbLine
 10
70.0
 20
41.766734
 30
0.0
 11
70.0
 21
50.595745
 31
0.0
  0
LINE
  5
516
330
3D6
100
AcDbEntity
  8
0
100
AcDbLine
 10
69.25954
 20
40.801001
 30
0.0
 11
55.25954
 21
37.038501
 31
0.0
  0
ARC
  5
517
330
3D6
100
AcDbEntity
  8
0
100
AcDbCircle
 10
69.0
 20
41.766734
 30
0.0
 40
1.0
100
AcDbArc
 50
285.0428009999999
 51
0.0
  0
LINE
  5
518
330
3D6
100
AcDbEntity
  8
0
100
AcDbLine
 10
58.5
 20
60.0
 30
0.0
 11
65.5
 21
60.0
 31
0.0
  0
ARC
  5
519
330
3D6
100
AcDbEntity
  8
0
100
AcDbCircle
 10
58.5
 20
59.5
 30
0.0
 40
0.5
100
AcDbArc
 50
90.0
 51
180.0
  0
ARC
  5
51A
330
3D6
100
AcDbEntity
  8
0
100
AcDbCircle
 10
65.5
 20
59.5
 30
0.0
 40
0.5
100
AcDbArc
 50
0.0
 51
90.0
  0
LINE
  5
51B
330
3D6
100
AcDbEntity
  8
0
100
AcDbLine
 10
66.0
 20
59.5
 30
0.0
 11
66.0
 21
58.74
 31
0.0
  0
LINE
  5
51C
330
3D6
100
AcDbEntity
  8
0
100
AcDbLine
 10
103.2524219999999
 20
58.80498000000001
 30
0.0
 11
93.05439399999999
 21
56.144624
 31
0.0
  0
ARC
  5
51D
330
3D6
100
AcDbEntity
  8
0
100
AcDbCircle
 10
92.80197199999999
 20
57.112242
 30
0.0
 40
1.0
100
AcDbArc
 50
225.0
 51
284.620874
  0
LINE
  5
51E
330
3D6
100
AcDbEntity
  8
0
100
AcDbLine
 10
92.094865
 20
56.40513499999999
 30
0.0
 11
91.5
 21
57.0
 31
0.0
  0
ARC
  5
51F
330
3D6
100
AcDbEntity
  8
0
100
AcDbCircle
 10
103.0
 20
67.694191
 30
0.0
 40
1.0
100
AcDbArc
 50
0.0
 51
105.1095749999999
  0
LINE
  5
520
330
3D6
100
AcDbEntity
  8
0
100
AcDbLine
 10
104.0
 20
67.694191
 30
0.0
 11
104.0
 21
59.772597
 31
0.0
  0
ARC
  5
521
330
3D6
100
AcDbEntity
  8
0
100
AcDbCircle
 10
103.0
 20
59.772597
 30
0.0
 40
1.0
100
AcDbArc
 50
284.620874
 51
0.0
  0
ENDBLK
  5
522
330
3D6
100
AcDbEntity
  8
0
100
AcDbBlockEnd
  0
BLOCK
  5
7A2
330
7A1
100
AcDbEntity
  8
0
100
AcDbBlockBegin
  2
*U3
 70
     1
 10
0.0
 20
0.0
 30
0.0
  3
*U3
  1

  0
ENDBLK
  5
7A3
330
7A1
100
AcDbEntity
  8
0
100
AcDbBlockEnd
  0
BLOCK
  5
7E3
330
7E1
100
AcDbEntity
  8
0
100
AcDbBlockBegin
  2
GENAXEH
 70
     0
 10
0.0
 20
0.0
 30
0.0
  3
GENAXEH
  1

  0
LINE
  5
7E2
330
7E1
100
AcDbEntity
  8
0
100
AcDbLine
 10
-1.0
 20
0.0
 30
0.0
 11
1.0
 21
0.0
 31
0.0
  0
ENDBLK
  5
7E4
330
7E1
100
AcDbEntity
  8
0
100
AcDbBlockEnd
  0
BLOCK
  5
805
330
7FB
100
AcDbEntity
  8
0
100
AcDbBlockBegin
  2
*D5
 70
     1
 10
0.0
 20
0.0
 30
0.0
  3
*D5
  1

  0
LINE
  5
7FC
330
7FB
100
AcDbEntity
  8
0
 62
     0
370
    -2
100
AcDbLine
 10
46.12499999999999
 20
112.7
 30
0.0
 11
74.49118782208969
 21
112.7
 31
0.0
  0
LINE
  5
7FD
330
7FB
100
AcDbEntity
  8
0
 62
     0
370
    -2
100
AcDbLine
 10
53.625
 20
63.0
 30
0.0
 11
74.49118782208967
 21
63.0
 31
0.0
  0
LINE
  5
7FE
330
7FB
100
AcDbEntity
  8
0
 62
     0
370
    -2
100
AcDbLine
 10
73.24118782208969
 20
110.2
 30
0.0
 11
73.24118782208967
 21
65.5
 31
0.0
  0
SOLID
  5
7FF
330
7FB
100
AcDbEntity
  8
0
 62
     0
100
AcDbTrace
 10
72.82452115542302
 20
110.2
 30
0.0
 11
73.65785448875636
 21
110.2
 31
0.0
 12
73.24118782208969
 22
112.7
 32
0.0
 13
73.24118782208969
 23
112.7
 33
0.0
  0
SOLID
  5
800
330
7FB
100
AcDbEntity
  8
0
 62
     0
100
AcDbTrace
 10
72.824521155423
 20
65.5
 30
0.0
 11
73.65785448875634
 21
65.5
 31
0.0
 12
73.24118782208967
 22
63.0
 32
0.0
 13
73.24118782208967
 23
63.0
 33
0.0
  0
MTEXT
  5
801
330
7FB
100
AcDbEntity
  8
0
 62
     0
100
AcDbMText
 10
71.36618782208966
 20
87.85000000000001
 30
0.0
 40
2.5
 41
0.0
 71
     5
 72
     1
  1
\A1;49.7
 11
0.0000000000000001
 21
1.0
 31
0.0
 73
     1
 44
1.0
  0
POINT
  5
802
330
7FB
100
AcDbEntity
  8
Defpoints
 62
     0
100
AcDbPoint
 10
45.49999999999999
 20
112.7
 30
0.0
  0
POINT
  5
803
330
7FB
100
AcDbEntity
  8
Defpoints
 62
     0
100
AcDbPoint
 10
53.0
 20
63.0
 30
0.0
  0
POINT
  5
804
330
7FB
100
AcDbEntity
  8
Defpoints
 62
     0
100
AcDbPoint
 10
73.24118782208967
 20
63.0
 30
0.0
  0
ENDBLK
  5
806
330
7FB
100
AcDbEntity
  8
0
100
AcDbBlockEnd
  0
ENDSEC
  0
SECTION
  2
ENTITIES
  0
LINE
  5
523
330
3C5
100
AcDbEntity
  8
1
100
AcDbLine
 10
45.49999999999999
 20
122.3
 30
0.0
 11
45.49999999999999
 21
42.0
 31
0.0
  0
LINE
  5
524
330
3C5
100
AcDbEntity
  8
0
100
AcDbLine
 10
45.49999999999999
 20
63.0
 30
0.0
 11
38.0
 21
63.0
 31
0.0
  0
LINE
  5
525
330
3C5
100
AcDbEntity
  8
0
100
AcDbLine
 10
38.0
 20
63.0
 30
0.0
 11
38.0
 21
76.31568699999999
 31
0.0
  0
LINE
  5
526
330
3C5
100
AcDbEntity
  8
0
100
AcDbLine
 10
45.49999999999999
 20
63.0
 30
0.0
 11
53.0
 21
63.0
 31
0.0
  0
LINE
  5
527
330
3C5
100
AcDbEntity
  8
0
100
AcDbLine
 10
53.0
 20
63.0
 30
0.0
 11
53.0
 21
76.31568699999999
 31
0.0
  0
POLYLINE
  5
528
330
3C5
100
AcDbEntity
  8
0
100
AcDb3dPolyline
 66
     1
 10
0.0
 20
0.0
 30
0.0
 70
     8
  0
VERTEX
  5
529
330
528
100
AcDbEntity
  8
0
100
AcDbVertex
100
AcDb3dPolylineVertex
 10
35.5
 20
78.3
 30
0.0
 70
    32
  0
VERTEX
  5
52A
330
528
100
AcDbEntity
  8
0
100
AcDbVertex
100
AcDb3dPolylineVertex
 10
35.503
 20
78.22639999999999
 30
0.0
 70
    32
  0
VERTEX
  5
52B
330
528
100
AcDbEntity
  8
0
100
AcDbVertex
100
AcDb3dPolylineVertex
 10
35.512
 20
78.1528
 30
0.0
 70
    32
  0
VERTEX
  5
52C
330
528
100
AcDbEntity
  8
0
100
AcDbVertex
100
AcDb3dPolylineVertex
 10
35.52709999999999
 20
78.0793
 30
0.0
 70
    32
  0
VERTEX
  5
52D
330
528
100
AcDbEntity
  8
0
100
AcDbVertex
100
AcDb3dPolylineVertex
 10
35.5482
 20
78.00589999999999
 30
0.0
 70
    32
  0
VERTEX
  5
52E
330
528
100
AcDbEntity
  8
0
100
AcDbVertex
100
AcDb3dPolylineVertex
 10
35.5752
 20
77.9328
 30
0.0
 70
    32
  0
VERTEX
  5
52F
330
528
100
AcDbEntity
  8
0
100
AcDbVertex
100
AcDb3dPolylineVertex
 10
35.60819999999999
 20
77.85979999999999
 30
0.0
 70
    32
  0
VERTEX
  5
530
330
528
100
AcDbEntity
  8
0
100
AcDbVertex
100
AcDb3dPolylineVertex
 10
35.64719999999999
 20
77.7871
 30
0.0
 70
    32
  0
VERTEX
  5
531
330
528
100
AcDbEntity
  8
0
100
AcDbVertex
100
AcDb3dPolylineVertex
 10
35.6921
 20
77.71469999999999
 30
0.0
 70
    32
  0
VERTEX
  5
532
330
528
100
AcDbEntity
  8
0
100
AcDbVertex
100
AcDb3dPolylineVertex
 10
35.743
 20
77.64269999999999
 30
0.0
 70
    32
  0
VERTEX
  5
533
330
528
100
AcDbEntity
  8
0
100
AcDbVertex
100
AcDb3dPolylineVertex
 10
35.7997
 20
77.5711
 30
0.0
 70
    32
  0
VERTEX
  5
534
330
528
100
AcDbEntity
  8
0
100
AcDbVertex
100
AcDb3dPolylineVertex
 10
35.8622
 20
77.4999
 30
0.0
 70
    32
  0
VERTEX
  5
535
330
528
100
AcDbEntity
  8
0
100
AcDbVertex
100
AcDb3dPolylineVertex
 10
35.93059999999999
 20
77.42909999999999
 30
0.0
 70
    32
  0
VERTEX
  5
536
330
528
100
AcDbEntity
  8
0
100
AcDbVertex
100
AcDb3dPolylineVertex
 10
36.0047
 20
77.35899999999999
 30
0.0
 70
    32
  0
VERTEX
  5
537
330
528
100
AcDbEntity
  8
0
100
AcDbVertex
100
AcDb3dPolylineVertex
 10
36.0846
 20
77.2893
 30
0.0
 70
    32
  0
VERTEX
  5
538
330
528
100
AcDbEntity
  8
0
100
AcDbVertex
100
AcDb3dPolylineVertex
 10
36.1701
 20
77.2203
 30
0.0
 70
    32
  0
VERTEX
  5
539
330
528
100
AcDbEntity
  8
0
100
AcDbVertex
100
AcDb3dPolylineVertex
 10
36.2612
 20
77.15189999999999
 30
0.0
 70
    32
  0
VERTEX
  5
53A
330
528
100
AcDbEntity
  8
0
100
AcDbVertex
100
AcDb3dPolylineVertex
 10
36.3579
 20
77.08429999999999
 30
0.0
 70
    32
  0
VERTEX
  5
53B
330
528
100
AcDbEntity
  8
0
100
AcDbVertex
100
AcDb3dPolylineVertex
 10
36.46009999999999
 20
77.01729999999999
 30
0.0
 70
    32
  0
VERTEX
  5
53C
330
528
100
AcDbEntity
  8
0
100
AcDbVertex
100
AcDb3dPolylineVertex
 10
36.56779999999999
 20
76.9512
 30
0.0
 70
    32
  0
VERTEX
  5
53D
330
528
100
AcDbEntity
  8
0
100
AcDbVertex
100
AcDb3dPolylineVertex
 10
36.68079999999999
 20
76.8858
 30
0.0
 70
    32
  0
VERTEX
  5
53E
330
528
100
AcDbEntity
  8
0
100
AcDbVertex
100
AcDb3dPolylineVertex
 10
36.7991
 20
76.82129999999999
 30
0.0
 70
    32
  0
VERTEX
  5
53F
330
528
100
AcDbEntity
  8
0
100
AcDbVertex
100
AcDb3dPolylineVertex
 10
36.9227
 20
76.75769999999999
 30
0.0
 70
    32
  0
VERTEX
  5
540
330
528
100
AcDbEntity
  8
0
100
AcDbVertex
100
AcDb3dPolylineVertex
 10
37.05149999999999
 20
76.69499999999999
 30
0.0
 70
    32
  0
VERTEX
  5
541
330
528
100
AcDbEntity
  8
0
100
AcDbVertex
100
AcDb3dPolylineVertex
 10
37.18529999999999
 20
76.63329999999999
 30
0.0
 70
    32
  0
VERTEX
  5
542
330
528
100
AcDbEntity
  8
0
100
AcDbVertex
100
AcDb3dPolylineVertex
 10
37.32419999999999
 20
76.57259999999999
 30
0.0
 70
    32
  0
VERTEX
  5
543
330
528
100
AcDbEntity
  8
0
100
AcDbVertex
100
AcDb3dPolylineVertex
 10
37.4679
 20
76.5129
 30
0.0
 70
    32
  0
VERTEX
  5
544
330
528
100
AcDbEntity
  8
0
100
AcDbVertex
100
AcDb3dPolylineVertex
 10
37.6165
 20
76.45430000000001
 30
0.0
 70
    32
  0
VERTEX
  5
545
330
528
100
AcDbEntity
  8
0
100
AcDbVertex
100
AcDb3dPolylineVertex
 10
37.7699
 20
76.3968
 30
0.0
 70
    32
  0
VERTEX
  5
546
330
528
100
AcDbEntity
  8
0
100
AcDbVertex
100
AcDb3dPolylineVertex
 10
37.9279
 20
76.34049999999999
 30
0.0
 70
    32
  0
VERTEX
  5
547
330
528
100
AcDbEntity
  8
0
100
AcDbVertex
100
AcDb3dPolylineVertex
 10
38.0905
 20
76.28529999999999
 30
0.0
 70
    32
  0
VERTEX
  5
548
330
528
100
AcDbEntity
  8
0
100
AcDbVertex
100
AcDb3dPolylineVertex
 10
38.2575
 20
76.23139999999999
 30
0.0
 70
    32
  0
VERTEX
  5
549
330
528
100
AcDbEntity
  8
0
100
AcDbVertex
100
AcDb3dPolylineVertex
 10
38.4289
 20
76.17869999999999
 30
0.0
 70
    32
  0
VERTEX
  5
54A
330
528
100
AcDbEntity
  8
0
100
AcDbVertex
100
AcDb3dPolylineVertex
 10
38.60459999999999
 20
76.12729999999999
 30
0.0
 70
    32
  0
VERTEX
  5
54B
330
528
100
AcDbEntity
  8
0
100
AcDbVertex
100
AcDb3dPolylineVertex
 10
38.78439999999999
 20
76.0771
 30
0.0
 70
    32
  0
VERTEX
  5
54C
330
528
100
AcDbEntity
  8
0
100
AcDbVertex
100
AcDb3dPolylineVertex
 10
38.96829999999999
 20
76.02839999999999
 30
0.0
 70
    32
  0
VERTEX
  5
54D
330
528
100
AcDbEntity
  8
0
100
AcDbVertex
100
AcDb3dPolylineVertex
 10
39.1561
 20
75.98099999999999
 30
0.0
 70
    32
  0
VERTEX
  5
54E
330
528
100
AcDbEntity
  8
0
100
AcDbVertex
100
AcDb3dPolylineVertex
 10
39.3477
 20
75.935
 30
0.0
 70
    32
  0
VERTEX
  5
54F
330
528
100
AcDbEntity
  8
0
100
AcDbVertex
100
AcDb3dPolylineVertex
 10
39.54299999999999
 20
75.8904
 30
0.0
 70
    32
  0
VERTEX
  5
550
330
528
100
AcDbEntity
  8
0
100
AcDbVertex
100
AcDb3dPolylineVertex
 10
39.7419
 20
75.8472
 30
0.0
 70
    32
  0
VERTEX
  5
551
330
528
100
AcDbEntity
  8
0
100
AcDbVertex
100
AcDb3dPolylineVertex
 10
39.94429999999999
 20
75.8056
 30
0.0
 70
    32
  0
VERTEX
  5
552
330
528
100
AcDbEntity
  8
0
100
AcDbVertex
100
AcDb3dPolylineVertex
 10
40.14999999999999
 20
75.7654
 30
0.0
 70
    32
  0
VERTEX
  5
553
330
528
100
AcDbEntity
  8
0
100
AcDbVertex
100
AcDb3dPolylineVertex
 10
40.359
 20
75.7268
 30
0.0
 70
    32
  0
VERTEX
  5
554
330
528
100
AcDbEntity
  8
0
100
AcDbVertex
100
AcDb3dPolylineVertex
 10
40.571
 20
75.6897
 30
0.0
 70
    32
  0
VERTEX
  5
555
330
528
100
AcDbEntity
  8
0
100
AcDbVertex
100
AcDb3dPolylineVertex
 10
40.786
 20
75.6542
 30
0.0
 70
    32
  0
VERTEX
  5
556
330
528
100
AcDbEntity
  8
0
100
AcDbVertex
100
AcDb3dPolylineVertex
 10
41.00389999999999
 20
75.6203
 30
0.0
 70
    32
  0
VERTEX
  5
557
330
528
100
AcDbEntity
  8
0
100
AcDbVertex
100
AcDb3dPolylineVertex
 10
41.2244
 20
75.58799999999999
 30
0.0
 70
    32
  0
VERTEX
  5
558
330
528
100
AcDbEntity
  8
0
100
AcDbVertex
100
AcDb3dPolylineVertex
 10
41.4476
 20
75.5574
 30
0.0
 70
    32
  0
VERTEX
  5
559
330
528
100
AcDbEntity
  8
0
100
AcDbVertex
100
AcDb3dPolylineVertex
 10
41.6732
 20
75.52839999999999
 30
0.0
 70
    32
  0
VERTEX
  5
55A
330
528
100
AcDbEntity
  8
0
100
AcDbVertex
100
AcDb3dPolylineVertex
 10
41.901
 20
75.50099999999999
 30
0.0
 70
    32
  0
VERTEX
  5
55B
330
528
100
AcDbEntity
  8
0
100
AcDbVertex
100
AcDb3dPolylineVertex
 10
42.1311
 20
75.47539999999999
 30
0.0
 70
    32
  0
VERTEX
  5
55C
330
528
100
AcDbEntity
  8
0
100
AcDbVertex
100
AcDb3dPolylineVertex
 10
42.3632
 20
75.45139999999999
 30
0.0
 70
    32
  0
VERTEX
  5
55D
330
528
100
AcDbEntity
  8
0
100
AcDbVertex
100
AcDb3dPolylineVertex
 10
42.5972
 20
75.42919999999999
 30
0.0
 70
    32
  0
VERTEX
  5
55E
330
528
100
AcDbEntity
  8
0
100
AcDbVertex
100
AcDb3dPolylineVertex
 10
42.8329
 20
75.40869999999999
 30
0.0
 70
    32
  0
VERTEX
  5
55F
330
528
100
AcDbEntity
  8
0
100
AcDbVertex
100
AcDb3dPolylineVertex
 10
43.0702
 20
75.3899
 30
0.0
 70
    32
  0
VERTEX
  5
560
330
528
100
AcDbEntity
  8
0
100
AcDbVertex
100
AcDb3dPolylineVertex
 10
43.30899999999999
 20
75.3729
 30
0.0
 70
    32
  0
VERTEX
  5
561
330
528
100
AcDbEntity
  8
0
100
AcDbVertex
100
AcDb3dPolylineVertex
 10
43.5491
 20
75.35759999999999
 30
0.0
 70
    32
  0
VERTEX
  5
562
330
528
100
AcDbEntity
  8
0
100
AcDbVertex
100
AcDb3dPolylineVertex
 10
43.79039999999999
 20
75.3442
 30
0.0
 70
    32
  0
VERTEX
  5
563
330
528
100
AcDbEntity
  8
0
100
AcDbVertex
100
AcDb3dPolylineVertex
 10
44.0327
 20
75.33249999999999
 30
0.0
 70
    32
  0
VERTEX
  5
564
330
528
100
AcDbEntity
  8
0
100
AcDbVertex
100
AcDb3dPolylineVertex
 10
44.2759
 20
75.32259999999999
 30
0.0
 70
    32
  0
VERTEX
  5
565
330
528
100
AcDbEntity
  8
0
100
AcDbVertex
100
AcDb3dPolylineVertex
 10
44.51979999999999
 20
75.31439999999999
 30
0.0
 70
    32
  0
VERTEX
  5
566
330
528
100
AcDbEntity
  8
0
100
AcDbVertex
100
AcDb3dPolylineVertex
 10
44.7644
 20
75.30809999999999
 30
0.0
 70
    32
  0
VERTEX
  5
567
330
528
100
AcDbEntity
  8
0
100
AcDbVertex
100
AcDb3dPolylineVertex
 10
45.0093
 20
75.3036
 30
0.0
 70
    32
  0
VERTEX
  5
568
330
528
100
AcDbEntity
  8
0
100
AcDbVertex
100
AcDb3dPolylineVertex
 10
45.2546
 20
75.3009
 30
0.0
 70
    32
  0
VERTEX
  5
569
330
528
100
AcDbEntity
  8
0
100
AcDbVertex
100
AcDb3dPolylineVertex
 10
45.49999999999999
 20
75.3
 30
0.0
 70
    32
  0
VERTEX
  5
56A
330
528
100
AcDbEntity
  8
0
100
AcDbVertex
100
AcDb3dPolylineVertex
 10
45.74539999999999
 20
75.3009
 30
0.0
 70
    32
  0
VERTEX
  5
56B
330
528
100
AcDbEntity
  8
0
100
AcDbVertex
100
AcDb3dPolylineVertex
 10
45.9907
 20
75.3036
 30
0.0
 70
    32
  0
VERTEX
  5
56C
330
528
100
AcDbEntity
  8
0
100
AcDbVertex
100
AcDb3dPolylineVertex
 10
46.2356
 20
75.30809999999999
 30
0.0
 70
    32
  0
VERTEX
  5
56D
330
528
100
AcDbEntity
  8
0
100
AcDbVertex
100
AcDb3dPolylineVertex
 10
46.4802
 20
75.31439999999999
 30
0.0
 70
    32
  0
VERTEX
  5
56E
330
528
100
AcDbEntity
  8
0
100
AcDbVertex
100
AcDb3dPolylineVertex
 10
46.7241
 20
75.32259999999999
 30
0.0
 70
    32
  0
VERTEX
  5
56F
330
528
100
AcDbEntity
  8
0
100
AcDbVertex
100
AcDb3dPolylineVertex
 10
46.9673
 20
75.33249999999999
 30
0.0
 70
    32
  0
VERTEX
  5
570
330
528
100
AcDbEntity
  8
0
100
AcDbVertex
100
AcDb3dPolylineVertex
 10
47.2096
 20
75.3442
 30
0.0
 70
    32
  0
VERTEX
  5
571
330
528
100
AcDbEntity
  8
0
100
AcDbVertex
100
AcDb3dPolylineVertex
 10
47.4509
 20
75.35759999999999
 30
0.0
 70
    32
  0
VERTEX
  5
572
330
528
100
AcDbEntity
  8
0
100
AcDbVertex
100
AcDb3dPolylineVertex
 10
47.691
 20
75.3729
 30
0.0
 70
    32
  0
VERTEX
  5
573
330
528
100
AcDbEntity
  8
0
100
AcDbVertex
100
AcDb3dPolylineVertex
 10
47.9298
 20
75.3899
 30
0.0
 70
    32
  0
VERTEX
  5
574
330
528
100
AcDbEntity
  8
0
100
AcDbVertex
100
AcDb3dPolylineVertex
 10
48.1671
 20
75.40869999999999
 30
0.0
 70
    32
  0
VERTEX
  5
575
330
528
100
AcDbEntity
  8
0
100
AcDbVertex
100
AcDb3dPolylineVertex
 10
48.40279999999999
 20
75.42919999999999
 30
0.0
 70
    32
  0
VERTEX
  5
576
330
528
100
AcDbEntity
  8
0
100
AcDbVertex
100
AcDb3dPolylineVertex
 10
48.6368
 20
75.45139999999999
 30
0.0
 70
    32
  0
VERTEX
  5
577
330
528
100
AcDbEntity
  8
0
100
AcDbVertex
100
AcDb3dPolylineVertex
 10
48.8689
 20
75.47539999999999
 30
0.0
 70
    32
  0
VERTEX
  5
578
330
528
100
AcDbEntity
  8
0
100
AcDbVertex
100
AcDb3dPolylineVertex
 10
49.099
 20
75.50099999999999
 30
0.0
 70
    32
  0
VERTEX
  5
579
330
528
100
AcDbEntity
  8
0
100
AcDbVertex
100
AcDb3dPolylineVertex
 10
49.3268
 20
75.52839999999999
 30
0.0
 70
    32
  0
VERTEX
  5
57A
330
528
100
AcDbEntity
  8
0
100
AcDbVertex
100
AcDb3dPolylineVertex
 10
49.55239999999999
 20
75.5574
 30
0.0
 70
    32
  0
VERTEX
  5
57B
330
528
100
AcDbEntity
  8
0
100
AcDbVertex
100
AcDb3dPolylineVertex
 10
49.7756
 20
75.58799999999999
 30
0.0
 70
    32
  0
VERTEX
  5
57C
330
528
100
AcDbEntity
  8
0
100
AcDbVertex
100
AcDb3dPolylineVertex
 10
49.9961
 20
75.6203
 30
0.0
 70
    32
  0
VERTEX
  5
57D
330
528
100
AcDbEntity
  8
0
100
AcDbVertex
100
AcDb3dPolylineVertex
 10
50.21399999999999
 20
75.6542
 30
0.0
 70
    32
  0
VERTEX
  5
57E
330
528
100
AcDbEntity
  8
0
100
AcDbVertex
100
AcDb3dPolylineVertex
 10
50.429
 20
75.6897
 30
0.0
 70
    32
  0
VERTEX
  5
57F
330
528
100
AcDbEntity
  8
0
100
AcDbVertex
100
AcDb3dPolylineVertex
 10
50.64099999999999
 20
75.7268
 30
0.0
 70
    32
  0
VERTEX
  5
580
330
528
100
AcDbEntity
  8
0
100
AcDbVertex
100
AcDb3dPolylineVertex
 10
50.85
 20
75.7654
 30
0.0
 70
    32
  0
VERTEX
  5
581
330
528
100
AcDbEntity
  8
0
100
AcDbVertex
100
AcDb3dPolylineVertex
 10
51.0557
 20
75.8056
 30
0.0
 70
    32
  0
VERTEX
  5
582
330
528
100
AcDbEntity
  8
0
100
AcDbVertex
100
AcDb3dPolylineVertex
 10
51.2581
 20
75.8472
 30
0.0
 70
    32
  0
VERTEX
  5
583
330
528
100
AcDbEntity
  8
0
100
AcDbVertex
100
AcDb3dPolylineVertex
 10
51.457
 20
75.8904
 30
0.0
 70
    32
  0
VERTEX
  5
584
330
528
100
AcDbEntity
  8
0
100
AcDbVertex
100
AcDb3dPolylineVertex
 10
51.6523
 20
75.935
 30
0.0
 70
    32
  0
VERTEX
  5
585
330
528
100
AcDbEntity
  8
0
100
AcDbVertex
100
AcDb3dPolylineVertex
 10
51.8439
 20
75.98099999999999
 30
0.0
 70
    32
  0
VERTEX
  5
586
330
528
100
AcDbEntity
  8
0
100
AcDbVertex
100
AcDb3dPolylineVertex
 10
52.0317
 20
76.02839999999999
 30
0.0
 70
    32
  0
VERTEX
  5
587
330
528
100
AcDbEntity
  8
0
100
AcDbVertex
100
AcDb3dPolylineVertex
 10
52.2156
 20
76.0771
 30
0.0
 70
    32
  0
VERTEX
  5
588
330
528
100
AcDbEntity
  8
0
100
AcDbVertex
100
AcDb3dPolylineVertex
 10
52.3954
 20
76.12729999999999
 30
0.0
 70
    32
  0
VERTEX
  5
589
330
528
100
AcDbEntity
  8
0
100
AcDbVertex
100
AcDb3dPolylineVertex
 10
52.5711
 20
76.17869999999999
 30
0.0
 70
    32
  0
VERTEX
  5
58A
330
528
100
AcDbEntity
  8
0
100
AcDbVertex
100
AcDb3dPolylineVertex
 10
52.7425
 20
76.23139999999999
 30
0.0
 70
    32
  0
VERTEX
  5
58B
330
528
100
AcDbEntity
  8
0
100
AcDbVertex
100
AcDb3dPolylineVertex
 10
52.9095
 20
76.28529999999999
 30
0.0
 70
    32
  0
VERTEX
  5
58C
330
528
100
AcDbEntity
  8
0
100
AcDbVertex
100
AcDb3dPolylineVertex
 10
53.0721
 20
76.34049999999999
 30
0.0
 70
    32
  0
VERTEX
  5
58D
330
528
100
AcDbEntity
  8
0
100
AcDbVertex
100
AcDb3dPolylineVertex
 10
53.2301
 20
76.3968
 30
0.0
 70
    32
  0
VERTEX
  5
58E
330
528
100
AcDbEntity
  8
0
100
AcDbVertex
100
AcDb3dPolylineVertex
 10
53.3835
 20
76.45430000000001
 30
0.0
 70
    32
  0
VERTEX
  5
58F
330
528
100
AcDbEntity
  8
0
100
AcDbVertex
100
AcDb3dPolylineVertex
 10
53.5321
 20
76.5129
 30
0.0
 70
    32
  0
VERTEX
  5
590
330
528
100
AcDbEntity
  8
0
100
AcDbVertex
100
AcDb3dPolylineVertex
 10
53.6758
 20
76.57259999999999
 30
0.0
 70
    32
  0
VERTEX
  5
591
330
528
100
AcDbEntity
  8
0
100
AcDbVertex
100
AcDb3dPolylineVertex
 10
53.8147
 20
76.63329999999999
 30
0.0
 70
    32
  0
VERTEX
  5
592
330
528
100
AcDbEntity
  8
0
100
AcDbVertex
100
AcDb3dPolylineVertex
 10
53.9485
 20
76.69499999999999
 30
0.0
 70
    32
  0
VERTEX
  5
593
330
528
100
AcDbEntity
  8
0
100
AcDbVertex
100
AcDb3dPolylineVertex
 10
54.0773
 20
76.75769999999999
 30
0.0
 70
    32
  0
VERTEX
  5
594
330
528
100
AcDbEntity
  8
0
100
AcDbVertex
100
AcDb3dPolylineVertex
 10
54.2009
 20
76.82129999999999
 30
0.0
 70
    32
  0
VERTEX
  5
595
330
528
100
AcDbEntity
  8
0
100
AcDbVertex
100
AcDb3dPolylineVertex
 10
54.3192
 20
76.8858
 30
0.0
 70
    32
  0
VERTEX
  5
596
330
528
100
AcDbEntity
  8
0
100
AcDbVertex
100
AcDb3dPolylineVertex
 10
54.4322
 20
76.9512
 30
0.0
 70
    32
  0
VERTEX
  5
597
330
528
100
AcDbEntity
  8
0
100
AcDbVertex
100
AcDb3dPolylineVertex
 10
54.53990000000001
 20
77.01729999999999
 30
0.0
 70
    32
  0
VERTEX
  5
598
330
528
100
AcDbEntity
  8
0
100
AcDbVertex
100
AcDb3dPolylineVertex
 10
54.6421
 20
77.08429999999999
 30
0.0
 70
    32
  0
VERTEX
  5
599
330
528
100
AcDbEntity
  8
0
100
AcDbVertex
100
AcDb3dPolylineVertex
 10
54.7388
 20
77.15189999999999
 30
0.0
 70
    32
  0
VERTEX
  5
59A
330
528
100
AcDbEntity
  8
0
100
AcDbVertex
100
AcDb3dPolylineVertex
 10
54.8299
 20
77.2203
 30
0.0
 70
    32
  0
VERTEX
  5
59B
330
528
100
AcDbEntity
  8
0
100
AcDbVertex
100
AcDb3dPolylineVertex
 10
54.9154
 20
77.2893
 30
0.0
 70
    32
  0
VERTEX
  5
59C
330
528
100
AcDbEntity
  8
0
100
AcDbVertex
100
AcDb3dPolylineVertex
 10
54.9953
 20
77.35899999999999
 30
0.0
 70
    32
  0
VERTEX
  5
59D
330
528
100
AcDbEntity
  8
0
100
AcDbVertex
100
AcDb3dPolylineVertex
 10
55.0694
 20
77.42909999999999
 30
0.0
 70
    32
  0
VERTEX
  5
59E
330
528
100
AcDbEntity
  8
0
100
AcDbVertex
100
AcDb3dPolylineVertex
 10
55.1378
 20
77.4999
 30
0.0
 70
    32
  0
VERTEX
  5
59F
330
528
100
AcDbEntity
  8
0
100
AcDbVertex
100
AcDb3dPolylineVertex
 10
55.2003
 20
77.5711
 30
0.0
 70
    32
  0
VERTEX
  5
5A0
330
528
100
AcDbEntity
  8
0
100
AcDbVertex
100
AcDb3dPolylineVertex
 10
55.257
 20
77.64269999999999
 30
0.0
 70
    32
  0
VERTEX
  5
5A1
330
528
100
AcDbEntity
  8
0
100
AcDbVertex
100
AcDb3dPolylineVertex
 10
55.30789999999999
 20
77.71469999999999
 30
0.0
 70
    32
  0
VERTEX
  5
5A2
330
528
100
AcDbEntity
  8
0
100
AcDbVertex
100
AcDb3dPolylineVertex
 10
55.3528
 20
77.7871
 30
0.0
 70
    32
  0
VERTEX
  5
5A3
330
528
100
AcDbEntity
  8
0
100
AcDbVertex
100
AcDb3dPolylineVertex
 10
55.3918
 20
77.85979999999999
 30
0.0
 70
    32
  0
VERTEX
  5
5A4
330
528
100
AcDbEntity
  8
0
100
AcDbVertex
100
AcDb3dPolylineVertex
 10
55.4248
 20
77.9328
 30
0.0
 70
    32
  0
VERTEX
  5
5A5
330
528
100
AcDbEntity
  8
0
100
AcDbVertex
100
AcDb3dPolylineVertex
 10
55.4518
 20
78.00589999999999
 30
0.0
 70
    32
  0
VERTEX
  5
5A6
330
528
100
AcDbEntity
  8
0
100
AcDbVertex
100
AcDb3dPolylineVertex
 10
55.4729
 20
78.0793
 30
0.0
 70
    32
  0
VERTEX
  5
5A7
330
528
100
AcDbEntity
  8
0
100
AcDbVertex
100
AcDb3dPolylineVertex
 10
55.48799999999999
 20
78.1528
 30
0.0
 70
    32
  0
VERTEX
  5
5A8
330
528
100
AcDbEntity
  8
0
100
AcDbVertex
100
AcDb3dPolylineVertex
 10
55.497
 20
78.22639999999999
 30
0.0
 70
    32
  0
VERTEX
  5
5A9
330
528
100
AcDbEntity
  8
0
100
AcDbVertex
100
AcDb3dPolylineVertex
 10
55.5
 20
78.3
 30
0.0
 70
    32
  0
SEQEND
  5
5AA
330
528
100
AcDbEntity
  8
0
  0
LINE
  5
5AB
330
3C5
100
AcDbEntity
  8
0
100
AcDbLine
 10
55.5
 20
78.3
 30
0.0
 11
55.5
 21
101.2999999999999
 31
0.0
  0
LINE
  5
5AC
330
3C5
100
AcDbEntity
  8
0
100
AcDbLine
 10
35.5
 20
101.2999999999999
 30
0.0
 11
35.5
 21
78.3
 31
0.0
  0
ARC
  5
5AD
330
3C5
100
AcDbEntity
  8
0
100
AcDbCircle
 10
45.49999999999999
 20
112.2181819999999
 30
0.0
 40
6.781817999999999
100
AcDbArc
 50
42.501011
 51
137.4989889999999
  0
LINE
  5
5AE
330
3C5
100
AcDbEntity
  8
0
100
AcDbLine
 10
35.5
 20
101.2999999999999
 30
0.0
 11
35.5
 21
101.8
 31
0.0
  0
LINE
  5
5AF
330
3C5
100
AcDbEntity
  8
0
100
AcDbLine
 10
55.5
 20
101.2999999999999
 30
0.0
 11
55.5
 21
101.8
 31
0.0
  0
POLYLINE
  5
5B0
330
3C5
100
AcDbEntity
  8
0
100
AcDb3dPolyline
 66
     1
 10
0.0
 20
0.0
 30
0.0
 70
     8
  0
VERTEX
  5
5B1
330
5B0
100
AcDbEntity
  8
0
100
AcDbVertex
100
AcDb3dPolylineVertex
 10
35.84459999999999
 20
102.4507
 30
0.0
 70
    32
  0
VERTEX
  5
5B2
330
5B0
100
AcDbEntity
  8
0
100
AcDbVertex
100
AcDb3dPolylineVertex
 10
35.774
 20
102.3811999999999
 30
0.0
 70
    32
  0
VERTEX
  5
5B3
330
5B0
100
AcDbEntity
  8
0
100
AcDbVertex
100
AcDb3dPolylineVertex
 10
35.71139999999999
 20
102.3112999999999
 30
0.0
 70
    32
  0
VERTEX
  5
5B4
330
5B0
100
AcDbEntity
  8
0
100
AcDbVertex
100
AcDb3dPolylineVertex
 10
35.65679999999999
 20
102.241
 30
0.0
 70
    32
  0
VERTEX
  5
5B5
330
5B0
100
AcDbEntity
  8
0
100
AcDbVertex
100
AcDb3dPolylineVertex
 10
35.6103
 20
102.1703
 30
0.0
 70
    32
  0
VERTEX
  5
5B6
330
5B0
100
AcDbEntity
  8
0
100
AcDbVertex
100
AcDb3dPolylineVertex
 10
35.5719
 20
102.0993
 30
0.0
 70
    32
  0
VERTEX
  5
5B7
330
5B0
100
AcDbEntity
  8
0
100
AcDbVertex
100
AcDb3dPolylineVertex
 10
35.5417
 20
102.0280999999999
 30
0.0
 70
    32
  0
VERTEX
  5
5B8
330
5B0
100
AcDbEntity
  8
0
100
AcDbVertex
100
AcDb3dPolylineVertex
 10
35.51959999999999
 20
101.9565999999999
 30
0.0
 70
    32
  0
VERTEX
  5
5B9
330
5B0
100
AcDbEntity
  8
0
100
AcDbVertex
100
AcDb3dPolylineVertex
 10
35.5058
 20
101.8850999999999
 30
0.0
 70
    32
  0
VERTEX
  5
5BA
330
5B0
100
AcDbEntity
  8
0
100
AcDbVertex
100
AcDb3dPolylineVertex
 10
35.5001
 20
101.8135
 30
0.0
 70
    32
  0
VERTEX
  5
5BB
330
5B0
100
AcDbEntity
  8
0
100
AcDbVertex
100
AcDb3dPolylineVertex
 10
35.50269999999999
 20
101.7417999999999
 30
0.0
 70
    32
  0
VERTEX
  5
5BC
330
5B0
100
AcDbEntity
  8
0
100
AcDbVertex
100
AcDb3dPolylineVertex
 10
35.5135
 20
101.6701999999999
 30
0.0
 70
    32
  0
VERTEX
  5
5BD
330
5B0
100
AcDbEntity
  8
0
100
AcDbVertex
100
AcDb3dPolylineVertex
 10
35.5325
 20
101.5986999999999
 30
0.0
 70
    32
  0
VERTEX
  5
5BE
330
5B0
100
AcDbEntity
  8
0
100
AcDbVertex
100
AcDb3dPolylineVertex
 10
35.5596
 20
101.5274
 30
0.0
 70
    32
  0
VERTEX
  5
5BF
330
5B0
100
AcDbEntity
  8
0
100
AcDbVertex
100
AcDb3dPolylineVertex
 10
35.5949
 20
101.4563
 30
0.0
 70
    32
  0
VERTEX
  5
5C0
330
5B0
100
AcDbEntity
  8
0
100
AcDbVertex
100
AcDb3dPolylineVertex
 10
35.63839999999999
 20
101.3854999999999
 30
0.0
 70
    32
  0
VERTEX
  5
5C1
330
5B0
100
AcDbEntity
  8
0
100
AcDbVertex
100
AcDb3dPolylineVertex
 10
35.68999999999999
 20
101.3149999999999
 30
0.0
 70
    32
  0
VERTEX
  5
5C2
330
5B0
100
AcDbEntity
  8
0
100
AcDbVertex
100
AcDb3dPolylineVertex
 10
35.7496
 20
101.2449999999999
 30
0.0
 70
    32
  0
VERTEX
  5
5C3
330
5B0
100
AcDbEntity
  8
0
100
AcDbVertex
100
AcDb3dPolylineVertex
 10
35.8172
 20
101.1752999999999
 30
0.0
 70
    32
  0
VERTEX
  5
5C4
330
5B0
100
AcDbEntity
  8
0
100
AcDbVertex
100
AcDb3dPolylineVertex
 10
35.8928
 20
101.1062
 30
0.0
 70
    32
  0
VERTEX
  5
5C5
330
5B0
100
AcDbEntity
  8
0
100
AcDbVertex
100
AcDb3dPolylineVertex
 10
35.9762
 20
101.0377
 30
0.0
 70
    32
  0
VERTEX
  5
5C6
330
5B0
100
AcDbEntity
  8
0
100
AcDbVertex
100
AcDb3dPolylineVertex
 10
36.0675
 20
100.9697999999999
 30
0.0
 70
    32
  0
VERTEX
  5
5C7
330
5B0
100
AcDbEntity
  8
0
100
AcDbVertex
100
AcDb3dPolylineVertex
 10
36.16649999999999
 20
100.9025999999999
 30
0.0
 70
    32
  0
VERTEX
  5
5C8
330
5B0
100
AcDbEntity
  8
0
100
AcDbVertex
100
AcDb3dPolylineVertex
 10
36.2732
 20
100.8361
 30
0.0
 70
    32
  0
VERTEX
  5
5C9
330
5B0
100
AcDbEntity
  8
0
100
AcDbVertex
100
AcDb3dPolylineVertex
 10
36.3875
 20
100.7703999999999
 30
0.0
 70
    32
  0
VERTEX
  5
5CA
330
5B0
100
AcDbEntity
  8
0
100
AcDbVertex
100
AcDb3dPolylineVertex
 10
36.5092
 20
100.7055
 30
0.0
 70
    32
  0
VERTEX
  5
5CB
330
5B0
100
AcDbEntity
  8
0
100
AcDbVertex
100
AcDb3dPolylineVertex
 10
36.63839999999999
 20
100.6415999999999
 30
0.0
 70
    32
  0
VERTEX
  5
5CC
330
5B0
100
AcDbEntity
  8
0
100
AcDbVertex
100
AcDb3dPolylineVertex
 10
36.7748
 20
100.5786
 30
0.0
 70
    32
  0
VERTEX
  5
5CD
330
5B0
100
AcDbEntity
  8
0
100
AcDbVertex
100
AcDb3dPolylineVertex
 10
36.9184
 20
100.5166
 30
0.0
 70
    32
  0
VERTEX
  5
5CE
330
5B0
100
AcDbEntity
  8
0
100
AcDbVertex
100
AcDb3dPolylineVertex
 10
37.069
 20
100.4556
 30
0.0
 70
    32
  0
VERTEX
  5
5CF
330
5B0
100
AcDbEntity
  8
0
100
AcDbVertex
100
AcDb3dPolylineVertex
 10
37.2265
 20
100.3957999999999
 30
0.0
 70
    32
  0
VERTEX
  5
5D0
330
5B0
100
AcDbEntity
  8
0
100
AcDbVertex
100
AcDb3dPolylineVertex
 10
37.3909
 20
100.3371
 30
0.0
 70
    32
  0
VERTEX
  5
5D1
330
5B0
100
AcDbEntity
  8
0
100
AcDbVertex
100
AcDb3dPolylineVertex
 10
37.5619
 20
100.2796
 30
0.0
 70
    32
  0
VERTEX
  5
5D2
330
5B0
100
AcDbEntity
  8
0
100
AcDbVertex
100
AcDb3dPolylineVertex
 10
37.7394
 20
100.2232999999999
 30
0.0
 70
    32
  0
VERTEX
  5
5D3
330
5B0
100
AcDbEntity
  8
0
100
AcDbVertex
100
AcDb3dPolylineVertex
 10
37.92329999999999
 20
100.1684
 30
0.0
 70
    32
  0
VERTEX
  5
5D4
330
5B0
100
AcDbEntity
  8
0
100
AcDbVertex
100
AcDb3dPolylineVertex
 10
38.11339999999999
 20
100.1148
 30
0.0
 70
    32
  0
VERTEX
  5
5D5
330
5B0
100
AcDbEntity
  8
0
100
AcDbVertex
100
AcDb3dPolylineVertex
 10
38.3096
 20
100.0626
 30
0.0
 70
    32
  0
VERTEX
  5
5D6
330
5B0
100
AcDbEntity
  8
0
100
AcDbVertex
100
AcDb3dPolylineVertex
 10
38.51169999999999
 20
100.0118
 30
0.0
 70
    32
  0
VERTEX
  5
5D7
330
5B0
100
AcDbEntity
  8
0
100
AcDbVertex
100
AcDb3dPolylineVertex
 10
38.7195
 20
99.96249999999999
 30
0.0
 70
    32
  0
VERTEX
  5
5D8
330
5B0
100
AcDbEntity
  8
0
100
AcDbVertex
100
AcDb3dPolylineVertex
 10
38.9329
 20
99.9146
 30
0.0
 70
    32
  0
VERTEX
  5
5D9
330
5B0
100
AcDbEntity
  8
0
100
AcDbVertex
100
AcDb3dPolylineVertex
 10
39.15169999999999
 20
99.8684
 30
0.0
 70
    32
  0
VERTEX
  5
5DA
330
5B0
100
AcDbEntity
  8
0
100
AcDbVertex
100
AcDb3dPolylineVertex
 10
39.3757
 20
99.82370000000001
 30
0.0
 70
    32
  0
VERTEX
  5
5DB
330
5B0
100
AcDbEntity
  8
0
100
AcDbVertex
100
AcDb3dPolylineVertex
 10
39.6047
 20
99.78059999999999
 30
0.0
 70
    32
  0
VERTEX
  5
5DC
330
5B0
100
AcDbEntity
  8
0
100
AcDbVertex
100
AcDb3dPolylineVertex
 10
39.83859999999999
 20
99.73919999999999
 30
0.0
 70
    32
  0
VERTEX
  5
5DD
330
5B0
100
AcDbEntity
  8
0
100
AcDbVertex
100
AcDb3dPolylineVertex
 10
40.0771
 20
99.6995
 30
0.0
 70
    32
  0
VERTEX
  5
5DE
330
5B0
100
AcDbEntity
  8
0
100
AcDbVertex
100
AcDb3dPolylineVertex
 10
40.32009999999999
 20
99.6615
 30
0.0
 70
    32
  0
VERTEX
  5
5DF
330
5B0
100
AcDbEntity
  8
0
100
AcDbVertex
100
AcDb3dPolylineVertex
 10
40.5673
 20
99.6253
 30
0.0
 70
    32
  0
VERTEX
  5
5E0
330
5B0
100
AcDbEntity
  8
0
100
AcDbVertex
100
AcDb3dPolylineVertex
 10
40.8186
 20
99.59089999999999
 30
0.0
 70
    32
  0
VERTEX
  5
5E1
330
5B0
100
AcDbEntity
  8
0
100
AcDbVertex
100
AcDb3dPolylineVertex
 10
41.0737
 20
99.55820000000001
 30
0.0
 70
    32
  0
VERTEX
  5
5E2
330
5B0
100
AcDbEntity
  8
0
100
AcDbVertex
100
AcDb3dPolylineVertex
 10
41.3325
 20
99.5274
 30
0.0
 70
    32
  0
VERTEX
  5
5E3
330
5B0
100
AcDbEntity
  8
0
100
AcDbVertex
100
AcDb3dPolylineVertex
 10
41.5947
 20
99.49849999999999
 30
0.0
 70
    32
  0
VERTEX
  5
5E4
330
5B0
100
AcDbEntity
  8
0
100
AcDbVertex
100
AcDb3dPolylineVertex
 10
41.8601
 20
99.4715
 30
0.0
 70
    32
  0
VERTEX
  5
5E5
330
5B0
100
AcDbEntity
  8
0
100
AcDbVertex
100
AcDb3dPolylineVertex
 10
42.12839999999999
 20
99.44639999999999
 30
0.0
 70
    32
  0
VERTEX
  5
5E6
330
5B0
100
AcDbEntity
  8
0
100
AcDbVertex
100
AcDb3dPolylineVertex
 10
42.39959999999999
 20
99.4232
 30
0.0
 70
    32
  0
VERTEX
  5
5E7
330
5B0
100
AcDbEntity
  8
0
100
AcDbVertex
100
AcDb3dPolylineVertex
 10
42.6733
 20
99.402
 30
0.0
 70
    32
  0
VERTEX
  5
5E8
330
5B0
100
AcDbEntity
  8
0
100
AcDbVertex
100
AcDb3dPolylineVertex
 10
42.94929999999999
 20
99.38270000000001
 30
0.0
 70
    32
  0
VERTEX
  5
5E9
330
5B0
100
AcDbEntity
  8
0
100
AcDbVertex
100
AcDb3dPolylineVertex
 10
43.2274
 20
99.3654
 30
0.0
 70
    32
  0
VERTEX
  5
5EA
330
5B0
100
AcDbEntity
  8
0
100
AcDbVertex
100
AcDb3dPolylineVertex
 10
43.5074
 20
99.3501
 30
0.0
 70
    32
  0
VERTEX
  5
5EB
330
5B0
100
AcDbEntity
  8
0
100
AcDbVertex
100
AcDb3dPolylineVertex
 10
43.789
 20
99.3369
 30
0.0
 70
    32
  0
VERTEX
  5
5EC
330
5B0
100
AcDbEntity
  8
0
100
AcDbVertex
100
AcDb3dPolylineVertex
 10
44.072
 20
99.3256
 30
0.0
 70
    32
  0
VERTEX
  5
5ED
330
5B0
100
AcDbEntity
  8
0
100
AcDbVertex
100
AcDb3dPolylineVertex
 10
44.3562
 20
99.31640000000001
 30
0.0
 70
    32
  0
VERTEX
  5
5EE
330
5B0
100
AcDbEntity
  8
0
100
AcDbVertex
100
AcDb3dPolylineVertex
 10
44.64129999999999
 20
99.3092
 30
0.0
 70
    32
  0
VERTEX
  5
5EF
330
5B0
100
AcDbEntity
  8
0
100
AcDbVertex
100
AcDb3dPolylineVertex
 10
44.9272
 20
99.3041
 30
0.0
 70
    32
  0
VERTEX
  5
5F0
330
5B0
100
AcDbEntity
  8
0
100
AcDbVertex
100
AcDb3dPolylineVertex
 10
45.2135
 20
99.30100000000001
 30
0.0
 70
    32
  0
VERTEX
  5
5F1
330
5B0
100
AcDbEntity
  8
0
100
AcDbVertex
100
AcDb3dPolylineVertex
 10
45.49999999999999
 20
99.29999999999999
 30
0.0
 70
    32
  0
VERTEX
  5
5F2
330
5B0
100
AcDbEntity
  8
0
100
AcDbVertex
100
AcDb3dPolylineVertex
 10
45.78649999999999
 20
99.30100000000001
 30
0.0
 70
    32
  0
VERTEX
  5
5F3
330
5B0
100
AcDbEntity
  8
0
100
AcDbVertex
100
AcDb3dPolylineVertex
 10
46.0728
 20
99.3041
 30
0.0
 70
    32
  0
VERTEX
  5
5F4
330
5B0
100
AcDbEntity
  8
0
100
AcDbVertex
100
AcDb3dPolylineVertex
 10
46.35869999999999
 20
99.3092
 30
0.0
 70
    32
  0
VERTEX
  5
5F5
330
5B0
100
AcDbEntity
  8
0
100
AcDbVertex
100
AcDb3dPolylineVertex
 10
46.6438
 20
99.31640000000001
 30
0.0
 70
    32
  0
VERTEX
  5
5F6
330
5B0
100
AcDbEntity
  8
0
100
AcDbVertex
100
AcDb3dPolylineVertex
 10
46.928
 20
99.3256
 30
0.0
 70
    32
  0
VERTEX
  5
5F7
330
5B0
100
AcDbEntity
  8
0
100
AcDbVertex
100
AcDb3dPolylineVertex
 10
47.21099999999999
 20
99.3369
 30
0.0
 70
    32
  0
VERTEX
  5
5F8
330
5B0
100
AcDbEntity
  8
0
100
AcDbVertex
100
AcDb3dPolylineVertex
 10
47.4926
 20
99.3501
 30
0.0
 70
    32
  0
VERTEX
  5
5F9
330
5B0
100
AcDbEntity
  8
0
100
AcDbVertex
100
AcDb3dPolylineVertex
 10
47.7726
 20
99.3654
 30
0.0
 70
    32
  0
VERTEX
  5
5FA
330
5B0
100
AcDbEntity
  8
0
100
AcDbVertex
100
AcDb3dPolylineVertex
 10
48.0507
 20
99.38270000000001
 30
0.0
 70
    32
  0
VERTEX
  5
5FB
330
5B0
100
AcDbEntity
  8
0
100
AcDbVertex
100
AcDb3dPolylineVertex
 10
48.3267
 20
99.402
 30
0.0
 70
    32
  0
VERTEX
  5
5FC
330
5B0
100
AcDbEntity
  8
0
100
AcDbVertex
100
AcDb3dPolylineVertex
 10
48.6004
 20
99.4232
 30
0.0
 70
    32
  0
VERTEX
  5
5FD
330
5B0
100
AcDbEntity
  8
0
100
AcDbVertex
100
AcDb3dPolylineVertex
 10
48.8716
 20
99.44639999999999
 30
0.0
 70
    32
  0
VERTEX
  5
5FE
330
5B0
100
AcDbEntity
  8
0
100
AcDbVertex
100
AcDb3dPolylineVertex
 10
49.1399
 20
99.4715
 30
0.0
 70
    32
  0
VERTEX
  5
5FF
330
5B0
100
AcDbEntity
  8
0
100
AcDbVertex
100
AcDb3dPolylineVertex
 10
49.40529999999999
 20
99.49849999999999
 30
0.0
 70
    32
  0
VERTEX
  5
600
330
5B0
100
AcDbEntity
  8
0
100
AcDbVertex
100
AcDb3dPolylineVertex
 10
49.6675
 20
99.5274
 30
0.0
 70
    32
  0
VERTEX
  5
601
330
5B0
100
AcDbEntity
  8
0
100
AcDbVertex
100
AcDb3dPolylineVertex
 10
49.9263
 20
99.55820000000001
 30
0.0
 70
    32
  0
VERTEX
  5
602
330
5B0
100
AcDbEntity
  8
0
100
AcDbVertex
100
AcDb3dPolylineVertex
 10
50.18139999999999
 20
99.59089999999999
 30
0.0
 70
    32
  0
VERTEX
  5
603
330
5B0
100
AcDbEntity
  8
0
100
AcDbVertex
100
AcDb3dPolylineVertex
 10
50.43269999999999
 20
99.6253
 30
0.0
 70
    32
  0
VERTEX
  5
604
330
5B0
100
AcDbEntity
  8
0
100
AcDbVertex
100
AcDb3dPolylineVertex
 10
50.6799
 20
99.6615
 30
0.0
 70
    32
  0
VERTEX
  5
605
330
5B0
100
AcDbEntity
  8
0
100
AcDbVertex
100
AcDb3dPolylineVertex
 10
50.9229
 20
99.6995
 30
0.0
 70
    32
  0
VERTEX
  5
606
330
5B0
100
AcDbEntity
  8
0
100
AcDbVertex
100
AcDb3dPolylineVertex
 10
51.1614
 20
99.73919999999999
 30
0.0
 70
    32
  0
VERTEX
  5
607
330
5B0
100
AcDbEntity
  8
0
100
AcDbVertex
100
AcDb3dPolylineVertex
 10
51.3953
 20
99.78059999999999
 30
0.0
 70
    32
  0
VERTEX
  5
608
330
5B0
100
AcDbEntity
  8
0
100
AcDbVertex
100
AcDb3dPolylineVertex
 10
51.6243
 20
99.82370000000001
 30
0.0
 70
    32
  0
VERTEX
  5
609
330
5B0
100
AcDbEntity
  8
0
100
AcDbVertex
100
AcDb3dPolylineVertex
 10
51.8483
 20
99.8684
 30
0.0
 70
    32
  0
VERTEX
  5
60A
330
5B0
100
AcDbEntity
  8
0
100
AcDbVertex
100
AcDb3dPolylineVertex
 10
52.06710000000001
 20
99.9146
 30
0.0
 70
    32
  0
VERTEX
  5
60B
330
5B0
100
AcDbEntity
  8
0
100
AcDbVertex
100
AcDb3dPolylineVertex
 10
52.2805
 20
99.96249999999999
 30
0.0
 70
    32
  0
VERTEX
  5
60C
330
5B0
100
AcDbEntity
  8
0
100
AcDbVertex
100
AcDb3dPolylineVertex
 10
52.4883
 20
100.0118
 30
0.0
 70
    32
  0
VERTEX
  5
60D
330
5B0
100
AcDbEntity
  8
0
100
AcDbVertex
100
AcDb3dPolylineVertex
 10
52.6904
 20
100.0626
 30
0.0
 70
    32
  0
VERTEX
  5
60E
330
5B0
100
AcDbEntity
  8
0
100
AcDbVertex
100
AcDb3dPolylineVertex
 10
52.8866
 20
100.1148
 30
0.0
 70
    32
  0
VERTEX
  5
60F
330
5B0
100
AcDbEntity
  8
0
100
AcDbVertex
100
AcDb3dPolylineVertex
 10
53.0767
 20
100.1684
 30
0.0
 70
    32
  0
VERTEX
  5
610
330
5B0
100
AcDbEntity
  8
0
100
AcDbVertex
100
AcDb3dPolylineVertex
 10
53.2606
 20
100.2232999999999
 30
0.0
 70
    32
  0
VERTEX
  5
611
330
5B0
100
AcDbEntity
  8
0
100
AcDbVertex
100
AcDb3dPolylineVertex
 10
53.4381
 20
100.2796
 30
0.0
 70
    32
  0
VERTEX
  5
612
330
5B0
100
AcDbEntity
  8
0
100
AcDbVertex
100
AcDb3dPolylineVertex
 10
53.6091
 20
100.3371
 30
0.0
 70
    32
  0
VERTEX
  5
613
330
5B0
100
AcDbEntity
  8
0
100
AcDbVertex
100
AcDb3dPolylineVertex
 10
53.77349999999999
 20
100.3957999999999
 30
0.0
 70
    32
  0
VERTEX
  5
614
330
5B0
100
AcDbEntity
  8
0
100
AcDbVertex
100
AcDb3dPolylineVertex
 10
53.931
 20
100.4556
 30
0.0
 70
    32
  0
VERTEX
  5
615
330
5B0
100
AcDbEntity
  8
0
100
AcDbVertex
100
AcDb3dPolylineVertex
 10
54.0816
 20
100.5166
 30
0.0
 70
    32
  0
VERTEX
  5
616
330
5B0
100
AcDbEntity
  8
0
100
AcDbVertex
100
AcDb3dPolylineVertex
 10
54.2252
 20
100.5786
 30
0.0
 70
    32
  0
VERTEX
  5
617
330
5B0
100
AcDbEntity
  8
0
100
AcDbVertex
100
AcDb3dPolylineVertex
 10
54.3616
 20
100.6415999999999
 30
0.0
 70
    32
  0
VERTEX
  5
618
330
5B0
100
AcDbEntity
  8
0
100
AcDbVertex
100
AcDb3dPolylineVertex
 10
54.4908
 20
100.7055
 30
0.0
 70
    32
  0
VERTEX
  5
619
330
5B0
100
AcDbEntity
  8
0
100
AcDbVertex
100
AcDb3dPolylineVertex
 10
54.61249999999999
 20
100.7703999999999
 30
0.0
 70
    32
  0
VERTEX
  5
61A
330
5B0
100
AcDbEntity
  8
0
100
AcDbVertex
100
AcDb3dPolylineVertex
 10
54.7268
 20
100.8361
 30
0.0
 70
    32
  0
VERTEX
  5
61B
330
5B0
100
AcDbEntity
  8
0
100
AcDbVertex
100
AcDb3dPolylineVertex
 10
54.8335
 20
100.9025999999999
 30
0.0
 70
    32
  0
VERTEX
  5
61C
330
5B0
100
AcDbEntity
  8
0
100
AcDbVertex
100
AcDb3dPolylineVertex
 10
54.93249999999999
 20
100.9697999999999
 30
0.0
 70
    32
  0
VERTEX
  5
61D
330
5B0
100
AcDbEntity
  8
0
100
AcDbVertex
100
AcDb3dPolylineVertex
 10
55.0238
 20
101.0377
 30
0.0
 70
    32
  0
VERTEX
  5
61E
330
5B0
100
AcDbEntity
  8
0
100
AcDbVertex
100
AcDb3dPolylineVertex
 10
55.1072
 20
101.1062
 30
0.0
 70
    32
  0
VERTEX
  5
61F
330
5B0
100
AcDbEntity
  8
0
100
AcDbVertex
100
AcDb3dPolylineVertex
 10
55.1828
 20
101.1752999999999
 30
0.0
 70
    32
  0
VERTEX
  5
620
330
5B0
100
AcDbEntity
  8
0
100
AcDbVertex
100
AcDb3dPolylineVertex
 10
55.2504
 20
101.2449999999999
 30
0.0
 70
    32
  0
VERTEX
  5
621
330
5B0
100
AcDbEntity
  8
0
100
AcDbVertex
100
AcDb3dPolylineVertex
 10
55.31
 20
101.3149999999999
 30
0.0
 70
    32
  0
VERTEX
  5
622
330
5B0
100
AcDbEntity
  8
0
100
AcDbVertex
100
AcDb3dPolylineVertex
 10
55.3616
 20
101.3854999999999
 30
0.0
 70
    32
  0
VERTEX
  5
623
330
5B0
100
AcDbEntity
  8
0
100
AcDbVertex
100
AcDb3dPolylineVertex
 10
55.4051
 20
101.4563
 30
0.0
 70
    32
  0
VERTEX
  5
624
330
5B0
100
AcDbEntity
  8
0
100
AcDbVertex
100
AcDb3dPolylineVertex
 10
55.44039999999999
 20
101.5274
 30
0.0
 70
    32
  0
VERTEX
  5
625
330
5B0
100
AcDbEntity
  8
0
100
AcDbVertex
100
AcDb3dPolylineVertex
 10
55.4675
 20
101.5986999999999
 30
0.0
 70
    32
  0
VERTEX
  5
626
330
5B0
100
AcDbEntity
  8
0
100
AcDbVertex
100
AcDb3dPolylineVertex
 10
55.4865
 20
101.6701999999999
 30
0.0
 70
    32
  0
VERTEX
  5
627
330
5B0
100
AcDbEntity
  8
0
100
AcDbVertex
100
AcDb3dPolylineVertex
 10
55.4973
 20
101.7417999999999
 30
0.0
 70
    32
  0
VERTEX
  5
628
330
5B0
100
AcDbEntity
  8
0
100
AcDbVertex
100
AcDb3dPolylineVertex
 10
55.4999
 20
101.8135
 30
0.0
 70
    32
  0
VERTEX
  5
629
330
5B0
100
AcDbEntity
  8
0
100
AcDbVertex
100
AcDb3dPolylineVertex
 10
55.4942
 20
101.8850999999999
 30
0.0
 70
    32
  0
VERTEX
  5
62A
330
5B0
100
AcDbEntity
  8
0
100
AcDbVertex
100
AcDb3dPolylineVertex
 10
55.4804
 20
101.9565999999999
 30
0.0
 70
    32
  0
VERTEX
  5
62B
330
5B0
100
AcDbEntity
  8
0
100
AcDbVertex
100
AcDb3dPolylineVertex
 10
55.4583
 20
102.0280999999999
 30
0.0
 70
    32
  0
VERTEX
  5
62C
330
5B0
100
AcDbEntity
  8
0
100
AcDbVertex
100
AcDb3dPolylineVertex
 10
55.4281
 20
102.0993
 30
0.0
 70
    32
  0
VERTEX
  5
62D
330
5B0
100
AcDbEntity
  8
0
100
AcDbVertex
100
AcDb3dPolylineVertex
 10
55.38969999999999
 20
102.1703
 30
0.0
 70
    32
  0
VERTEX
  5
62E
330
5B0
100
AcDbEntity
  8
0
100
AcDbVertex
100
AcDb3dPolylineVertex
 10
55.34320000000001
 20
102.241
 30
0.0
 70
    32
  0
VERTEX
  5
62F
330
5B0
100
AcDbEntity
  8
0
100
AcDbVertex
100
AcDb3dPolylineVertex
 10
55.2886
 20
102.3112999999999
 30
0.0
 70
    32
  0
VERTEX
  5
630
330
5B0
100
AcDbEntity
  8
0
100
AcDbVertex
100
AcDb3dPolylineVertex
 10
55.226
 20
102.3811999999999
 30
0.0
 70
    32
  0
VERTEX
  5
631
330
5B0
100
AcDbEntity
  8
0
100
AcDbVertex
100
AcDb3dPolylineVertex
 10
55.1554
 20
102.4507
 30
0.0
 70
    32
  0
SEQEND
  5
632
330
5B0
100
AcDbEntity
  8
0
  0
LINE
  5
633
330
3C5
100
AcDbEntity
  8
0
100
AcDbLine
 10
50.5
 20
116.7999999999999
 30
0.0
 11
52.3
 21
103.63303
 31
0.0
  0
LINE
  5
634
330
3C5
100
AcDbEntity
  8
0
100
AcDbLine
 10
40.49999999999999
 20
116.7999999999999
 30
0.0
 11
38.7
 21
103.63303
 31
0.0
  0
LINE
  5
6BD
330
3C5
100
AcDbEntity
  8
0
100
AcDbLine
 10
41.5
 20
63.0
 30
0.0
 11
41.5
 21
49.0
 31
0.0
  0
LINE
  5
6BE
330
3C5
100
AcDbEntity
  8
0
100
AcDbLine
 10
41.5
 20
49.0
 30
0.0
 11
42.5
 21
48.0
 31
0.0
  0
LINE
  5
6BF
330
3C5
100
AcDbEntity
  8
0
100
AcDbLine
 10
42.5
 20
48.0
 30
0.0
 11
45.49999999999999
 21
48.0
 31
0.0
  0
LINE
  5
6C0
330
3C5
100
AcDbEntity
  8
0
100
AcDbLine
 10
41.5
 20
49.0
 30
0.0
 11
45.49999999999999
 21
49.0
 31
0.0
  0
LINE
  5
6C1
330
3C5
100
AcDbEntity
  8
0
100
AcDbLine
 10
42.5
 20
48.0
 30
0.0
 11
42.5
 21
62.0
 31
0.0
  0
LINE
  5
6C2
330
3C5
100
AcDbEntity
  8
0
100
AcDbLine
 10
41.5
 20
62.0
 30
0.0
 11
45.49999999999999
 21
62.0
 31
0.0
  0
LINE
  5
6C3
330
3C5
100
AcDbEntity
  8
0
100
AcDbLine
 10
48.5
 20
48.0
 30
0.0
 11
48.5
 21
62.0
 31
0.0
  0
LINE
  5
6C4
330
3C5
100
AcDbEntity
  8
0
100
AcDbLine
 10
49.5
 20
63.0
 30
0.0
 11
49.5
 21
49.0
 31
0.0
  0
LINE
  5
6C5
330
3C5
100
AcDbEntity
  8
0
100
AcDbLine
 10
49.5
 20
49.0
 30
0.0
 11
45.49999999999999
 21
49.0
 31
0.0
  0
LINE
  5
6C6
330
3C5
100
AcDbEntity
  8
0
100
AcDbLine
 10
48.5
 20
48.0
 30
0.0
 11
45.49999999999999
 21
48.0
 31
0.0
  0
LINE
  5
6C7
330
3C5
100
AcDbEntity
  8
0
100
AcDbLine
 10
49.5
 20
49.0
 30
0.0
 11
48.5
 21
48.0
 31
0.0
  0
LINE
  5
6C8
330
3C5
100
AcDbEntity
  8
0
100
AcDbLine
 10
49.5
 20
62.0
 30
0.0
 11
45.49999999999999
 21
62.0
 31
0.0
  0
LINE
  5
6C9
330
3C5
100
AcDbEntity
  8
1
100
AcDbLine
 10
108.4999999999999
 20
108.8
 30
0.0
 11
108.4999999999999
 21
43.0
 31
0.0
  0
LINE
  5
6CA
330
3C5
100
AcDbEntity
  8
0
100
AcDbLine
 10
104.4999999999999
 20
63.0
 30
0.0
 11
104.4999999999999
 21
49.0
 31
0.0
  0
LINE
  5
6CB
330
3C5
100
AcDbEntity
  8
0
100
AcDbLine
 10
105.4999999999999
 20
48.0
 30
0.0
 11
105.4999999999999
 21
62.0
 31
0.0
  0
LINE
  5
6CC
330
3C5
100
AcDbEntity
  8
0
100
AcDbLine
 10
111.4999999999999
 20
48.0
 30
0.0
 11
111.4999999999999
 21
62.0
 31
0.0
  0
LINE
  5
6CD
330
3C5
100
AcDbEntity
  8
0
100
AcDbLine
 10
112.5
 20
63.0
 30
0.0
 11
112.5
 21
49.0
 31
0.0
  0
LINE
  5
6CE
330
3C5
100
AcDbEntity
  8
0
100
AcDbLine
 10
111.4999999999999
 20
48.0
 30
0.0
 11
108.4999999999999
 21
48.0
 31
0.0
  0
LINE
  5
6CF
330
3C5
100
AcDbEntity
  8
0
100
AcDbLine
 10
112.5
 20
49.0
 30
0.0
 11
108.4999999999999
 21
49.0
 31
0.0
  0
LINE
  5
6D0
330
3C5
100
AcDbEntity
  8
0
100
AcDbLine
 10
104.4999999999999
 20
49.0
 30
0.0
 11
105.4999999999999
 21
48.0
 31
0.0
  0
LINE
  5
6D1
330
3C5
100
AcDbEntity
  8
0
100
AcDbLine
 10
104.4999999999999
 20
49.0
 30
0.0
 11
108.4999999999999
 21
49.0
 31
0.0
  0
LINE
  5
6D2
330
3C5
100
AcDbEntity
  8
0
100
AcDbLine
 10
105.4999999999999
 20
48.0
 30
0.0
 11
108.4999999999999
 21
48.0
 31
0.0
  0
LINE
  5
6D3
330
3C5
100
AcDbEntity
  8
0
100
AcDbLine
 10
112.5
 20
49.0
 30
0.0
 11
111.4999999999999
 21
48.0
 31
0.0
  0
LINE
  5
6D4
330
3C5
100
AcDbEntity
  8
0
100
AcDbLine
 10
108.4999999999999
 20
63.0
 30
0.0
 11
116.0
 21
63.0
 31
0.0
  0
LINE
  5
6D5
330
3C5
100
AcDbEntity
  8
0
100
AcDbLine
 10
112.5
 20
62.0
 30
0.0
 11
108.4999999999999
 21
62.0
 31
0.0
  0
LINE
  5
6D6
330
3C5
100
AcDbEntity
  8
0
100
AcDbLine
 10
108.4999999999999
 20
63.0
 30
0.0
 11
101.0
 21
63.0
 31
0.0
  0
LINE
  5
6D7
330
3C5
100
AcDbEntity
  8
0
100
AcDbLine
 10
104.4999999999999
 20
62.0
 30
0.0
 11
108.4999999999999
 21
62.0
 31
0.0
  0
LINE
  5
6D8
330
3C5
100
AcDbEntity
  8
0
100
AcDbLine
 10
101.0
 20
63.0
 30
0.0
 11
101.0
 21
75.925
 31
0.0
  0
LINE
  5
6D9
330
3C5
100
AcDbEntity
  8
0
100
AcDbLine
 10
116.0
 20
63.0
 30
0.0
 11
116.0
 21
79.675
 31
0.0
  0
LINE
  5
6DA
330
3C5
100
AcDbEntity
  8
0
100
AcDbLine
 10
98.50000000000001
 20
76.580776
 30
0.0
 11
98.50000000000001
 21
98.52874499999998
 31
0.0
  0
LINE
  5
6DB
330
3C5
100
AcDbEntity
  8
0
100
AcDbLine
 10
99.24595100000001
 20
99.495936
 30
0.0
 11
172.245951
 21
118.670603
 31
0.0
  0
LINE
  5
6DC
330
3C5
100
AcDbEntity
  8
0
100
AcDbLine
 10
114.0
 20
98.0
 30
0.0
 11
114.0
 21
97.071333
 31
0.0
  0
LINE
  5
6DD
330
3C5
100
AcDbEntity
  8
0
100
AcDbLine
 10
108.4999999999999
 20
99.0
 30
0.0
 11
104.0
 21
99.0
 31
0.0
  0
LINE
  5
6DE
330
3C5
100
AcDbEntity
  8
0
100
AcDbLine
 10
103.0
 20
98.0
 30
0.0
 11
103.0
 21
94.182
 31
0.0
  0
LINE
  5
6DF
330
3C5
100
AcDbEntity
  8
0
100
AcDbLine
 10
108.4999999999999
 20
99.0
 30
0.0
 11
113.0
 21
99.0
 31
0.0
  0
ARC
  5
6E0
330
3C5
100
AcDbEntity
  8
0
100
AcDbCircle
 10
104.0
 20
98.0
 30
0.0
 40
1.0
100
AcDbArc
 50
90.0
 51
180.0
  0
ARC
  5
6E1
330
3C5
100
AcDbEntity
  8
0
100
AcDbCircle
 10
113.0
 20
98.0
 30
0.0
 40
1.0
100
AcDbArc
 50
0.0
 51
90.0
  0
LINE
  5
6E2
330
3C5
100
AcDbEntity
  8
0
100
AcDbLine
 10
173.5
 20
117.703412
 30
0.0
 11
173.5
 21
106.7768709999999
 31
0.0
  0
LINE
  5
6E3
330
3C5
100
AcDbEntity
  8
0
100
AcDbLine
 10
172.74725
 20
105.8079189999999
 30
0.0
 11
159.551726
 21
102.440785
 31
0.0
  0
LINE
  5
6E4
330
3C5
100
AcDbEntity
  8
0
100
AcDbLine
 10
158.5973699999999
 20
102.7026299999999
 30
0.0
 11
157.0
 21
104.2999999999999
 31
0.0
  0
LINE
  5
6E5
330
3C5
100
AcDbEntity
  8
0
100
AcDbLine
 10
157.0
 20
104.2999999999999
 30
0.0
 11
116.5
 21
90.29999999999999
 31
0.0
  0
LINE
  5
6E6
330
3C5
100
AcDbEntity
  8
0
100
AcDbLine
 10
116.5
 20
90.29999999999999
 30
0.0
 11
116.5
 21
104.0279999999999
 31
0.0
  0
LINE
  5
6E7
330
3C5
100
AcDbEntity
  8
0
100
AcDbLine
 10
118.5
 20
81.08077599999999
 30
0.0
 11
118.5
 21
90.99135799999999
 31
0.0
  0
LINE
  5
6E8
330
3C5
100
AcDbEntity
  8
0
100
AcDbLine
 10
117.742536
 20
80.11063399999999
 30
0.0
 11
99.742536
 21
75.61063399999999
 31
0.0
  0
ARC
  5
6E9
330
3C5
100
AcDbEntity
  8
0
100
AcDbCircle
 10
99.50000000000001
 20
98.52874499999998
 30
0.0
 40
1.0
100
AcDbArc
 50
104.7172369999999
 51
180.0
  0
ARC
  5
6EA
330
3C5
100
AcDbEntity
  8
0
100
AcDbCircle
 10
99.50000000000001
 20
76.580776
 30
0.0
 40
1.0
100
AcDbArc
 50
180.0
 51
284.036243
  0
ARC
  5
6EB
330
3C5
100
AcDbEntity
  8
0
100
AcDbCircle
 10
117.5
 20
81.08077599999999
 30
0.0
 40
1.0
100
AcDbArc
 50
284.036243
 51
0.0
  0
ARC
  5
6EC
330
3C5
100
AcDbEntity
  8
0
100
AcDbCircle
 10
172.5
 20
117.703412
 30
0.0
 40
1.0
100
AcDbArc
 50
0.0
 51
104.7172369999999
  0
ARC
  5
6ED
330
3C5
100
AcDbEntity
  8
0
100
AcDbCircle
 10
172.5
 20
106.7768709999999
 30
0.0
 40
1.0
100
AcDbArc
 50
284.314827
 51
0.0
  0
ARC
  5
6EE
330
3C5
100
AcDbEntity
  8
0
100
AcDbCircle
 10
159.3044759999999
 20
103.409737
 30
0.0
 40
1.0
100
AcDbArc
 50
225.0
 51
284.314827
  0
ELLIPSE
  5
807
330
3C5
100
AcDbEntity
  8
0
100
AcDbEllipse
 10
45.52974999999999
 20
101.68995
 30
0.0
 11
-5.47025
 21
-0.1100500000000011
 31
0.0
210
0.0
220
0.0
230
0.9999999999999998
 40
0.2546773390240933
 41
0.0
 42
6.283185307179586
  0
ENDSEC
  0
SECTION
  2
OBJECTS
  0
DICTIONARY
  5
3B3
330
0
100
AcDbDictionary
281
     1
  3
ACAD_GROUP
350
3B4
  3
ACAD_LAYOUT
350
3C0
  3
ACAD_MLINESTYLE
350
3BD
  3
ACAD_PLOTSETTINGS
350
3BF
  3
ACAD_PLOTSTYLENAME
350
3B5
  3
AcDbVariableDictionary
350
7EF
  3
AcmDictionary
350
7AB
  3
AMG
350
6F0
  3
AMGSNAPSETTINGS
350
7F2
  3
DWGPROPS
350
7AE
  3
MAPISURF_MODULE
350
77D
  0
DICTIONARY
  5
7E9
330
3C5
100
AcDbDictionary
280
     1
281
     1
  3
ACAD_INDEX
360
7EA
  0
DICTIONARY
  5
3B4
102
{ACAD_REACTORS
330
3B3
102
}
330
3B3
100
AcDbDictionary
281
     1
  0
DICTIONARY
  5
3C0
102
{ACAD_REACTORS
330
3B3
102
}
330
3B3
100
AcDbDictionary
281
     1
  3
Model
350
3C8
  3
ﾚｲｱｳﾄ1
350
3C4
  0
DICTIONARY
  5
3BD
102
{ACAD_REACTORS
330
3B3
102
}
330
3B3
100
AcDbDictionary
281
     1
  3
Standard
350
3BE
  0
DICTIONARY
  5
3BF
102
{ACAD_REACTORS
330
3B3
102
}
330
3B3
100
AcDbDictionary
281
     1
  0
ACDBDICTIONARYWDFLT
  5
3B5
102
{ACAD_REACTORS
330
3B3
102
}
330
3B3
100
AcDbDictionary
281
     1
  3
Normal
350
3B6
100
AcDbDictionaryWithDefault
340
3B6
  0
DICTIONARY
  5
7EF
102
{ACAD_REACTORS
330
3B3
102
}
330
3B3
100
AcDbDictionary
281
     1
  3
DIMASSOC
350
7F1
  3
INDEXCTL
350
7F0
  0
DICTIONARY
  5
7AB
102
{ACAD_REACTORS
330
3B3
102
}
330
3B3
100
AcDbDictionary
281
     1
  3
AcmBOMDATA
350
7AC
  3
AcmStdDictionary
350
7BA
  0
DICTIONARY
  5
6F0
102
{ACAD_REACTORS
330
3B3
102
}
330
3B3
100
AcDbDictionary
281
     1
  3
AcMgSettings
350
6F1
  3
AMGLAYCFG
350
7BC
  0
DICTIONARY
  5
7F2
102
{ACAD_REACTORS
330
3B3
102
}
330
3B3
100
AcDbDictionary
281
     1
  3
DIMENSION
350
7F7
  3
FEA
350
7F6
  3
HATCH (1)
350
7F3
  3
HATCH (2)
350
7F4
  3
SIMPLE WELD
350
7F8
  3
SYMBOLS
350
7F5
  0
XRECORD
  5
7AE
102
{ACAD_REACTORS
330
3B3
102
}
330
3B3
100
AcDbXrecord
280
     1
  1
DWGPROPS COOKIE
  2

  3

  4

  6

  7

  8

  9

300
AmdtFileType=84
301
=
302
=
303
=
304
=
305
=
306
=
307
=
308
=
309
=
 40
0.0192409837962963
 41
2452125.683722997
 42
2452125.70296
  1

 90
        1
  0
DICTIONARY
  5
7EA
102
{ACAD_REACTORS
330
7E9
102
}
330
7E9
100
AcDbDictionary
281
     1
  3
*A1
350
7EB
  0
LAYOUT
  5
3C8
102
{ACAD_REACTORS
330
3C0
102
}
330
3C0
100
AcDbPlotSettings
  1

  2
EPSON PM-3700C
  4

  6

 40
0.0
 41
0.0
 42
0.0
 43
0.0
 44
0.0
 45
0.0
 46
0.0
 47
0.0
 48
0.0
 49
0.0
140
0.0
141
0.0
142
1.0
143
1.0
 70
  1712
 72
     0
 73
     0
 74
     0
  7

 75
     0
147
1.0
148
0.0
149
0.0
100
AcDbLayout
  1
Model
 70
     1
 71
     0
 10
0.0
 20
0.0
 11
12.0
 21
9.0
 12
0.0
 22
0.0
 32
0.0
 14
0.0
 24
0.0
 34
0.0
 15
0.0
 25
0.0
 35
0.0
146
0.0
 13
0.0
 23
0.0
 33
0.0
 16
1.0
 26
0.0
 36
0.0
 17
0.0
 27
1.0
 37
0.0
 76
     0
330
3C5
  0
LAYOUT
  5
3C4
102
{ACAD_REACTORS
330
3C0
102
}
330
3C0
100
AcDbPlotSettings
  1

  2
EPSON PM-3700C
  4

  6

 40
0.0
 41
0.0
 42
0.0
 43
0.0
 44
0.0
 45
0.0
 46
0.0
 47
0.0
 48
0.0
 49
0.0
140
0.0
141
0.0
142
1.0
143
1.0
 70
   688
 72
     0
 73
     0
 74
     5
  7

 75
    16
147
1.0
148
0.0
149
0.0
100
AcDbLayout
  1
ﾚｲｱｳﾄ1
 70
     1
 71
     1
 10
0.0
 20
0.0
 11
420.0
 21
297.0
 12
0.0
 22
0.0
 32
0.0
 14
1.000000000000000E+20
 24
1.000000000000000E+20
 34
1.000000000000000E+20
 15
-1.000000000000000E+20
 25
-1.000000000000000E+20
 35
-1.000000000000000E+20
146
0.0
 13
0.0
 23
0.0
 33
0.0
 16
1.0
 26
0.0
 36
0.0
 17
0.0
 27
1.0
 37
0.0
 76
     0
330
3C1
  0
MLINESTYLE
  5
3BE
102
{ACAD_REACTORS
330
3BD
102
}
330
3BD
100
AcDbMlineStyle
  2
STANDARD
 70
     0
  3

 62
   256
 51
90.0
 52
90.0
 71
     2
 49
0.5
 62
   256
  6
BYLAYER
 49
-0.5
 62
   256
  6
BYLAYER
  0
ACDBPLACEHOLDER
  5
3B6
102
{ACAD_REACTORS
330
3B5
102
}
330
3B5
  0
DICTIONARYVAR
  5
7F1
102
{ACAD_REACTORS
330
7EF
102
}
330
7EF
100
DictionaryVariables
280
     0
  1
1
  0
DICTIONARYVAR
  5
7F0
102
{ACAD_REACTORS
330
7EF
102
}
330
7EF
100
DictionaryVariables
280
     0
  1
1
  0
ACMDATADICTIONARY
  5
7AC
102
{ACAD_REACTORS
330
7AB
102
}
330
7AB
100
AcDbDictionary
281
     1
  3
*A1
350
7AD
100
AcmDataDictionary
  0
DICTIONARY
  5
7BA
102
{ACAD_REACTORS
330
7AB
102
}
330
7AB
100
AcDbDictionary
281
     1
  3
ANSI
350
7BB
  0
DICTIONARY
  5
6F1
102
{ACAD_REACTORS
330
6F0
102
}
330
6F0
100
AcDbDictionary
281
     1
  3
DWGSETTINGS
350
6F2
  3
TRANSSETTINGS
350
6F6
  0
ACAMGFILTERDAT
  5
7F7
102
{ACAD_REACTORS
330
7F2
102
}
330
7F2
100
AcAmgFilterDat
 70
    15
  1
DIMENSION,AMDT_*_DIM
  2
*
  3
*
  4
*
  5
*
290
     1
  0
ACAMGFILTERDAT
  5
7F6
102
{ACAD_REACTORS
330
7F2
102
}
330
7F2
100
AcAmgFilterDat
 70
    15
  1
*
  2
AM_FEA-AM_*
  3
*
  4
*
  5
*
290
     1
  0
ACAMGFILTERDAT
  5
7F3
102
{ACAD_REACTORS
330
7F2
102
}
330
7F2
100
AcAmgFilterDat
 70
    15
  1
HATCH
  2
*
  3
*
  4
*
  5
*
290
     1
  0
ACAMGFILTERDAT
  5
7F4
102
{ACAD_REACTORS
330
7F2
102
}
330
7F2
100
AcAmgFilterDat
 70
    15
  1
LINE
  2
8,8N,*-8,*-8N,AM_8,AM_8N,*-AM_8,*-AM_8N
  3
*
  4
*
  5
INSERT,STDPART2D
290
     1
  0
ACAMGFILTERDAT
  5
7F8
102
{ACAD_REACTORS
330
7F2
102
}
330
7F2
100
AcAmgFilterDat
 70
    15
  1
ARC
  2
AM_5
  3
*
  4
2
  5
INSERT
290
     0
  0
ACAMGFILTERDAT
  5
7F5
102
{ACAD_REACTORS
330
7F2
102
}
330
7F2
100
AcAmgFilterDat
 70
    15
  1
ACMFCFRAME,ACMDATUMTARGET,ACMDATUMID,ACMWELDSYM,ACMSURFSYM,ACMFEATID,ACMPARTREF,ACMBALLOON,AMDTEDGESYM,AMGSCREWCALCTABLE
  2
*
  3
*
  4
*
  5
*
290
     1
  0
LAYER_INDEX
  5
7EB
102
{ACAD_REACTORS
330
7EA
102
}
330
7EA
100
AcDbIndex
 40
2454700.445256979
100
AcDbLayerIndex
  8
0
360
7EC
 90
       63
  8
1
360
7ED
 90
        2
  8
Defpoints
360
808
 90
        0
  0
ACMDATAENTRYBLOCK
  5
7AD
102
{ACAD_REACTORS
330
7AC
102
}
330
7AC
100
AcmDataEntry
100
AcmDataEntryBlock
  0
IDBUFFER
  5
7EC
330
0
100
AcDbIdBuffer
330
524
330
525
330
526
330
527
330
528
330
5AB
330
5AC
330
5AD
330
5AE
330
5AF
330
5B0
330
633
330
634
330
6BD
330
6BE
330
6BF
330
6C0
330
6C1
330
6C2
330
6C3
330
6C4
330
6C5
330
6C6
330
6C7
330
6C8
330
6CA
330
6CB
330
6CC
330
6CD
330
6CE
330
6CF
330
6D0
330
6D1
330
6D2
330
6D3
330
6D4
330
6D5
330
6D6
330
6D7
330
6D8
330
6D9
330
6DA
330
6DB
330
6DC
330
6DD
330
6DE
330
6DF
330
6E0
330
6E1
330
6E2
330
6E3
330
6E4
330
6E5
330
6E6
330
6E7
330
6E8
330
6E9
330
6EA
330
6EB
330
6EC
330
6ED
330
6EE
330
807
  0
IDBUFFER
  5
7ED
330
0
100
AcDbIdBuffer
330
523
330
6C9
  0
IDBUFFER
  5
808
330
0
100
AcDbIdBuffer
  0
ENDSEC
  0
EOF
