  0
SECTION
  2
HEADER
  9
$ACADVER
  1
AC1015
  9
$ACADMAINTVER
 70
    13
  9
$DWGCODEPAGE
  3
ANSI_932
  9
$INSBASE
 10
0.0
 20
0.0
 30
0.0
  9
$EXTMIN
 10
45.0
 20
44.5
 30
0.0
  9
$EXTMAX
 10
149.238335453798
 20
109.4999999999999
 30
0.0
  9
$LIMMIN
 10
0.0
 20
0.0
  9
$LIMMAX
 10
200.0
 20
140.0
  9
$ORTHOMODE
 70
     1
  9
$REGENMODE
 70
     1
  9
$FILLMODE
 70
     1
  9
$QTEXTMODE
 70
     0
  9
$MIRRTEXT
 70
     1
  9
$LTSCALE
 40
20.0
  9
$ATTMODE
 70
     1
  9
$TEXTSIZE
 40
10.0
  9
$TRACEWID
 40
0.05
  9
$TEXTSTYLE
  7
BIGFONT
  9
$CLAYER
  8
0
  9
$CELTYPE
  6
ByLayer
  9
$CECOLOR
 62
   256
  9
$CELTSCALE
 40
1.0
  9
$DISPSILH
 70
     0
  9
$DIMSCALE
 40
2.0
  9
$DIMASZ
 40
3.0
  9
$DIMEXO
 40
2.0
  9
$DIMDLI
 40
0.38
  9
$DIMRND
 40
0.0
  9
$DIMDLE
 40
0.0
  9
$DIMEXE
 40
2.0
  9
$DIMTP
 40
0.0
  9
$DIMTM
 40
0.0
  9
$DIMTXT
 40
3.2
  9
$DIMCEN
 40
0.09
  9
$DIMTSZ
 40
0.0
  9
$DIMTOL
 70
     0
  9
$DIMLIM
 70
     0
  9
$DIMTIH
 70
     0
  9
$DIMTOH
 70
     0
  9
$DIMSE1
 70
     0
  9
$DIMSE2
 70
     0
  9
$DIMTAD
 70
     1
  9
$DIMZIN
 70
     0
  9
$DIMBLK
  1

  9
$DIMASO
 70
     0
  9
$DIMSHO
 70
     0
  9
$DIMPOST
  1

  9
$DIMAPOST
  1

  9
$DIMALT
 70
     0
  9
$DIMALTD
 70
     2
  9
$DIMALTF
 40
25.4
  9
$DIMLFAC
 40
1.0
  9
$DIMTOFL
 70
     0
  9
$DIMTVP
 40
1.6
  9
$DIMTIX
 70
     1
  9
$DIMSOXD
 70
     0
  9
$DIMSAH
 70
     0
  9
$DIMBLK1
  1

  9
$DIMBLK2
  1

  9
$DIMSTYLE
  2
STANDARD
  9
$DIMCLRD
 70
     0
  9
$DIMCLRE
 70
     0
  9
$DIMCLRT
 70
     0
  9
$DIMTFAC
 40
1.0
  9
$DIMGAP
 40
0.09
  9
$DIMJUST
 70
     0
  9
$DIMSD1
 70
     0
  9
$DIMSD2
 70
     0
  9
$DIMTOLJ
 70
     1
  9
$DIMTZIN
 70
     0
  9
$DIMALTZ
 70
     0
  9
$DIMALTTZ
 70
     0
  9
$DIMUPT
 70
     0
  9
$DIMDEC
 70
     4
  9
$DIMTDEC
 70
     4
  9
$DIMALTU
 70
     2
  9
$DIMALTTD
 70
     2
  9
$DIMTXSTY
  7
STANDARD
  9
$DIMAUNIT
 70
     0
  9
$DIMADEC
 70
     0
  9
$DIMALTRND
 40
0.0
  9
$DIMAZIN
 70
     0
  9
$DIMDSEP
 70
    46
  9
$DIMATFIT
 70
     3
  9
$DIMFRAC
 70
     0
  9
$DIMLDRBLK
  1

  9
$DIMLUNIT
 70
     2
  9
$DIMLWD
 70
    -2
  9
$DIMLWE
 70
    -2
  9
$DIMTMOVE
 70
     0
  9
$LUNITS
 70
     2
  9
$LUPREC
 70
     4
  9
$SKETCHINC
 40
0.1
  9
$FILLETRAD
 40
1.0
  9
$AUNITS
 70
     0
  9
$AUPREC
 70
     0
  9
$MENU
  1
ACAD
  9
$ELEVATION
 40
0.0
  9
$PELEVATION
 40
0.0
  9
$THICKNESS
 40
0.0
  9
$LIMCHECK
 70
     0
  9
$CHAMFERA
 40
0.0
  9
$CHAMFERB
 40
0.0
  9
$CHAMFERC
 40
0.0
  9
$CHAMFERD
 40
0.0
  9
$SKPOLY
 70
     0
  9
$TDCREATE
 40
2450867.009375000
  9
$TDUCREATE
 40
2450866.634375000
  9
$TDUPDATE
 40
2454700.443668252
  9
$TDUUPDATE
 40
2454700.068668252
  9
$TDINDWG
 40
0.0321587500
  9
$TDUSRTIMER
 40
0.0321587500
  9
$USRTIMER
 70
     1
  9
$ANGBASE
 50
0.0
  9
$ANGDIR
 70
     0
  9
$PDMODE
 70
     0
  9
$PDSIZE
 40
0.0
  9
$PLINEWID
 40
0.0
  9
$SPLFRAME
 70
     0
  9
$SPLINETYPE
 70
     6
  9
$SPLINESEGS
 70
     8
  9
$HANDSEED
  5
5FF
  9
$SURFTAB1
 70
     6
  9
$SURFTAB2
 70
     6
  9
$SURFTYPE
 70
     6
  9
$SURFU
 70
     6
  9
$SURFV
 70
     6
  9
$UCSBASE
  2

  9
$UCSNAME
  2

  9
$UCSORG
 10
0.0
 20
0.0
 30
0.0
  9
$UCSXDIR
 10
1.0
 20
0.0
 30
0.0
  9
$UCSYDIR
 10
0.0
 20
1.0
 30
0.0
  9
$UCSORTHOREF
  2

  9
$UCSORTHOVIEW
 70
     0
  9
$UCSORGTOP
 10
0.0
 20
0.0
 30
0.0
  9
$UCSORGBOTTOM
 10
0.0
 20
0.0
 30
0.0
  9
$UCSORGLEFT
 10
0.0
 20
0.0
 30
0.0
  9
$UCSORGRIGHT
 10
0.0
 20
0.0
 30
0.0
  9
$UCSORGFRONT
 10
0.0
 20
0.0
 30
0.0
  9
$UCSORGBACK
 10
0.0
 20
0.0
 30
0.0
  9
$PUCSBASE
  2

  9
$PUCSNAME
  2

  9
$PUCSORG
 10
0.0
 20
0.0
 30
0.0
  9
$PUCSXDIR
 10
1.0
 20
0.0
 30
0.0
  9
$PUCSYDIR
 10
0.0
 20
1.0
 30
0.0
  9
$PUCSORTHOREF
  2

  9
$PUCSORTHOVIEW
 70
     0
  9
$PUCSORGTOP
 10
0.0
 20
0.0
 30
0.0
  9
$PUCSORGBOTTOM
 10
0.0
 20
0.0
 30
0.0
  9
$PUCSORGLEFT
 10
0.0
 20
0.0
 30
0.0
  9
$PUCSORGRIGHT
 10
0.0
 20
0.0
 30
0.0
  9
$PUCSORGFRONT
 10
0.0
 20
0.0
 30
0.0
  9
$PUCSORGBACK
 10
0.0
 20
0.0
 30
0.0
  9
$USERI1
 70
     0
  9
$USERI2
 70
     0
  9
$USERI3
 70
     0
  9
$USERI4
 70
     0
  9
$USERI5
 70
     0
  9
$USERR1
 40
0.0
  9
$USERR2
 40
0.0
  9
$USERR3
 40
0.0
  9
$USERR4
 40
0.0
  9
$USERR5
 40
0.0
  9
$WORLDVIEW
 70
     1
  9
$SHADEDGE
 70
     3
  9
$SHADEDIF
 70
    70
  9
$TILEMODE
 70
     1
  9
$MAXACTVP
 70
    16
  9
$PINSBASE
 10
0.0
 20
0.0
 30
0.0
  9
$PLIMCHECK
 70
     0
  9
$PEXTMIN
 10
1.000000000000000E+20
 20
1.000000000000000E+20
 30
1.000000000000000E+20
  9
$PEXTMAX
 10
-1.000000000000000E+20
 20
-1.000000000000000E+20
 30
-1.000000000000000E+20
  9
$PLIMMIN
 10
0.0
 20
0.0
  9
$PLIMMAX
 10
12.0
 20
9.0
  9
$UNITMODE
 70
     0
  9
$VISRETAIN
 70
     0
  9
$PLINEGEN
 70
     1
  9
$PSLTSCALE
 70
     0
  9
$TREEDEPTH
 70
  3020
  9
$CMLSTYLE
  2
Standard
  9
$CMLJUST
 70
     0
  9
$CMLSCALE
 40
1.0
  9
$PROXYGRAPHICS
 70
     1
  9
$MEASUREMENT
 70
     0
  9
$CELWEIGHT
370
    -1
  9
$ENDCAPS
280
     0
  9
$JOINSTYLE
280
     0
  9
$LWDISPLAY
290
     0
  9
$INSUNITS
 70
     0
  9
$HYPERLINKBASE
  1

  9
$STYLESHEET
  1

  9
$XEDIT
290
     1
  9
$CEPSNTYPE
380
     0
  9
$PSTYLEMODE
290
     1
  9
$FINGERPRINTGUID
  2
{A7C58640-6EF6-4F1F-807F-D1467234B61E}
  9
$VERSIONGUID
  2
{B03F7260-24D9-4A68-9F94-A89A571900C5}
  9
$EXTNAMES
290
     1
  9
$PSVPSCALE
 40
0.0
  9
$OLESTARTUP
290
     0
  0
ENDSEC
  0
SECTION
  2
CLASSES
  0
CLASS
  1
ACDBDICTIONARYWDFLT
  2
AcDbDictionaryWithDefault
  3
AutoCAD 2000
 90
        0
280
     0
281
     0
  0
CLASS
  1
ACDBPLACEHOLDER
  2
AcDbPlaceHolder
  3
AutoCAD 2000
 90
        0
280
     0
281
     0
  0
CLASS
  1
LAYOUT
  2
AcDbLayout
  3
AutoCAD 2000
 90
        0
280
     0
281
     0
  0
CLASS
  1
AMGSETTINGSOBJ
  2
AmgSettingsObj
  3
"AcadM|Product Description: AutoCAD Mechanical 2000|Company: Autodesk"
 90
        0
280
     0
281
     0
  0
CLASS
  1
ACME_DOCUMENT
  2
AcMeDbDoc
  3
AcMeServices
 90
        0
280
     0
281
     0
  0
CLASS
  1
ACMESCOPE
  2
AcMeScope
  3
AcMeServices
 90
        0
280
     0
281
     0
  0
CLASS
  1
ACMECOMMANDHISTORY
  2
AcMeCommandHistory
  3
AcMeServices
 90
        0
280
     0
281
     0
  0
CLASS
  1
ACIMSYSVARMAN
  2
AcImSysVarManager
  3
AcMeServices
 90
        0
280
     0
281
     0
  0
CLASS
  1
ACIMREALSYSVAR
  2
AcImRealSysVar
  3
AcMeServices
 90
        0
280
     0
281
     0
  0
CLASS
  1
ACIMINTSYSVAR
  2
AcImIntSysVar
  3
AcMeServices
 90
        0
280
     0
281
     0
  0
CLASS
  1
ACMEDRAWINGMAN
  2
AcMeDrawingMan
  3
AcMeServices
 90
        0
280
     0
281
     0
  0
CLASS
  1
ACMEVIEW
  2
AcMeView
  3
AcMeServices
 90
        0
280
     0
281
     0
  0
CLASS
  1
ACDBENTITYCACHE
  2
AcMeEntityCache
  3
AcMeServices
 90
        0
280
     0
281
     0
  0
CLASS
  1
GSMANAGER
  2
AcMeGSManager
  3
AcMeServices
 90
        0
280
     0
281
     0
  0
CLASS
  1
AMDTINTERNALREACTOR
  2
AmdtInternalReactor
  3
AcMeServices
 90
        0
280
     0
281
     0
  0
CLASS
  1
ACMESTATEMGR
  2
AcMeStateMgr
  3
AcMeServices
 90
        0
280
     0
281
     0
  0
CLASS
  1
ACGREFMASTER
  2
AcGrefMaster
  3
AcAttribServices
 90
        0
280
     0
281
     0
  0
CLASS
  1
AM_DRAWING_MGR
  2
AcDmDwgMgr
  3
AcMechDwgViewMgmt
 90
        0
280
     0
281
     0
  0
CLASS
  1
AM_DWG_DOCUMENT
  2
AcDmDwgDocument
  3
AcMechDwgViewMgmt
 90
        0
280
     0
281
     0
  0
CLASS
  1
AM_DWG_SHEET
  2
AcDmSheet
  3
AcMechDwgViewMgmt
 90
        0
280
     0
281
     0
  0
CLASS
  1
AM_VIEWDIMPARMAP
  2
AcDmViewDimParMap
  3
AcMechDwgViewMgmt
 90
        0
280
     0
281
     0
  0
CLASS
  1
AM_DWGMGR_NAME
  2
AcDmDwgMgrName
  3
AcMechDwgViewMgmt
 90
        0
280
     0
281
     0
  0
CLASS
  1
ACME_DATABASE
  2
AcMeDbDatabase
  3
AcMeServices
 90
        0
280
     0
281
     0
  0
CLASS
  1
ACRFINSADJUSTERMGR
  2
AcRfInsAdjusterMgr
  3
AcMeServices
 90
        0
280
     0
281
     0
  0
CLASS
  1
ACGREFACADMASTER
  2
AcGrefacadMaster
  3
AcGrefServices
 90
        0
280
     0
281
     0
  0
CLASS
  1
AMDTMENUSTATEMGR
  2
AmdtMenuStateMgr
  3
McadcomServices
 90
        0
280
     0
281
     0
  0
CLASS
  1
AMDTMCOMMENUSTATE
  2
AmdtMcomMenuState
  3
McadcomServices
 90
        0
280
     0
281
     0
  0
CLASS
  1
AMIMASTER
  2
AmiMaster
  3
AmiServices
 90
        0
280
     0
281
     0
  0
CLASS
  1
ASAPP
  2
AcAsAppObject
  3
AutoSurfServices
 90
        0
280
     0
281
     0
  0
CLASS
  1
IM_STATIC_MAN
  2
AcImStaticVarManager
  3
AcMeServices
 90
        0
280
     0
281
     0
  0
CLASS
  1
ACIMSTRSYSVAR
  2
AcImStrSysVar
  3
AcMeServices
 90
        0
280
     0
281
     0
  0
CLASS
  1
ACIMDBLSTATICVAR
  2
AcImDblStaticVar
  3
AcMeServices
 90
        0
280
     0
281
     0
  0
CLASS
  1
ACIMSTRSTATICVAR
  2
AcImStrStaticVar
  3
AcMeServices
 90
        0
280
     0
281
     0
  0
CLASS
  1
ACIMINTSTATICVAR
  2
AcImIntStaticVar
  3
AcMeServices
 90
        0
280
     0
281
     0
  0
CLASS
  1
ACASGREFMASTER
  2
AcAsGrefMaster
  3
AutoSurfResolverServices
 90
        0
280
     0
281
     0
  0
CLASS
  1
ACADGREFMODULE
  2
AcAdGrefModule
  3
AdGrefServices
 90
        0
280
     0
281
     0
  0
CLASS
  1
AMDTMAPISURFMOUDULE
  2
AmdtMApiSurfModule
  3
MApiSurfServices
 90
        0
280
     0
281
     0
  0
CLASS
  1
MAPIAMMOUDLE
  2
MApiAmModule
  3
MApiAmServices
 90
        0
280
     0
281
     0
  0
CLASS
  1
AMDTADMENUSTATE
  2
AmdtAdMenuState
  3
DesignerServices
 90
        0
280
     0
281
     0
  0
CLASS
  1
ADAPPL
  2
AcAdAppl
  3
DesignerServices
 90
        0
280
     0
281
     0
  0
CLASS
  1
DEPMGR
  2
AcAdDepMgr
  3
DesignerServices
 90
        0
280
     0
281
     0
  0
CLASS
  1
PARAMMGR
  2
AcAdParamMgr
  3
DesignerServices
 90
        0
280
     0
281
     0
  0
CLASS
  1
PARAMSCOPE
  2
AcAdParamScope
  3
DesignerServices
 90
        0
280
     0
281
     0
  0
CLASS
  1
NAMEDAPPL
  2
AcAdNamedAppl
  3
DesignerServices
 90
        0
280
     0
281
     0
  0
CLASS
  1
AMDTDMMENUSTATE
  2
AmdtDmMenuState
  3
AcMechDwgViewMgmt
 90
        0
280
     0
281
     0
  0
CLASS
  1
MAPIADMODULE
  2
MApiAdModule
  3
MApiAdServices
 90
        0
280
     0
281
     0
  0
CLASS
  1
AMDTAMMENUSTATE
  2
AmdtAmMenuState
  3
DesignerAssemblies
 90
        0
280
     0
281
     0
  0
CLASS
  1
ACAMPROJECT
  2
AcAmProject
  3
DesignerAssemblies
 90
        0
280
     0
281
     0
  0
CLASS
  1
ACAMGRCOMPDEF
  2
AcAmGrCompDef
  3
DesignerAssemblies
 90
        0
280
     0
281
     0
  0
CLASS
  1
ACCMCONTEXT
  2
AcCmContext
  3
DesignerAssemblies
 90
        0
280
     0
281
     0
  0
CLASS
  1
ACAMCOMPDEF
  2
AcAmCompDef
  3
DesignerAssemblies
 90
        0
280
     0
281
     0
  0
CLASS
  1
ACAMCOMPDEFMGR
  2
AcAmCompDefMgr
  3
DesignerAssemblies
 90
        0
280
     0
281
     0
  0
CLASS
  1
AMCONTEXTMGR
  2
AcAmContextMgr
  3
DesignerAssemblies
 90
        0
280
     0
281
     0
  0
CLASS
  1
ACAMCONTEXTMODELER
  2
AcAmContextModeler
  3
DesignerAssemblies
 90
        0
280
     0
281
     0
  0
CLASS
  1
ACMDATADICTIONARY
  2
AcmDataDictionary
  3
"AcmSymBB|Product Description: AutoCAD Mechanical 2000|Company: Autodesk"
 90
        0
280
     0
281
     0
  0
CLASS
  1
ACMDATAENTRYBLOCK
  2
AcmDataEntryBlock
  3
"AcmSymBB|Product Description: AutoCAD Mechanical 2000|Company: Autodesk"
 90
        0
280
     0
281
     0
  0
CLASS
  1
CATALOGSTATE
  2
AcAmCatalogState
  3
DesignerAssemblies
 90
        0
280
     0
281
     0
  0
CLASS
  1
ACAMGRCOMPDEFSET
  2
AcAmGrCompDefSet
  3
DesignerAssemblies
 90
        0
280
     0
281
     0
  0
CLASS
  1
AMDTBROWSERDBTAB
  2
AmdtBrowserDbTab
  3
McadcomServices
 90
        0
280
     0
281
     0
  0
CLASS
  1
CBROWSERAPPOBJECT
  2
CBrowserAppObject
  3
McadcomServices
 90
        0
280
     0
281
     0
  0
CLASS
  1
DM_PLACEHOLDER
  2
AcDmSelsetPlaceholder
  3
AcMechDwgViewMgmt
 90
        0
280
     0
281
     0
  0
CLASS
  1
ACMSTANDARDANSI
  2
AcmStandardANSI
  3
"Amdt_StdImp|Product Description: AutoCAD Mechanical 2000|Company: Autodesk"
 90
        0
280
     0
281
     0
  0
CLASS
  1
AMGOBJPROPCFG
  2
AmgObjPropCfg
  3
"AmgLay|Product Description: AutoCAD Mechanical 2000|Company: Autodesk"
 90
        1
280
     0
281
     0
  0
CLASS
  1
ACMSURFSTANDARDANSI
  2
AcmSurfTextStdANSI
  3
"Amdt_StdImp|Product Description: AutoCAD Mechanical 2000|Company: Autodesk"
 90
        0
280
     0
281
     0
  0
CLASS
  1
ACMFCFSTANDARDANSI
  2
AcmFCFStdANSI
  3
"Amdt_StdImp|Product Description: AutoCAD Mechanical 2000|Company: Autodesk"
 90
        0
280
     0
281
     0
  0
CLASS
  1
ACMWELDSTANDARDANSI
  2
AcmWeldingStdANSI
  3
"Amdt_StdImp|Product Description: AutoCAD Mechanical 2000|Company: Autodesk"
 90
        0
280
     0
281
     0
  0
CLASS
  1
ACMIDSTANDARDANSI
  2
AcmIdStdANSI
  3
"Amdt_StdImp|Product Description: AutoCAD Mechanical 2000|Company: Autodesk"
 90
        0
280
     0
281
     0
  0
CLASS
  1
ACMDATUMSTANDARDANSI
  2
AcmDatumStdANSI
  3
"Amdt_StdImp|Product Description: AutoCAD Mechanical 2000|Company: Autodesk"
 90
        0
280
     0
281
     0
  0
CLASS
  1
ACMBOMSTANDARDANSI
  2
AcmBOMStdANSI
  3
"Amdt_StdImp|Product Description: AutoCAD Mechanical 2000|Company: Autodesk"
 90
        0
280
     0
281
     0
  0
CLASS
  1
ACMDETAILSTANDARDANSI
  2
AmdtDetailSymStdANSI
  3
"Amdt_StdImp|Product Description: AutoCAD Mechanical 2000|Company: Autodesk"
 90
        0
280
     0
281
     0
  0
CLASS
  1
ACMSECTIONSTANDARDANSI
  2
AmdtSectionSymStdANSI
  3
"Amdt_StdImp|Product Description: AutoCAD Mechanical 2000|Company: Autodesk"
 90
        0
280
     0
281
     0
  0
CLASS
  1
ACMCENTERLINESTANDARDANSI
  2
AmdtCenterLineStdANSI
  3
"Amdt_StdImp|Product Description: AutoCAD Mechanical 2000|Company: Autodesk"
 90
        0
280
     0
281
     0
  0
CLASS
  1
ACMTHREADLINESTANDARDANSI
  2
AmdtThreadLineStdANSI
  3
"Amdt_StdImp|Product Description: AutoCAD Mechanical 2000|Company: Autodesk"
 90
        0
280
     0
281
     0
  0
CLASS
  1
ACMNOTESTANDARDANSI
  2
AmdtNoteStdANSI
  3
"Amdt_StdImp|Product Description: AutoCAD Mechanical 2000|Company: Autodesk"
 90
        0
280
     0
281
     0
  0
CLASS
  1
ACAMGLAYSTD
  2
AcAmgLayStd
  3
"AcAmgLayStd|Product Description: AutoCAD Mechanical 2000|Company: Autodesk"
 90
        0
280
     0
281
     0
  0
CLASS
  1
ACAMGDIMSTD
  2
AcAmgDimStd
  3
"AcAmgDimStd|Product Description: AutoCAD Mechanical 2000|Company: Autodesk"
 90
        0
280
     0
281
     0
  0
CLASS
  1
ACAMGHOLECHARTSTDANSI
  2
AcAmgHoleChartStdANSI
  3
ACMSYMBB_MODULE_NAME
 90
        0
280
     0
281
     0
  0
CLASS
  1
ACAMGTITLESTD
  2
AcAmgTitleStd
  3
"TITLEAPP"
 90
        0
280
     0
281
     0
  0
CLASS
  1
LAYER_INDEX
  2
AcDbLayerIndex
  3
AutoCAD 2000
 90
        0
280
     0
281
     0
  0
CLASS
  1
IDBUFFER
  2
AcDbIdBuffer
  3
AutoCAD 2000
 90
        0
280
     0
281
     0
  0
CLASS
  1
DICTIONARYVAR
  2
AcDbDictionaryVar
  3
AutoCAD 2000
 90
        0
280
     0
281
     0
  0
CLASS
  1
ACAMGFILTERDAT
  2
AcAmgFilterDat
  3
"AcadM|Product Description: AutoCAD Mechanical 2000|Company: Autodesk"
 90
        0
280
     0
281
     0
  0
ENDSEC
  0
SECTION
  2
TABLES
  0
TABLE
  2
VPORT
  5
35F
330
0
100
AcDbSymbolTable
 70
     5
  0
VPORT
  5
5FE
330
35F
100
AcDbSymbolTableRecord
100
AcDbViewportTableRecord
  2
*Active
 70
     0
 10
0.0
 20
0.0
 11
1.0
 21
1.0
 12
0.0
 22
0.0
 13
0.0
 23
0.0
 14
0.5
 24
0.5
 15
1.0
 25
1.0
 16
0.0
 26
0.0
 36
1.0
 17
139.1419998409948
 27
91.72293399999999
 37
0.0
 40
183.4458689999999
 41
1.516981132075471
 42
50.0
 43
0.0
 44
0.0
 50
0.0
 51
0.0
 71
     0
 72
   500
 73
     1
 74
     1
 75
     0
 76
     0
 77
     0
 78
     0
281
     0
 65
     0
110
0.0
120
0.0
130
0.0
111
1.0
121
0.0
131
0.0
112
0.0
122
1.0
132
0.0
 79
     0
146
0.0
  0
ENDTAB
  0
TABLE
  2
LTYPE
  5
35C
330
0
100
AcDbSymbolTable
 70
    19
  0
LTYPE
  5
36A
330
35C
100
AcDbSymbolTableRecord
100
AcDbLinetypeTableRecord
  2
ByBlock
 70
     0
  3

 72
    65
 73
     0
 40
0.0
  0
LTYPE
  5
36B
330
35C
100
AcDbSymbolTableRecord
100
AcDbLinetypeTableRecord
  2
ByLayer
 70
     0
  3

 72
    65
 73
     0
 40
0.0
  0
LTYPE
  5
36C
330
35C
100
AcDbSymbolTableRecord
100
AcDbLinetypeTableRecord
  2
CONTINUOUS
 70
     0
  3
実線
 72
    65
 73
     0
 40
0.0
  0
LTYPE
  5
37B
330
35C
100
AcDbSymbolTableRecord
100
AcDbLinetypeTableRecord
  2
CENTER
 70
     0
  3
____ _ ____ _ ____ _ ____ _ ____ _ ____ _ ____
 72
    65
 73
     4
 40
2.0
 49
1.25
 74
     0
 49
-0.25
 74
     0
 49
0.25
 74
     0
 49
-0.25
 74
     0
  0
LTYPE
  5
37C
330
35C
100
AcDbSymbolTableRecord
100
AcDbLinetypeTableRecord
  2
HIDDEN
 70
     0
  3
_ _ _ _ _ _ _ _ _ _ _ _ _ _ _ _ _ _ _ _ _ _ _
 72
    65
 73
     2
 40
0.375
 49
0.25
 74
     0
 49
-0.125
 74
     0
  0
LTYPE
  5
37D
330
35C
100
AcDbSymbolTableRecord
100
AcDbLinetypeTableRecord
  2
TENSEN1
 70
     0
  3

 72
    65
 73
     2
 40
0.4
 49
0.3
 74
     0
 49
-0.1
 74
     0
  0
LTYPE
  5
514
330
35C
100
AcDbSymbolTableRecord
100
AcDbLinetypeTableRecord
  2
PHANTOM2
 70
     0
  3
Phantom (.5x) ___ _ _ ___ _ _ ___ _ _ ___ _ _
 72
    65
 73
     6
 40
1.25
 49
0.625
 74
     0
 49
-0.125
 74
     0
 49
0.125
 74
     0
 49
-0.125
 74
     0
 49
0.125
 74
     0
 49
-0.125
 74
     0
  0
LTYPE
  5
576
330
35C
100
AcDbSymbolTableRecord
100
AcDbLinetypeTableRecord
  2
ASULTYPE
 70
     0
  3
実線
 72
    65
 73
     2
 40
3.0
 49
2.5
 74
     0
 49
0.5
 74
     0
  0
LTYPE
  5
577
330
35C
100
AcDbSymbolTableRecord
100
AcDbLinetypeTableRecord
  2
ASVLTYPE
 70
     0
  3
__ __ __ __ __ __ __ __ __ __ __ __ __ __ __ __ __ __ __ __ __
 72
    65
 73
     2
 40
0.75
 49
0.5
 74
     0
 49
-0.25
 74
     0
  0
LTYPE
  5
5BB
330
35C
100
AcDbSymbolTableRecord
100
AcDbLinetypeTableRecord
  2
AM_ISO02W050
 70
     0
  3
__ __ __ __ __ __ __ __ __ __ __ __ __ __ __
 72
    65
 73
     2
 40
7.5
 49
6.0
 74
     0
 49
-1.5
 74
     0
  0
LTYPE
  5
5BC
330
35C
100
AcDbSymbolTableRecord
100
AcDbLinetypeTableRecord
  2
AM_ISO08W050
 70
     0
  3
____ . ____ . ____ . ____ . ____ . ____ . ____
 72
    65
 73
     4
 40
18.0
 49
12.0
 74
     0
 49
-1.5
 74
     0
 49
3.0
 74
     0
 49
-1.5
 74
     0
  0
LTYPE
  5
5BD
330
35C
100
AcDbSymbolTableRecord
100
AcDbLinetypeTableRecord
  2
AM_ISO09W050
 70
     0
  3
_____ . . _____ . . _____ . . ____ .. ____
 72
    65
 73
     6
 40
22.5
 49
12.0
 74
     0
 49
-1.5
 74
     0
 49
3.0
 74
     0
 49
-1.5
 74
     0
 49
3.0
 74
     0
 49
-1.5
 74
     0
  0
LTYPE
  5
5BE
330
35C
100
AcDbSymbolTableRecord
100
AcDbLinetypeTableRecord
  2
Amconstr
 70
     0
  3
_______________________
 72
    65
 73
     2
 40
9999.0
 49
9999.0
 74
     0
 49
0.0
 74
     0
  0
LTYPE
  5
5BF
330
35C
100
AcDbSymbolTableRecord
100
AcDbLinetypeTableRecord
  2
AM_ISO08W050x2
 70
     0
  3
__ . __ . __ . __ . __ . __
 72
    65
 73
     4
 40
9.0
 49
6.0
 74
     0
 49
-0.75
 74
     0
 49
1.5
 74
     0
 49
-0.75
 74
     0
  0
LTYPE
  5
5C0
330
35C
100
AcDbSymbolTableRecord
100
AcDbLinetypeTableRecord
  2
AM_ISO02W050x2
 70
     0
  3
 _ _ _ _ _ _ _ _ _ _ _ _
 72
    65
 73
     2
 40
3.75
 49
3.0
 74
     0
 49
-0.75
 74
     0
  0
LTYPE
  5
5C3
330
35C
100
AcDbSymbolTableRecord
100
AcDbLinetypeTableRecord
  2
Amzigzag
 70
     0
  3
/\/-/\/-/\/-/\/-/\/-/\/
 72
    65
 73
     2
 40
11.00009999999999
 49
0.0001
 74
     4
 75
   135
340
5C2
 46
0.04
 50
0.0
 44
0.0
 45
0.0
 49
-11.0
 74
     0
  0
LTYPE
  5
5C4
330
35C
100
AcDbSymbolTableRecord
100
AcDbLinetypeTableRecord
  2
CENTER2
 70
     0
  3
Center (.5x) ___ _ ___ _ ___ _ ___ _ ___ _ ___
 72
    65
 73
     4
 40
1.125
 49
0.75
 74
     0
 49
-0.125
 74
     0
 49
0.125
 74
     0
 49
-0.125
 74
     0
  0
LTYPE
  5
5C5
330
35C
100
AcDbSymbolTableRecord
100
AcDbLinetypeTableRecord
  2
HIDDEN2
 70
     0
  3
Hidden (.5x) _ _ _ _ _ _ _ _ _ _ _ _ _ _ _ _ _
 72
    65
 73
     2
 40
0.1875
 49
0.125
 74
     0
 49
-0.0625
 74
     0
  0
LTYPE
  5
5C6
330
35C
100
AcDbSymbolTableRecord
100
AcDbLinetypeTableRecord
  2
Amzigzag2
 70
     0
  3
/\/-/\/-/\/-/\/-/\/-/\/
 72
    65
 73
     2
 40
0.4401
 49
0.0001
 74
     4
 75
   135
340
5C2
 46
0.0016
 50
0.0
 44
0.0
 45
0.0
 49
-0.4400000000000001
 74
     0
  0
LTYPE
  5
5D4
330
35C
100
AcDbSymbolTableRecord
100
AcDbLinetypeTableRecord
  2
ACANSTGB
 70
     0
  3
__ . . __ . .
 72
    65
 73
     6
 40
0.35433070866
 49
0.15748031496
 74
     0
 49
-0.03937007874
 74
     0
 49
0.03937007874
 74
     0
 49
-0.03937007874
 74
     0
 49
0.03937007874
 74
     0
 49
-0.03937007874
 74
     0
  0
LTYPE
  5
5D5
330
35C
100
AcDbSymbolTableRecord
100
AcDbLinetypeTableRecord
  2
ACANSTGL
 70
     0
  3
_ _ _ _ _
 72
    65
 73
     2
 40
0.11811023622
 49
0.07874015748
 74
     0
 49
-0.03937007874
 74
     0
  0
ENDTAB
  0
TABLE
  2
LAYER
  5
359
330
0
100
AcDbSymbolTable
 70
     7
  0
LAYER
  5
367
330
359
100
AcDbSymbolTableRecord
100
AcDbLayerTableRecord
  2
0
 70
     0
 62
     7
  6
CONTINUOUS
370
    -3
390
366
  0
LAYER
  5
37E
330
359
100
AcDbSymbolTableRecord
100
AcDbLayerTableRecord
  2
1
 70
     0
 62
     1
  6
CENTER
370
    -3
390
366
  0
LAYER
  5
37F
330
359
100
AcDbSymbolTableRecord
100
AcDbLayerTableRecord
  2
3
 70
     0
 62
     3
  6
CONTINUOUS
370
    -3
390
366
  0
LAYER
  5
380
330
359
100
AcDbSymbolTableRecord
100
AcDbLayerTableRecord
  2
4
 70
     0
 62
     4
  6
CONTINUOUS
370
    -3
390
366
  0
LAYER
  5
381
330
359
100
AcDbSymbolTableRecord
100
AcDbLayerTableRecord
  2
10
 70
     0
 62
     7
  6
CONTINUOUS
370
    -3
390
366
  0
LAYER
  5
382
330
359
100
AcDbSymbolTableRecord
100
AcDbLayerTableRecord
  2
11
 70
     0
 62
     3
  6
CONTINUOUS
370
    -3
390
366
  0
LAYER
  5
383
330
359
100
AcDbSymbolTableRecord
100
AcDbLayerTableRecord
  2
2
 70
     0
 62
     2
  6
TENSEN1
370
    -3
390
366
  0
ENDTAB
  0
TABLE
  2
STYLE
  5
35A
330
0
100
AcDbSymbolTable
 70
     7
  0
STYLE
  5
368
330
35A
100
AcDbSymbolTableRecord
100
AcDbTextStyleTableRecord
  2
STANDARD
 70
     0
 40
0.0
 41
1.0
 50
0.0
 71
     0
 42
0.2
  3
TXT
  4
BIGFONT
  0
STYLE
  5
379
330
35A
100
AcDbSymbolTableRecord
100
AcDbTextStyleTableRecord
  2
BIGFONT
 70
     0
 40
10.0
 41
0.8
 50
0.0
 71
     0
 42
10.0
  3
txt.shx
  4
bigfont
  0
STYLE
  5
384
330
35A
100
AcDbSymbolTableRecord
100
AcDbTextStyleTableRecord
  2
K80
 70
     0
 40
0.0
 41
0.8
 50
0.0
 71
     0
 42
0.2
  3
TXT
  4
BIGFONT
  0
STYLE
  5
385
330
35A
100
AcDbSymbolTableRecord
100
AcDbTextStyleTableRecord
  2
07500
 70
     0
 40
0.0
 41
0.75
 50
0.0
 71
     0
 42
6.0
  3
TXT
  4
BIGFONT
  0
STYLE
  5
5C2
330
35A
100
AcDbSymbolTableRecord
100
AcDbTextStyleTableRecord
  2

 70
     1
 40
0.0
 41
1.0
 50
0.0
 71
     0
 42
10.0
  3
ltypeshp.shx
  4

  0
STYLE
  5
5C7
330
35A
100
AcDbSymbolTableRecord
100
AcDbTextStyleTableRecord
  2
ACANSTS
 70
     0
 40
1.0
 41
1.0
 50
0.0
 71
     0
 42
10.0
  3
romans.shx
  4
extfont.shx
  0
STYLE
  5
5D3
330
35A
100
AcDbSymbolTableRecord
100
AcDbTextStyleTableRecord
  2
ACANSGDT
 70
     0
 40
0.0
 41
1.0
 50
0.0
 71
     0
 42
10.0
  3
amgdtans.shx
  4

  0
ENDTAB
  0
TABLE
  2
VIEW
  5
35D
330
0
100
AcDbSymbolTable
 70
     1
  0
VIEW
  5
386
330
35D
100
AcDbSymbolTableRecord
100
AcDbViewTableRecord
  2
ALL
 70
     0
 40
540.0
 10
441.9831929999999
 20
270.0
 41
0.0
 11
0.0
 21
0.0
 31
1.0
 12
0.0
 22
0.0
 32
0.0
 42
0.0
 43
0.0
 44
0.0
 50
0.0
 71
     0
281
     0
 72
     0
  0
ENDTAB
  0
TABLE
  2
UCS
  5
35E
330
0
100
AcDbSymbolTable
 70
     0
  0
ENDTAB
  0
TABLE
  2
APPID
  5
360
330
0
100
AcDbSymbolTable
 70
    13
  0
APPID
  5
369
330
360
100
AcDbSymbolTableRecord
100
AcDbRegAppTableRecord
  2
ACAD
 70
     0
  0
APPID
  5
4F2
330
360
100
AcDbSymbolTableRecord
100
AcDbRegAppTableRecord
  2
GENIUS_GENDIM_13
 70
     0
  0
APPID
  5
4F3
330
360
100
AcDbSymbolTableRecord
100
AcDbRegAppTableRecord
  2
GENIUS_GENDTOL_13
 70
     0
  0
APPID
  5
4F4
330
360
100
AcDbSymbolTableRecord
100
AcDbRegAppTableRecord
  2
GENIUS_GE3DTOL_13
 70
     0
  0
APPID
  5
4F7
330
360
100
AcDbSymbolTableRecord
100
AcDbRegAppTableRecord
  2
MCAD_NO_VIS
 70
     0
  0
APPID
  5
4F8
330
360
100
AcDbSymbolTableRecord
100
AcDbRegAppTableRecord
  2
ACAD_TEMP_GRAPHIC
 70
     0
  0
APPID
  5
529
330
360
100
AcDbSymbolTableRecord
100
AcDbRegAppTableRecord
  2
AD_DRAW
 70
     0
  0
APPID
  5
52C
330
360
100
AcDbSymbolTableRecord
100
AcDbRegAppTableRecord
  2
ACATTRIBSERVICES
 70
     0
  0
APPID
  5
578
330
360
100
AcDbSymbolTableRecord
100
AcDbRegAppTableRecord
  2
ASURF_PCURVE_APPNAME
 70
     0
  0
APPID
  5
57D
330
360
100
AcDbSymbolTableRecord
100
AcDbRegAppTableRecord
  2
AMG_3D2D_5.0
 70
     0
  0
APPID
  5
5A8
330
360
100
AcDbSymbolTableRecord
100
AcDbRegAppTableRecord
  2
DESIGNERASSEMBLIES
 70
     0
  0
APPID
  5
5B0
330
360
100
AcDbSymbolTableRecord
100
AcDbRegAppTableRecord
  2
ACADM_DIM_EDIT
 70
     0
  0
APPID
  5
5B1
330
360
100
AcDbSymbolTableRecord
100
AcDbRegAppTableRecord
  2
AMDT_DM_ADJ
 70
     0
  0
ENDTAB
  0
TABLE
  2
DIMSTYLE
  5
361
330
0
100
AcDbSymbolTable
 70
     7
100
AcDbDimStyleTable
 71
     0
  0
DIMSTYLE
105
387
330
361
100
AcDbSymbolTableRecord
100
AcDbDimStyleTableRecord
  2
STANDARD
 70
     0
279
     2
340
379
  0
DIMSTYLE
105
5DA
330
361
100
AcDbSymbolTableRecord
100
AcDbDimStyleTableRecord
  2
AM_ANSI
 70
     0
  4
mm
 41
0.1
 42
0.05
 43
0.5
 44
0.1
 47
0.1
 48
0.1
 78
     7
 79
     2
140
0.12
141
0.0
146
0.71
147
0.06
176
   256
177
   256
178
     2
274
     4
284
     7
340
368
371
    -1
372
    -1
  0
DIMSTYLE
105
5DB
330
361
100
AcDbSymbolTableRecord
100
AcDbDimStyleTableRecord
  2
AM_ANSI$3
 70
     0
  4
mm
 41
0.1
 42
0.05
 43
0.5
 44
0.1
 47
0.1
 48
0.1
 78
     7
 79
     2
140
0.12
141
0.0
146
0.71
147
0.06
176
   256
177
   256
178
     2
274
     4
284
     7
288
     1
289
     0
340
368
371
    -1
372
    -1
  0
DIMSTYLE
105
5DC
330
361
100
AcDbSymbolTableRecord
100
AcDbDimStyleTableRecord
  2
AM_ANSI$4
 70
     0
  4
mm
 41
0.1
 42
0.05
 43
0.5
 44
0.1
 47
0.1
 48
0.1
 78
     7
 79
     2
140
0.12
141
0.0
146
0.71
147
0.06
176
   256
177
   256
178
     2
274
     4
284
     7
288
     1
289
     0
340
368
371
    -1
372
    -1
  0
DIMSTYLE
105
5DD
330
361
100
AcDbSymbolTableRecord
100
AcDbDimStyleTableRecord
  2
AM_ANSI$7
 70
     0
  4
mm
 41
0.1
 42
0.05
 43
0.5
 44
0.1
 47
0.1
 48
0.1
 78
     7
 79
     2
140
0.24
141
0.0
146
0.71
147
0.06
176
   256
177
   256
178
     2
274
     4
284
     7
340
368
371
    -1
372
    -1
  0
DIMSTYLE
105
5DE
330
361
100
AcDbSymbolTableRecord
100
AcDbDimStyleTableRecord
  2
AM_ANSI$SF
 70
     0
  4
mm
 41
0.1
 42
0.05
 43
0.5
 44
0.1
 47
0.1
 48
0.1
 75
     1
 76
     1
 78
     7
 79
     2
140
0.12
141
0.0
146
0.71
147
0.06
176
   256
177
   256
178
     2
274
     4
284
     7
340
368
371
    -1
372
    -1
  0
DIMSTYLE
105
5E3
330
361
100
AcDbSymbolTableRecord
100
AcDbDimStyleTableRecord
  2
AM_ANSI$SH
 70
     0
  4
mm
 41
0.1
 42
0.05
 43
0.5
 44
0.1
 47
0.1
 48
0.1
 75
     1
 76
     1
 78
     7
 79
     2
140
0.12
141
0.0
146
0.71
147
0.06
173
     1
176
   256
177
   256
178
     2
274
     4
284
     7
340
368
343
5DF
371
    -1
372
    -1
  0
ENDTAB
  0
TABLE
  2
BLOCK_RECORD
  5
358
330
0
100
AcDbSymbolTable
 70
     6
  0
BLOCK_RECORD
  5
375
102
{ACAD_XDICTIONARY
360
5E7
102
}
330
358
100
AcDbSymbolTableRecord
100
AcDbBlockTableRecord
  2
*Model_Space
340
378
  0
BLOCK_RECORD
  5
371
330
358
100
AcDbSymbolTableRecord
100
AcDbBlockTableRecord
  2
*Paper_Space
340
374
  0
BLOCK_RECORD
  5
38A
330
358
100
AcDbSymbolTableRecord
100
AcDbBlockTableRecord
  2
$MODEL_SPACE
340
0
  0
BLOCK_RECORD
  5
38D
330
358
100
AcDbSymbolTableRecord
100
AcDbBlockTableRecord
  2
$PAPER_SPACE
340
0
  0
BLOCK_RECORD
  5
390
330
358
100
AcDbSymbolTableRecord
100
AcDbBlockTableRecord
  2
WAKU
340
0
  0
BLOCK_RECORD
  5
398
330
358
100
AcDbSymbolTableRecord
100
AcDbBlockTableRecord
  2
QQ
340
0
  0
BLOCK_RECORD
  5
59F
330
358
100
AcDbSymbolTableRecord
100
AcDbBlockTableRecord
  2
*U4
340
0
  0
BLOCK_RECORD
  5
5DF
330
358
100
AcDbSymbolTableRecord
100
AcDbBlockTableRecord
  2
GENAXEH
340
0
  0
ENDTAB
  0
ENDSEC
  0
SECTION
  2
BLOCKS
  0
BLOCK
  5
376
330
375
100
AcDbEntity
  8
0
100
AcDbBlockBegin
  2
*Model_Space
 70
     0
 10
0.0
 20
0.0
 30
0.0
  3
*Model_Space
  1

  0
ENDBLK
  5
377
330
375
100
AcDbEntity
  8
0
100
AcDbBlockEnd
  0
BLOCK
  5
372
330
371
100
AcDbEntity
 67
     1
  8
0
100
AcDbBlockBegin
  2
*Paper_Space
 70
     0
 10
0.0
 20
0.0
 30
0.0
  3
*Paper_Space
  1

  0
ENDBLK
  5
373
330
371
100
AcDbEntity
 67
     1
  8
0
100
AcDbBlockEnd
  0
BLOCK
  5
38B
330
38A
100
AcDbEntity
  8
0
100
AcDbBlockBegin
  2
$MODEL_SPACE
 70
     0
 10
0.0
 20
0.0
 30
0.0
  3
$MODEL_SPACE
  1

  0
ENDBLK
  5
38C
330
38A
100
AcDbEntity
  8
0
100
AcDbBlockEnd
  0
BLOCK
  5
38E
330
38D
100
AcDbEntity
  8
0
100
AcDbBlockBegin
  2
$PAPER_SPACE
 70
     0
 10
0.0
 20
0.0
 30
0.0
  3
$PAPER_SPACE
  1

  0
ENDBLK
  5
38F
330
38D
100
AcDbEntity
  8
0
100
AcDbBlockEnd
  0
BLOCK
  5
391
330
390
100
AcDbEntity
  8
0
100
AcDbBlockBegin
  2
WAKU
 70
     0
 10
549.0
 20
0.0
 30
0.0
  3
WAKU
  1

  0
LINE
  5
392
330
390
100
AcDbEntity
  8
11
100
AcDbLine
 10
452.0
 20
12.0
 30
0.0
 11
549.0
 21
12.0
 31
0.0
  0
LINE
  5
393
330
390
100
AcDbEntity
  8
11
100
AcDbLine
 10
477.0
 20
0.0
 30
0.0
 11
477.0
 21
12.0
 31
0.0
  0
LINE
  5
394
330
390
100
AcDbEntity
  8
11
100
AcDbLine
 10
452.0
 20
12.0
 30
0.0
 11
452.0
 21
0.0
 31
0.0
  0
TEXT
  5
395
330
390
100
AcDbEntity
  8
11
100
AcDbText
 10
454.0
 20
8.5
 30
0.0
 40
2.5
  1
尺度
100
AcDbText
  0
TEXT
  5
396
330
390
100
AcDbEntity
  8
11
100
AcDbText
 10
479.0
 20
8.5
 30
0.0
 40
2.5
  1
図番
100
AcDbText
  0
ENDBLK
  5
397
330
390
100
AcDbEntity
  8
0
100
AcDbBlockEnd
  0
BLOCK
  5
399
330
398
100
AcDbEntity
  8
0
100
AcDbBlockBegin
  2
QQ
 70
     0
 10
270.0
 20
0.0
 30
0.0
  3
QQ
  1

  0
LINE
  5
39A
330
398
100
AcDbEntity
  8
11
100
AcDbLine
 10
173.0
 20
36.0
 30
0.0
 11
270.0
 21
36.0
 31
0.0
  0
TEXT
  5
39B
330
398
100
AcDbEntity
  8
11
100
AcDbText
 10
175.0
 20
32.5
 30
0.0
 40
2.5
  1
部品名称
100
AcDbText
  0
LINE
  5
39C
330
398
100
AcDbEntity
  8
11
100
AcDbLine
 10
173.0
 20
36.0
 30
0.0
 11
173.0
 21
0.0
 31
0.0
  0
LINE
  5
39D
330
398
100
AcDbEntity
  8
11
100
AcDbLine
 10
173.0
 20
24.0
 30
0.0
 11
270.0
 21
24.0
 31
0.0
  0
TEXT
  5
39E
330
398
100
AcDbEntity
  8
11
100
AcDbText
 10
175.0
 20
20.5
 30
0.0
 40
2.5
  1
品番
100
AcDbText
  0
LINE
  5
39F
330
398
100
AcDbEntity
  8
11
100
AcDbLine
 10
173.0
 20
12.0
 30
0.0
 11
270.0
 21
12.0
 31
0.0
  0
TEXT
  5
3A0
330
398
100
AcDbEntity
  8
11
100
AcDbText
 10
175.0
 20
8.5
 30
0.0
 40
2.5
  1
尺度
100
AcDbText
  0
TEXT
  5
3A1
330
398
100
AcDbEntity
  8
11
100
AcDbText
 10
200.0
 20
8.5
 30
0.0
 40
2.5
  1
図番
100
AcDbText
  0
LINE
  5
3A2
330
398
100
AcDbEntity
  8
11
100
AcDbLine
 10
198.0
 20
0.0
 30
0.0
 11
198.0
 21
12.0
 31
0.0
  0
ENDBLK
  5
3A3
330
398
100
AcDbEntity
  8
0
100
AcDbBlockEnd
  0
BLOCK
  5
5A0
330
59F
100
AcDbEntity
  8
0
100
AcDbBlockBegin
  2
*U4
 70
     1
 10
0.0
 20
0.0
 30
0.0
  3
*U4
  1

  0
ENDBLK
  5
5A1
330
59F
100
AcDbEntity
  8
0
100
AcDbBlockEnd
  0
BLOCK
  5
5E1
330
5DF
100
AcDbEntity
  8
0
100
AcDbBlockBegin
  2
GENAXEH
 70
     0
 10
0.0
 20
0.0
 30
0.0
  3
GENAXEH
  1

  0
LINE
  5
5E0
330
5DF
100
AcDbEntity
  8
0
100
AcDbLine
 10
-1.0
 20
0.0
 30
0.0
 11
1.0
 21
0.0
 31
0.0
  0
ENDBLK
  5
5E2
330
5DF
100
AcDbEntity
  8
0
100
AcDbBlockEnd
  0
ENDSEC
  0
SECTION
  2
ENTITIES
  0
LINE
  5
3A4
330
375
100
AcDbEntity
  8
1
100
AcDbLine
 10
53.0
 20
109.4999999999999
 30
0.0
 11
53.0
 21
44.5
 31
0.0
  0
LINE
  5
3A5
330
375
100
AcDbEntity
  8
0
100
AcDbLine
 10
53.0
 20
68.0
 30
0.0
 11
47.0
 21
68.0
 31
0.0
  0
LINE
  5
3A6
330
375
100
AcDbEntity
  8
0
100
AcDbLine
 10
47.0
 20
68.0
 30
0.0
 11
47.0
 21
76.267081
 31
0.0
  0
ARC
  5
3A9
330
375
100
AcDbEntity
  8
0
100
AcDbCircle
 10
53.0
 20
101.916667
 30
0.0
 40
6.083333
100
AcDbArc
 50
48.88791
 51
131.1120899999999
  0
LINE
  5
3AA
330
375
100
AcDbEntity
  8
0
100
AcDbLine
 10
45.0
 20
77.5
 30
0.0
 11
45.0
 21
96.5
 31
0.0
  0
POLYLINE
  5
3AB
330
375
100
AcDbEntity
  8
0
100
AcDb3dPolyline
 66
     1
 10
0.0
 20
0.0
 30
0.0
 70
     8
  0
VERTEX
  5
3AC
330
3AB
100
AcDbEntity
  8
0
100
AcDbVertex
100
AcDb3dPolylineVertex
 10
45.2676
 20
97.0129
 30
0.0
 70
    32
  0
VERTEX
  5
3AD
330
3AB
100
AcDbEntity
  8
0
100
AcDbVertex
100
AcDb3dPolylineVertex
 10
45.21209999999999
 20
96.9575
 30
0.0
 70
    32
  0
VERTEX
  5
3AE
330
3AB
100
AcDbEntity
  8
0
100
AcDbVertex
100
AcDb3dPolylineVertex
 10
45.1629
 20
96.9016
 30
0.0
 70
    32
  0
VERTEX
  5
3AF
330
3AB
100
AcDbEntity
  8
0
100
AcDbVertex
100
AcDb3dPolylineVertex
 10
45.12019999999999
 20
96.8454
 30
0.0
 70
    32
  0
VERTEX
  5
3B0
330
3AB
100
AcDbEntity
  8
0
100
AcDbVertex
100
AcDb3dPolylineVertex
 10
45.0839
 20
96.789
 30
0.0
 70
    32
  0
VERTEX
  5
3B1
330
3AB
100
AcDbEntity
  8
0
100
AcDbVertex
100
AcDb3dPolylineVertex
 10
45.0541
 20
96.7323
 30
0.0
 70
    32
  0
VERTEX
  5
3B2
330
3AB
100
AcDbEntity
  8
0
100
AcDbVertex
100
AcDb3dPolylineVertex
 10
45.03079999999999
 20
96.6754
 30
0.0
 70
    32
  0
VERTEX
  5
3B3
330
3AB
100
AcDbEntity
  8
0
100
AcDbVertex
100
AcDb3dPolylineVertex
 10
45.014
 20
96.61830000000001
 30
0.0
 70
    32
  0
VERTEX
  5
3B4
330
3AB
100
AcDbEntity
  8
0
100
AcDbVertex
100
AcDb3dPolylineVertex
 10
45.0037
 20
96.56120000000001
 30
0.0
 70
    32
  0
VERTEX
  5
3B5
330
3AB
100
AcDbEntity
  8
0
100
AcDbVertex
100
AcDb3dPolylineVertex
 10
45.0
 20
96.50400000000001
 30
0.0
 70
    32
  0
VERTEX
  5
3B6
330
3AB
100
AcDbEntity
  8
0
100
AcDbVertex
100
AcDb3dPolylineVertex
 10
45.0028
 20
96.44680000000001
 30
0.0
 70
    32
  0
VERTEX
  5
3B7
330
3AB
100
AcDbEntity
  8
0
100
AcDbVertex
100
AcDb3dPolylineVertex
 10
45.01219999999999
 20
96.3897
 30
0.0
 70
    32
  0
VERTEX
  5
3B8
330
3AB
100
AcDbEntity
  8
0
100
AcDbVertex
100
AcDb3dPolylineVertex
 10
45.0281
 20
96.33259999999999
 30
0.0
 70
    32
  0
VERTEX
  5
3B9
330
3AB
100
AcDbEntity
  8
0
100
AcDbVertex
100
AcDb3dPolylineVertex
 10
45.05049999999999
 20
96.2757
 30
0.0
 70
    32
  0
VERTEX
  5
3BA
330
3AB
100
AcDbEntity
  8
0
100
AcDbVertex
100
AcDb3dPolylineVertex
 10
45.0794
 20
96.219
 30
0.0
 70
    32
  0
VERTEX
  5
3BB
330
3AB
100
AcDbEntity
  8
0
100
AcDbVertex
100
AcDb3dPolylineVertex
 10
45.1147
 20
96.1625
 30
0.0
 70
    32
  0
VERTEX
  5
3BC
330
3AB
100
AcDbEntity
  8
0
100
AcDbVertex
100
AcDb3dPolylineVertex
 10
45.15659999999999
 20
96.1062
 30
0.0
 70
    32
  0
VERTEX
  5
3BD
330
3AB
100
AcDbEntity
  8
0
100
AcDbVertex
100
AcDb3dPolylineVertex
 10
45.2048
 20
96.05029999999999
 30
0.0
 70
    32
  0
VERTEX
  5
3BE
330
3AB
100
AcDbEntity
  8
0
100
AcDbVertex
100
AcDb3dPolylineVertex
 10
45.2594
 20
95.99479999999999
 30
0.0
 70
    32
  0
VERTEX
  5
3BF
330
3AB
100
AcDbEntity
  8
0
100
AcDbVertex
100
AcDb3dPolylineVertex
 10
45.3204
 20
95.9397
 30
0.0
 70
    32
  0
VERTEX
  5
3C0
330
3AB
100
AcDbEntity
  8
0
100
AcDbVertex
100
AcDb3dPolylineVertex
 10
45.38759999999999
 20
95.88500000000001
 30
0.0
 70
    32
  0
VERTEX
  5
3C1
330
3AB
100
AcDbEntity
  8
0
100
AcDbVertex
100
AcDb3dPolylineVertex
 10
45.461
 20
95.8309
 30
0.0
 70
    32
  0
VERTEX
  5
3C2
330
3AB
100
AcDbEntity
  8
0
100
AcDbVertex
100
AcDb3dPolylineVertex
 10
45.5407
 20
95.77719999999999
 30
0.0
 70
    32
  0
VERTEX
  5
3C3
330
3AB
100
AcDbEntity
  8
0
100
AcDbVertex
100
AcDb3dPolylineVertex
 10
45.6264
 20
95.72419999999999
 30
0.0
 70
    32
  0
VERTEX
  5
3C4
330
3AB
100
AcDbEntity
  8
0
100
AcDbVertex
100
AcDb3dPolylineVertex
 10
45.7181
 20
95.6718
 30
0.0
 70
    32
  0
VERTEX
  5
3C5
330
3AB
100
AcDbEntity
  8
0
100
AcDbVertex
100
AcDb3dPolylineVertex
 10
45.8158
 20
95.62009999999999
 30
0.0
 70
    32
  0
VERTEX
  5
3C6
330
3AB
100
AcDbEntity
  8
0
100
AcDbVertex
100
AcDb3dPolylineVertex
 10
45.9194
 20
95.5691
 30
0.0
 70
    32
  0
VERTEX
  5
3C7
330
3AB
100
AcDbEntity
  8
0
100
AcDbVertex
100
AcDb3dPolylineVertex
 10
46.0287
 20
95.5189
 30
0.0
 70
    32
  0
VERTEX
  5
3C8
330
3AB
100
AcDbEntity
  8
0
100
AcDbVertex
100
AcDb3dPolylineVertex
 10
46.14379999999999
 20
95.4695
 30
0.0
 70
    32
  0
VERTEX
  5
3C9
330
3AB
100
AcDbEntity
  8
0
100
AcDbVertex
100
AcDb3dPolylineVertex
 10
46.2645
 20
95.42089999999999
 30
0.0
 70
    32
  0
VERTEX
  5
3CA
330
3AB
100
AcDbEntity
  8
0
100
AcDbVertex
100
AcDb3dPolylineVertex
 10
46.39059999999999
 20
95.37319999999999
 30
0.0
 70
    32
  0
VERTEX
  5
3CB
330
3AB
100
AcDbEntity
  8
0
100
AcDbVertex
100
AcDb3dPolylineVertex
 10
46.52219999999999
 20
95.3264
 30
0.0
 70
    32
  0
VERTEX
  5
3CC
330
3AB
100
AcDbEntity
  8
0
100
AcDbVertex
100
AcDb3dPolylineVertex
 10
46.6591
 20
95.28060000000001
 30
0.0
 70
    32
  0
VERTEX
  5
3CD
330
3AB
100
AcDbEntity
  8
0
100
AcDbVertex
100
AcDb3dPolylineVertex
 10
46.8012
 20
95.23569999999999
 30
0.0
 70
    32
  0
VERTEX
  5
3CE
330
3AB
100
AcDbEntity
  8
0
100
AcDbVertex
100
AcDb3dPolylineVertex
 10
46.9483
 20
95.1919
 30
0.0
 70
    32
  0
VERTEX
  5
3CF
330
3AB
100
AcDbEntity
  8
0
100
AcDbVertex
100
AcDb3dPolylineVertex
 10
47.1004
 20
95.1492
 30
0.0
 70
    32
  0
VERTEX
  5
3D0
330
3AB
100
AcDbEntity
  8
0
100
AcDbVertex
100
AcDb3dPolylineVertex
 10
47.2573
 20
95.10760000000001
 30
0.0
 70
    32
  0
VERTEX
  5
3D1
330
3AB
100
AcDbEntity
  8
0
100
AcDbVertex
100
AcDb3dPolylineVertex
 10
47.4189
 20
95.06709999999999
 30
0.0
 70
    32
  0
VERTEX
  5
3D2
330
3AB
100
AcDbEntity
  8
0
100
AcDbVertex
100
AcDb3dPolylineVertex
 10
47.585
 20
95.02779999999999
 30
0.0
 70
    32
  0
VERTEX
  5
3D3
330
3AB
100
AcDbEntity
  8
0
100
AcDbVertex
100
AcDb3dPolylineVertex
 10
47.7556
 20
94.98969999999999
 30
0.0
 70
    32
  0
VERTEX
  5
3D4
330
3AB
100
AcDbEntity
  8
0
100
AcDbVertex
100
AcDb3dPolylineVertex
 10
47.9305
 20
94.95279999999999
 30
0.0
 70
    32
  0
VERTEX
  5
3D5
330
3AB
100
AcDbEntity
  8
0
100
AcDbVertex
100
AcDb3dPolylineVertex
 10
48.1095
 20
94.91719999999999
 30
0.0
 70
    32
  0
VERTEX
  5
3D6
330
3AB
100
AcDbEntity
  8
0
100
AcDbVertex
100
AcDb3dPolylineVertex
 10
48.2925
 20
94.88290000000001
 30
0.0
 70
    32
  0
VERTEX
  5
3D7
330
3AB
100
AcDbEntity
  8
0
100
AcDbVertex
100
AcDb3dPolylineVertex
 10
48.4794
 20
94.84990000000001
 30
0.0
 70
    32
  0
VERTEX
  5
3D8
330
3AB
100
AcDbEntity
  8
0
100
AcDbVertex
100
AcDb3dPolylineVertex
 10
48.67
 20
94.8183
 30
0.0
 70
    32
  0
VERTEX
  5
3D9
330
3AB
100
AcDbEntity
  8
0
100
AcDbVertex
100
AcDb3dPolylineVertex
 10
48.8641
 20
94.78799999999999
 30
0.0
 70
    32
  0
VERTEX
  5
3DA
330
3AB
100
AcDbEntity
  8
0
100
AcDbVertex
100
AcDb3dPolylineVertex
 10
49.06159999999999
 20
94.7592
 30
0.0
 70
    32
  0
VERTEX
  5
3DB
330
3AB
100
AcDbEntity
  8
0
100
AcDbVertex
100
AcDb3dPolylineVertex
 10
49.2623
 20
94.73170000000001
 30
0.0
 70
    32
  0
VERTEX
  5
3DC
330
3AB
100
AcDbEntity
  8
0
100
AcDbVertex
100
AcDb3dPolylineVertex
 10
49.46609999999999
 20
94.7057
 30
0.0
 70
    32
  0
VERTEX
  5
3DD
330
3AB
100
AcDbEntity
  8
0
100
AcDbVertex
100
AcDb3dPolylineVertex
 10
49.6727
 20
94.6812
 30
0.0
 70
    32
  0
VERTEX
  5
3DE
330
3AB
100
AcDbEntity
  8
0
100
AcDbVertex
100
AcDb3dPolylineVertex
 10
49.8821
 20
94.65810000000001
 30
0.0
 70
    32
  0
VERTEX
  5
3DF
330
3AB
100
AcDbEntity
  8
0
100
AcDbVertex
100
AcDb3dPolylineVertex
 10
50.094
 20
94.6366
 30
0.0
 70
    32
  0
VERTEX
  5
3E0
330
3AB
100
AcDbEntity
  8
0
100
AcDbVertex
100
AcDb3dPolylineVertex
 10
50.3083
 20
94.6166
 30
0.0
 70
    32
  0
VERTEX
  5
3E1
330
3AB
100
AcDbEntity
  8
0
100
AcDbVertex
100
AcDb3dPolylineVertex
 10
50.5248
 20
94.5981
 30
0.0
 70
    32
  0
VERTEX
  5
3E2
330
3AB
100
AcDbEntity
  8
0
100
AcDbVertex
100
AcDb3dPolylineVertex
 10
50.74329999999999
 20
94.58119999999999
 30
0.0
 70
    32
  0
VERTEX
  5
3E3
330
3AB
100
AcDbEntity
  8
0
100
AcDbVertex
100
AcDb3dPolylineVertex
 10
50.9637
 20
94.5659
 30
0.0
 70
    32
  0
VERTEX
  5
3E4
330
3AB
100
AcDbEntity
  8
0
100
AcDbVertex
100
AcDb3dPolylineVertex
 10
51.1858
 20
94.55209999999999
 30
0.0
 70
    32
  0
VERTEX
  5
3E5
330
3AB
100
AcDbEntity
  8
0
100
AcDbVertex
100
AcDb3dPolylineVertex
 10
51.4093
 20
94.53990000000001
 30
0.0
 70
    32
  0
VERTEX
  5
3E6
330
3AB
100
AcDbEntity
  8
0
100
AcDbVertex
100
AcDb3dPolylineVertex
 10
51.63409999999999
 20
94.52939999999999
 30
0.0
 70
    32
  0
VERTEX
  5
3E7
330
3AB
100
AcDbEntity
  8
0
100
AcDbVertex
100
AcDb3dPolylineVertex
 10
51.85999999999999
 20
94.5204
 30
0.0
 70
    32
  0
VERTEX
  5
3E8
330
3AB
100
AcDbEntity
  8
0
100
AcDbVertex
100
AcDb3dPolylineVertex
 10
52.0869
 20
94.51309999999999
 30
0.0
 70
    32
  0
VERTEX
  5
3E9
330
3AB
100
AcDbEntity
  8
0
100
AcDbVertex
100
AcDb3dPolylineVertex
 10
52.3145
 20
94.50740000000001
 30
0.0
 70
    32
  0
VERTEX
  5
3EA
330
3AB
100
AcDbEntity
  8
0
100
AcDbVertex
100
AcDb3dPolylineVertex
 10
52.5427
 20
94.50329999999999
 30
0.0
 70
    32
  0
VERTEX
  5
3EB
330
3AB
100
AcDbEntity
  8
0
100
AcDbVertex
100
AcDb3dPolylineVertex
 10
52.77129999999999
 20
94.50079999999999
 30
0.0
 70
    32
  0
VERTEX
  5
3EC
330
3AB
100
AcDbEntity
  8
0
100
AcDbVertex
100
AcDb3dPolylineVertex
 10
53.0
 20
94.50000000000001
 30
0.0
 70
    32
  0
VERTEX
  5
3ED
330
3AB
100
AcDbEntity
  8
0
100
AcDbVertex
100
AcDb3dPolylineVertex
 10
53.2287
 20
94.50079999999999
 30
0.0
 70
    32
  0
VERTEX
  5
3EE
330
3AB
100
AcDbEntity
  8
0
100
AcDbVertex
100
AcDb3dPolylineVertex
 10
53.45729999999999
 20
94.50329999999999
 30
0.0
 70
    32
  0
VERTEX
  5
3EF
330
3AB
100
AcDbEntity
  8
0
100
AcDbVertex
100
AcDb3dPolylineVertex
 10
53.68549999999999
 20
94.50740000000001
 30
0.0
 70
    32
  0
VERTEX
  5
3F0
330
3AB
100
AcDbEntity
  8
0
100
AcDbVertex
100
AcDb3dPolylineVertex
 10
53.9131
 20
94.51309999999999
 30
0.0
 70
    32
  0
VERTEX
  5
3F1
330
3AB
100
AcDbEntity
  8
0
100
AcDbVertex
100
AcDb3dPolylineVertex
 10
54.14
 20
94.5204
 30
0.0
 70
    32
  0
VERTEX
  5
3F2
330
3AB
100
AcDbEntity
  8
0
100
AcDbVertex
100
AcDb3dPolylineVertex
 10
54.3659
 20
94.52939999999999
 30
0.0
 70
    32
  0
VERTEX
  5
3F3
330
3AB
100
AcDbEntity
  8
0
100
AcDbVertex
100
AcDb3dPolylineVertex
 10
54.5907
 20
94.53990000000001
 30
0.0
 70
    32
  0
VERTEX
  5
3F4
330
3AB
100
AcDbEntity
  8
0
100
AcDbVertex
100
AcDb3dPolylineVertex
 10
54.81419999999999
 20
94.55209999999999
 30
0.0
 70
    32
  0
VERTEX
  5
3F5
330
3AB
100
AcDbEntity
  8
0
100
AcDbVertex
100
AcDb3dPolylineVertex
 10
55.0363
 20
94.5659
 30
0.0
 70
    32
  0
VERTEX
  5
3F6
330
3AB
100
AcDbEntity
  8
0
100
AcDbVertex
100
AcDb3dPolylineVertex
 10
55.2567
 20
94.58119999999999
 30
0.0
 70
    32
  0
VERTEX
  5
3F7
330
3AB
100
AcDbEntity
  8
0
100
AcDbVertex
100
AcDb3dPolylineVertex
 10
55.4752
 20
94.5981
 30
0.0
 70
    32
  0
VERTEX
  5
3F8
330
3AB
100
AcDbEntity
  8
0
100
AcDbVertex
100
AcDb3dPolylineVertex
 10
55.69169999999999
 20
94.6166
 30
0.0
 70
    32
  0
VERTEX
  5
3F9
330
3AB
100
AcDbEntity
  8
0
100
AcDbVertex
100
AcDb3dPolylineVertex
 10
55.906
 20
94.6366
 30
0.0
 70
    32
  0
VERTEX
  5
3FA
330
3AB
100
AcDbEntity
  8
0
100
AcDbVertex
100
AcDb3dPolylineVertex
 10
56.1179
 20
94.65810000000001
 30
0.0
 70
    32
  0
VERTEX
  5
3FB
330
3AB
100
AcDbEntity
  8
0
100
AcDbVertex
100
AcDb3dPolylineVertex
 10
56.3273
 20
94.6812
 30
0.0
 70
    32
  0
VERTEX
  5
3FC
330
3AB
100
AcDbEntity
  8
0
100
AcDbVertex
100
AcDb3dPolylineVertex
 10
56.5339
 20
94.7057
 30
0.0
 70
    32
  0
VERTEX
  5
3FD
330
3AB
100
AcDbEntity
  8
0
100
AcDbVertex
100
AcDb3dPolylineVertex
 10
56.7377
 20
94.73170000000001
 30
0.0
 70
    32
  0
VERTEX
  5
3FE
330
3AB
100
AcDbEntity
  8
0
100
AcDbVertex
100
AcDb3dPolylineVertex
 10
56.9384
 20
94.7592
 30
0.0
 70
    32
  0
VERTEX
  5
3FF
330
3AB
100
AcDbEntity
  8
0
100
AcDbVertex
100
AcDb3dPolylineVertex
 10
57.13589999999999
 20
94.78799999999999
 30
0.0
 70
    32
  0
VERTEX
  5
400
330
3AB
100
AcDbEntity
  8
0
100
AcDbVertex
100
AcDb3dPolylineVertex
 10
57.33
 20
94.8183
 30
0.0
 70
    32
  0
VERTEX
  5
401
330
3AB
100
AcDbEntity
  8
0
100
AcDbVertex
100
AcDb3dPolylineVertex
 10
57.5206
 20
94.84990000000001
 30
0.0
 70
    32
  0
VERTEX
  5
402
330
3AB
100
AcDbEntity
  8
0
100
AcDbVertex
100
AcDb3dPolylineVertex
 10
57.7075
 20
94.88290000000001
 30
0.0
 70
    32
  0
VERTEX
  5
403
330
3AB
100
AcDbEntity
  8
0
100
AcDbVertex
100
AcDb3dPolylineVertex
 10
57.8905
 20
94.91719999999999
 30
0.0
 70
    32
  0
VERTEX
  5
404
330
3AB
100
AcDbEntity
  8
0
100
AcDbVertex
100
AcDb3dPolylineVertex
 10
58.0695
 20
94.95279999999999
 30
0.0
 70
    32
  0
VERTEX
  5
405
330
3AB
100
AcDbEntity
  8
0
100
AcDbVertex
100
AcDb3dPolylineVertex
 10
58.2444
 20
94.98969999999999
 30
0.0
 70
    32
  0
VERTEX
  5
406
330
3AB
100
AcDbEntity
  8
0
100
AcDbVertex
100
AcDb3dPolylineVertex
 10
58.41499999999999
 20
95.02779999999999
 30
0.0
 70
    32
  0
VERTEX
  5
407
330
3AB
100
AcDbEntity
  8
0
100
AcDbVertex
100
AcDb3dPolylineVertex
 10
58.58109999999999
 20
95.06709999999999
 30
0.0
 70
    32
  0
VERTEX
  5
408
330
3AB
100
AcDbEntity
  8
0
100
AcDbVertex
100
AcDb3dPolylineVertex
 10
58.7427
 20
95.10760000000001
 30
0.0
 70
    32
  0
VERTEX
  5
409
330
3AB
100
AcDbEntity
  8
0
100
AcDbVertex
100
AcDb3dPolylineVertex
 10
58.8996
 20
95.1492
 30
0.0
 70
    32
  0
VERTEX
  5
40A
330
3AB
100
AcDbEntity
  8
0
100
AcDbVertex
100
AcDb3dPolylineVertex
 10
59.0517
 20
95.1919
 30
0.0
 70
    32
  0
VERTEX
  5
40B
330
3AB
100
AcDbEntity
  8
0
100
AcDbVertex
100
AcDb3dPolylineVertex
 10
59.1988
 20
95.23569999999999
 30
0.0
 70
    32
  0
VERTEX
  5
40C
330
3AB
100
AcDbEntity
  8
0
100
AcDbVertex
100
AcDb3dPolylineVertex
 10
59.3409
 20
95.28060000000001
 30
0.0
 70
    32
  0
VERTEX
  5
40D
330
3AB
100
AcDbEntity
  8
0
100
AcDbVertex
100
AcDb3dPolylineVertex
 10
59.4778
 20
95.3264
 30
0.0
 70
    32
  0
VERTEX
  5
40E
330
3AB
100
AcDbEntity
  8
0
100
AcDbVertex
100
AcDb3dPolylineVertex
 10
59.6094
 20
95.37319999999999
 30
0.0
 70
    32
  0
VERTEX
  5
40F
330
3AB
100
AcDbEntity
  8
0
100
AcDbVertex
100
AcDb3dPolylineVertex
 10
59.7355
 20
95.42089999999999
 30
0.0
 70
    32
  0
VERTEX
  5
410
330
3AB
100
AcDbEntity
  8
0
100
AcDbVertex
100
AcDb3dPolylineVertex
 10
59.8562
 20
95.4695
 30
0.0
 70
    32
  0
VERTEX
  5
411
330
3AB
100
AcDbEntity
  8
0
100
AcDbVertex
100
AcDb3dPolylineVertex
 10
59.9713
 20
95.5189
 30
0.0
 70
    32
  0
VERTEX
  5
412
330
3AB
100
AcDbEntity
  8
0
100
AcDbVertex
100
AcDb3dPolylineVertex
 10
60.0806
 20
95.5691
 30
0.0
 70
    32
  0
VERTEX
  5
413
330
3AB
100
AcDbEntity
  8
0
100
AcDbVertex
100
AcDb3dPolylineVertex
 10
60.18419999999999
 20
95.62009999999999
 30
0.0
 70
    32
  0
VERTEX
  5
414
330
3AB
100
AcDbEntity
  8
0
100
AcDbVertex
100
AcDb3dPolylineVertex
 10
60.2819
 20
95.6718
 30
0.0
 70
    32
  0
VERTEX
  5
415
330
3AB
100
AcDbEntity
  8
0
100
AcDbVertex
100
AcDb3dPolylineVertex
 10
60.3736
 20
95.72419999999999
 30
0.0
 70
    32
  0
VERTEX
  5
416
330
3AB
100
AcDbEntity
  8
0
100
AcDbVertex
100
AcDb3dPolylineVertex
 10
60.4593
 20
95.77719999999999
 30
0.0
 70
    32
  0
VERTEX
  5
417
330
3AB
100
AcDbEntity
  8
0
100
AcDbVertex
100
AcDb3dPolylineVertex
 10
60.539
 20
95.8309
 30
0.0
 70
    32
  0
VERTEX
  5
418
330
3AB
100
AcDbEntity
  8
0
100
AcDbVertex
100
AcDb3dPolylineVertex
 10
60.6124
 20
95.88500000000001
 30
0.0
 70
    32
  0
VERTEX
  5
419
330
3AB
100
AcDbEntity
  8
0
100
AcDbVertex
100
AcDb3dPolylineVertex
 10
60.6796
 20
95.9397
 30
0.0
 70
    32
  0
VERTEX
  5
41A
330
3AB
100
AcDbEntity
  8
0
100
AcDbVertex
100
AcDb3dPolylineVertex
 10
60.7406
 20
95.99479999999999
 30
0.0
 70
    32
  0
VERTEX
  5
41B
330
3AB
100
AcDbEntity
  8
0
100
AcDbVertex
100
AcDb3dPolylineVertex
 10
60.7952
 20
96.05029999999999
 30
0.0
 70
    32
  0
VERTEX
  5
41C
330
3AB
100
AcDbEntity
  8
0
100
AcDbVertex
100
AcDb3dPolylineVertex
 10
60.8434
 20
96.1062
 30
0.0
 70
    32
  0
VERTEX
  5
41D
330
3AB
100
AcDbEntity
  8
0
100
AcDbVertex
100
AcDb3dPolylineVertex
 10
60.8853
 20
96.1625
 30
0.0
 70
    32
  0
VERTEX
  5
41E
330
3AB
100
AcDbEntity
  8
0
100
AcDbVertex
100
AcDb3dPolylineVertex
 10
60.9206
 20
96.219
 30
0.0
 70
    32
  0
VERTEX
  5
41F
330
3AB
100
AcDbEntity
  8
0
100
AcDbVertex
100
AcDb3dPolylineVertex
 10
60.9495
 20
96.2757
 30
0.0
 70
    32
  0
VERTEX
  5
420
330
3AB
100
AcDbEntity
  8
0
100
AcDbVertex
100
AcDb3dPolylineVertex
 10
60.9719
 20
96.33259999999999
 30
0.0
 70
    32
  0
VERTEX
  5
421
330
3AB
100
AcDbEntity
  8
0
100
AcDbVertex
100
AcDb3dPolylineVertex
 10
60.9878
 20
96.3897
 30
0.0
 70
    32
  0
VERTEX
  5
422
330
3AB
100
AcDbEntity
  8
0
100
AcDbVertex
100
AcDb3dPolylineVertex
 10
60.9972
 20
96.44680000000001
 30
0.0
 70
    32
  0
VERTEX
  5
423
330
3AB
100
AcDbEntity
  8
0
100
AcDbVertex
100
AcDb3dPolylineVertex
 10
61.0
 20
96.50400000000001
 30
0.0
 70
    32
  0
VERTEX
  5
424
330
3AB
100
AcDbEntity
  8
0
100
AcDbVertex
100
AcDb3dPolylineVertex
 10
60.9963
 20
96.56120000000001
 30
0.0
 70
    32
  0
VERTEX
  5
425
330
3AB
100
AcDbEntity
  8
0
100
AcDbVertex
100
AcDb3dPolylineVertex
 10
60.986
 20
96.61830000000001
 30
0.0
 70
    32
  0
VERTEX
  5
426
330
3AB
100
AcDbEntity
  8
0
100
AcDbVertex
100
AcDb3dPolylineVertex
 10
60.9692
 20
96.6754
 30
0.0
 70
    32
  0
VERTEX
  5
427
330
3AB
100
AcDbEntity
  8
0
100
AcDbVertex
100
AcDb3dPolylineVertex
 10
60.9459
 20
96.7323
 30
0.0
 70
    32
  0
VERTEX
  5
428
330
3AB
100
AcDbEntity
  8
0
100
AcDbVertex
100
AcDb3dPolylineVertex
 10
60.9161
 20
96.789
 30
0.0
 70
    32
  0
VERTEX
  5
429
330
3AB
100
AcDbEntity
  8
0
100
AcDbVertex
100
AcDb3dPolylineVertex
 10
60.8798
 20
96.8454
 30
0.0
 70
    32
  0
VERTEX
  5
42A
330
3AB
100
AcDbEntity
  8
0
100
AcDbVertex
100
AcDb3dPolylineVertex
 10
60.83709999999999
 20
96.9016
 30
0.0
 70
    32
  0
VERTEX
  5
42B
330
3AB
100
AcDbEntity
  8
0
100
AcDbVertex
100
AcDb3dPolylineVertex
 10
60.7879
 20
96.9575
 30
0.0
 70
    32
  0
VERTEX
  5
42C
330
3AB
100
AcDbEntity
  8
0
100
AcDbVertex
100
AcDb3dPolylineVertex
 10
60.7324
 20
97.0129
 30
0.0
 70
    32
  0
SEQEND
  5
42D
330
3AB
100
AcDbEntity
  8
0
  0
LINE
  5
42F
330
375
100
AcDbEntity
  8
0
100
AcDbLine
 10
57.0
 20
106.4999999999999
 30
0.0
 11
58.48596800000001
 21
97.95568199999999
 31
0.0
  0
LINE
  5
430
330
375
100
AcDbEntity
  8
0
100
AcDbLine
 10
49.0
 20
106.4999999999999
 30
0.0
 11
47.514032
 21
97.95568199999999
 31
0.0
  0
LINE
  5
437
330
375
100
AcDbEntity
  8
0
100
AcDbLine
 10
61.0
 20
77.5
 30
0.0
 11
61.0
 21
96.5
 31
0.0
  0
POLYLINE
  5
438
330
375
100
AcDbEntity
  8
0
100
AcDb3dPolyline
 66
     1
 10
0.0
 20
0.0
 30
0.0
 70
     8
  0
VERTEX
  5
439
330
438
100
AcDbEntity
  8
0
100
AcDbVertex
100
AcDb3dPolylineVertex
 10
45.0
 20
77.5
 30
0.0
 70
    32
  0
VERTEX
  5
43A
330
438
100
AcDbEntity
  8
0
100
AcDbVertex
100
AcDb3dPolylineVertex
 10
45.0024
 20
77.4543
 30
0.0
 70
    32
  0
VERTEX
  5
43B
330
438
100
AcDbEntity
  8
0
100
AcDbVertex
100
AcDb3dPolylineVertex
 10
45.0096
 20
77.4085
 30
0.0
 70
    32
  0
VERTEX
  5
43C
330
438
100
AcDbEntity
  8
0
100
AcDbVertex
100
AcDb3dPolylineVertex
 10
45.0217
 20
77.3629
 30
0.0
 70
    32
  0
VERTEX
  5
43D
330
438
100
AcDbEntity
  8
0
100
AcDbVertex
100
AcDb3dPolylineVertex
 10
45.03849999999999
 20
77.3173
 30
0.0
 70
    32
  0
VERTEX
  5
43E
330
438
100
AcDbEntity
  8
0
100
AcDbVertex
100
AcDb3dPolylineVertex
 10
45.0602
 20
77.2718
 30
0.0
 70
    32
  0
VERTEX
  5
43F
330
438
100
AcDbEntity
  8
0
100
AcDbVertex
100
AcDb3dPolylineVertex
 10
45.08659999999999
 20
77.2265
 30
0.0
 70
    32
  0
VERTEX
  5
440
330
438
100
AcDbEntity
  8
0
100
AcDbVertex
100
AcDb3dPolylineVertex
 10
45.1178
 20
77.18129999999999
 30
0.0
 70
    32
  0
VERTEX
  5
441
330
438
100
AcDbEntity
  8
0
100
AcDbVertex
100
AcDb3dPolylineVertex
 10
45.15369999999999
 20
77.13639999999999
 30
0.0
 70
    32
  0
VERTEX
  5
442
330
438
100
AcDbEntity
  8
0
100
AcDbVertex
100
AcDb3dPolylineVertex
 10
45.1944
 20
77.0916
 30
0.0
 70
    32
  0
VERTEX
  5
443
330
438
100
AcDbEntity
  8
0
100
AcDbVertex
100
AcDb3dPolylineVertex
 10
45.2397
 20
77.0471
 30
0.0
 70
    32
  0
VERTEX
  5
444
330
438
100
AcDbEntity
  8
0
100
AcDbVertex
100
AcDb3dPolylineVertex
 10
45.28979999999999
 20
77.00279999999999
 30
0.0
 70
    32
  0
VERTEX
  5
445
330
438
100
AcDbEntity
  8
0
100
AcDbVertex
100
AcDb3dPolylineVertex
 10
45.34449999999999
 20
76.9589
 30
0.0
 70
    32
  0
VERTEX
  5
446
330
438
100
AcDbEntity
  8
0
100
AcDbVertex
100
AcDb3dPolylineVertex
 10
45.40379999999999
 20
76.9153
 30
0.0
 70
    32
  0
VERTEX
  5
447
330
438
100
AcDbEntity
  8
0
100
AcDbVertex
100
AcDb3dPolylineVertex
 10
45.46759999999999
 20
76.872
 30
0.0
 70
    32
  0
VERTEX
  5
448
330
438
100
AcDbEntity
  8
0
100
AcDbVertex
100
AcDb3dPolylineVertex
 10
45.53609999999999
 20
76.8292
 30
0.0
 70
    32
  0
VERTEX
  5
449
330
438
100
AcDbEntity
  8
0
100
AcDbVertex
100
AcDb3dPolylineVertex
 10
45.609
 20
76.7867
 30
0.0
 70
    32
  0
VERTEX
  5
44A
330
438
100
AcDbEntity
  8
0
100
AcDbVertex
100
AcDb3dPolylineVertex
 10
45.6863
 20
76.7446
 30
0.0
 70
    32
  0
VERTEX
  5
44B
330
438
100
AcDbEntity
  8
0
100
AcDbVertex
100
AcDb3dPolylineVertex
 10
45.7681
 20
76.70300000000001
 30
0.0
 70
    32
  0
VERTEX
  5
44C
330
438
100
AcDbEntity
  8
0
100
AcDbVertex
100
AcDb3dPolylineVertex
 10
45.8542
 20
76.6619
 30
0.0
 70
    32
  0
VERTEX
  5
44D
330
438
100
AcDbEntity
  8
0
100
AcDbVertex
100
AcDb3dPolylineVertex
 10
45.9446
 20
76.62130000000001
 30
0.0
 70
    32
  0
VERTEX
  5
44E
330
438
100
AcDbEntity
  8
0
100
AcDbVertex
100
AcDb3dPolylineVertex
 10
46.0393
 20
76.5812
 30
0.0
 70
    32
  0
VERTEX
  5
44F
330
438
100
AcDbEntity
  8
0
100
AcDbVertex
100
AcDb3dPolylineVertex
 10
46.13819999999999
 20
76.5417
 30
0.0
 70
    32
  0
VERTEX
  5
450
330
438
100
AcDbEntity
  8
0
100
AcDbVertex
100
AcDb3dPolylineVertex
 10
46.2412
 20
76.50279999999999
 30
0.0
 70
    32
  0
VERTEX
  5
451
330
438
100
AcDbEntity
  8
0
100
AcDbVertex
100
AcDb3dPolylineVertex
 10
46.3482
 20
76.4644
 30
0.0
 70
    32
  0
VERTEX
  5
452
330
438
100
AcDbEntity
  8
0
100
AcDbVertex
100
AcDb3dPolylineVertex
 10
46.45929999999999
 20
76.42669999999999
 30
0.0
 70
    32
  0
VERTEX
  5
453
330
438
100
AcDbEntity
  8
0
100
AcDbVertex
100
AcDb3dPolylineVertex
 10
46.5743
 20
76.3896
 30
0.0
 70
    32
  0
VERTEX
  5
454
330
438
100
AcDbEntity
  8
0
100
AcDbVertex
100
AcDb3dPolylineVertex
 10
46.69319999999999
 20
76.3532
 30
0.0
 70
    32
  0
VERTEX
  5
455
330
438
100
AcDbEntity
  8
0
100
AcDbVertex
100
AcDb3dPolylineVertex
 10
46.81589999999999
 20
76.3175
 30
0.0
 70
    32
  0
VERTEX
  5
456
330
438
100
AcDbEntity
  8
0
100
AcDbVertex
100
AcDb3dPolylineVertex
 10
46.9423
 20
76.2825
 30
0.0
 70
    32
  0
VERTEX
  5
457
330
438
100
AcDbEntity
  8
0
100
AcDbVertex
100
AcDb3dPolylineVertex
 10
47.0724
 20
76.24819999999999
 30
0.0
 70
    32
  0
VERTEX
  5
458
330
438
100
AcDbEntity
  8
0
100
AcDbVertex
100
AcDb3dPolylineVertex
 10
47.206
 20
76.21469999999999
 30
0.0
 70
    32
  0
VERTEX
  5
459
330
438
100
AcDbEntity
  8
0
100
AcDbVertex
100
AcDb3dPolylineVertex
 10
47.34309999999999
 20
76.182
 30
0.0
 70
    32
  0
VERTEX
  5
45A
330
438
100
AcDbEntity
  8
0
100
AcDbVertex
100
AcDb3dPolylineVertex
 10
47.4837
 20
76.15000000000001
 30
0.0
 70
    32
  0
VERTEX
  5
45B
330
438
100
AcDbEntity
  8
0
100
AcDbVertex
100
AcDb3dPolylineVertex
 10
47.62749999999999
 20
76.11889999999999
 30
0.0
 70
    32
  0
VERTEX
  5
45C
330
438
100
AcDbEntity
  8
0
100
AcDbVertex
100
AcDb3dPolylineVertex
 10
47.7746
 20
76.08859999999999
 30
0.0
 70
    32
  0
VERTEX
  5
45D
330
438
100
AcDbEntity
  8
0
100
AcDbVertex
100
AcDb3dPolylineVertex
 10
47.92489999999999
 20
76.0591
 30
0.0
 70
    32
  0
VERTEX
  5
45E
330
438
100
AcDbEntity
  8
0
100
AcDbVertex
100
AcDb3dPolylineVertex
 10
48.07809999999999
 20
76.0305
 30
0.0
 70
    32
  0
VERTEX
  5
45F
330
438
100
AcDbEntity
  8
0
100
AcDbVertex
100
AcDb3dPolylineVertex
 10
48.2344
 20
76.00279999999999
 30
0.0
 70
    32
  0
VERTEX
  5
460
330
438
100
AcDbEntity
  8
0
100
AcDbVertex
100
AcDb3dPolylineVertex
 10
48.3935
 20
75.97599999999999
 30
0.0
 70
    32
  0
VERTEX
  5
461
330
438
100
AcDbEntity
  8
0
100
AcDbVertex
100
AcDb3dPolylineVertex
 10
48.5554
 20
75.95010000000001
 30
0.0
 70
    32
  0
VERTEX
  5
462
330
438
100
AcDbEntity
  8
0
100
AcDbVertex
100
AcDb3dPolylineVertex
 10
48.71999999999999
 20
75.9252
 30
0.0
 70
    32
  0
VERTEX
  5
463
330
438
100
AcDbEntity
  8
0
100
AcDbVertex
100
AcDb3dPolylineVertex
 10
48.8872
 20
75.9012
 30
0.0
 70
    32
  0
VERTEX
  5
464
330
438
100
AcDbEntity
  8
0
100
AcDbVertex
100
AcDb3dPolylineVertex
 10
49.0568
 20
75.8782
 30
0.0
 70
    32
  0
VERTEX
  5
465
330
438
100
AcDbEntity
  8
0
100
AcDbVertex
100
AcDb3dPolylineVertex
 10
49.2288
 20
75.85609999999999
 30
0.0
 70
    32
  0
VERTEX
  5
466
330
438
100
AcDbEntity
  8
0
100
AcDbVertex
100
AcDb3dPolylineVertex
 10
49.4031
 20
75.83499999999999
 30
0.0
 70
    32
  0
VERTEX
  5
467
330
438
100
AcDbEntity
  8
0
100
AcDbVertex
100
AcDb3dPolylineVertex
 10
49.57959999999999
 20
75.815
 30
0.0
 70
    32
  0
VERTEX
  5
468
330
438
100
AcDbEntity
  8
0
100
AcDbVertex
100
AcDb3dPolylineVertex
 10
49.7581
 20
75.7959
 30
0.0
 70
    32
  0
VERTEX
  5
469
330
438
100
AcDbEntity
  8
0
100
AcDbVertex
100
AcDb3dPolylineVertex
 10
49.9385
 20
75.7779
 30
0.0
 70
    32
  0
VERTEX
  5
46A
330
438
100
AcDbEntity
  8
0
100
AcDbVertex
100
AcDb3dPolylineVertex
 10
50.1208
 20
75.7609
 30
0.0
 70
    32
  0
VERTEX
  5
46B
330
438
100
AcDbEntity
  8
0
100
AcDbVertex
100
AcDb3dPolylineVertex
 10
50.3049
 20
75.745
 30
0.0
 70
    32
  0
VERTEX
  5
46C
330
438
100
AcDbEntity
  8
0
100
AcDbVertex
100
AcDb3dPolylineVertex
 10
50.4905
 20
75.7301
 30
0.0
 70
    32
  0
VERTEX
  5
46D
330
438
100
AcDbEntity
  8
0
100
AcDbVertex
100
AcDb3dPolylineVertex
 10
50.6777
 20
75.7163
 30
0.0
 70
    32
  0
VERTEX
  5
46E
330
438
100
AcDbEntity
  8
0
100
AcDbVertex
100
AcDb3dPolylineVertex
 10
50.8663
 20
75.70350000000001
 30
0.0
 70
    32
  0
VERTEX
  5
46F
330
438
100
AcDbEntity
  8
0
100
AcDbVertex
100
AcDb3dPolylineVertex
 10
51.0562
 20
75.6919
 30
0.0
 70
    32
  0
VERTEX
  5
470
330
438
100
AcDbEntity
  8
0
100
AcDbVertex
100
AcDb3dPolylineVertex
 10
51.24719999999999
 20
75.6813
 30
0.0
 70
    32
  0
VERTEX
  5
471
330
438
100
AcDbEntity
  8
0
100
AcDbVertex
100
AcDb3dPolylineVertex
 10
51.43930000000001
 20
75.6718
 30
0.0
 70
    32
  0
VERTEX
  5
472
330
438
100
AcDbEntity
  8
0
100
AcDbVertex
100
AcDb3dPolylineVertex
 10
51.6323
 20
75.6634
 30
0.0
 70
    32
  0
VERTEX
  5
473
330
438
100
AcDbEntity
  8
0
100
AcDbVertex
100
AcDb3dPolylineVertex
 10
51.8262
 20
75.6562
 30
0.0
 70
    32
  0
VERTEX
  5
474
330
438
100
AcDbEntity
  8
0
100
AcDbVertex
100
AcDb3dPolylineVertex
 10
52.02069999999999
 20
75.65000000000001
 30
0.0
 70
    32
  0
VERTEX
  5
475
330
438
100
AcDbEntity
  8
0
100
AcDbVertex
100
AcDb3dPolylineVertex
 10
52.21589999999999
 20
75.64499999999999
 30
0.0
 70
    32
  0
VERTEX
  5
476
330
438
100
AcDbEntity
  8
0
100
AcDbVertex
100
AcDb3dPolylineVertex
 10
52.4115
 20
75.64109999999999
 30
0.0
 70
    32
  0
VERTEX
  5
477
330
438
100
AcDbEntity
  8
0
100
AcDbVertex
100
AcDb3dPolylineVertex
 10
52.6075
 20
75.63819999999999
 30
0.0
 70
    32
  0
VERTEX
  5
478
330
438
100
AcDbEntity
  8
0
100
AcDbVertex
100
AcDb3dPolylineVertex
 10
52.8037
 20
75.6366
 30
0.0
 70
    32
  0
VERTEX
  5
479
330
438
100
AcDbEntity
  8
0
100
AcDbVertex
100
AcDb3dPolylineVertex
 10
53.0
 20
75.636
 30
0.0
 70
    32
  0
VERTEX
  5
47A
330
438
100
AcDbEntity
  8
0
100
AcDbVertex
100
AcDb3dPolylineVertex
 10
53.1963
 20
75.6366
 30
0.0
 70
    32
  0
VERTEX
  5
47B
330
438
100
AcDbEntity
  8
0
100
AcDbVertex
100
AcDb3dPolylineVertex
 10
53.39249999999999
 20
75.63819999999999
 30
0.0
 70
    32
  0
VERTEX
  5
47C
330
438
100
AcDbEntity
  8
0
100
AcDbVertex
100
AcDb3dPolylineVertex
 10
53.5885
 20
75.64109999999999
 30
0.0
 70
    32
  0
VERTEX
  5
47D
330
438
100
AcDbEntity
  8
0
100
AcDbVertex
100
AcDb3dPolylineVertex
 10
53.7841
 20
75.64499999999999
 30
0.0
 70
    32
  0
VERTEX
  5
47E
330
438
100
AcDbEntity
  8
0
100
AcDbVertex
100
AcDb3dPolylineVertex
 10
53.9793
 20
75.65000000000001
 30
0.0
 70
    32
  0
VERTEX
  5
47F
330
438
100
AcDbEntity
  8
0
100
AcDbVertex
100
AcDb3dPolylineVertex
 10
54.1738
 20
75.6562
 30
0.0
 70
    32
  0
VERTEX
  5
480
330
438
100
AcDbEntity
  8
0
100
AcDbVertex
100
AcDb3dPolylineVertex
 10
54.3677
 20
75.6634
 30
0.0
 70
    32
  0
VERTEX
  5
481
330
438
100
AcDbEntity
  8
0
100
AcDbVertex
100
AcDb3dPolylineVertex
 10
54.5607
 20
75.6718
 30
0.0
 70
    32
  0
VERTEX
  5
482
330
438
100
AcDbEntity
  8
0
100
AcDbVertex
100
AcDb3dPolylineVertex
 10
54.7528
 20
75.6813
 30
0.0
 70
    32
  0
VERTEX
  5
483
330
438
100
AcDbEntity
  8
0
100
AcDbVertex
100
AcDb3dPolylineVertex
 10
54.9438
 20
75.6919
 30
0.0
 70
    32
  0
VERTEX
  5
484
330
438
100
AcDbEntity
  8
0
100
AcDbVertex
100
AcDb3dPolylineVertex
 10
55.1337
 20
75.70350000000001
 30
0.0
 70
    32
  0
VERTEX
  5
485
330
438
100
AcDbEntity
  8
0
100
AcDbVertex
100
AcDb3dPolylineVertex
 10
55.3223
 20
75.7163
 30
0.0
 70
    32
  0
VERTEX
  5
486
330
438
100
AcDbEntity
  8
0
100
AcDbVertex
100
AcDb3dPolylineVertex
 10
55.5095
 20
75.7301
 30
0.0
 70
    32
  0
VERTEX
  5
487
330
438
100
AcDbEntity
  8
0
100
AcDbVertex
100
AcDb3dPolylineVertex
 10
55.6951
 20
75.745
 30
0.0
 70
    32
  0
VERTEX
  5
488
330
438
100
AcDbEntity
  8
0
100
AcDbVertex
100
AcDb3dPolylineVertex
 10
55.8792
 20
75.7609
 30
0.0
 70
    32
  0
VERTEX
  5
489
330
438
100
AcDbEntity
  8
0
100
AcDbVertex
100
AcDb3dPolylineVertex
 10
56.0615
 20
75.7779
 30
0.0
 70
    32
  0
VERTEX
  5
48A
330
438
100
AcDbEntity
  8
0
100
AcDbVertex
100
AcDb3dPolylineVertex
 10
56.2419
 20
75.7959
 30
0.0
 70
    32
  0
VERTEX
  5
48B
330
438
100
AcDbEntity
  8
0
100
AcDbVertex
100
AcDb3dPolylineVertex
 10
56.4204
 20
75.815
 30
0.0
 70
    32
  0
VERTEX
  5
48C
330
438
100
AcDbEntity
  8
0
100
AcDbVertex
100
AcDb3dPolylineVertex
 10
56.5969
 20
75.83499999999999
 30
0.0
 70
    32
  0
VERTEX
  5
48D
330
438
100
AcDbEntity
  8
0
100
AcDbVertex
100
AcDb3dPolylineVertex
 10
56.7712
 20
75.85609999999999
 30
0.0
 70
    32
  0
VERTEX
  5
48E
330
438
100
AcDbEntity
  8
0
100
AcDbVertex
100
AcDb3dPolylineVertex
 10
56.9432
 20
75.8782
 30
0.0
 70
    32
  0
VERTEX
  5
48F
330
438
100
AcDbEntity
  8
0
100
AcDbVertex
100
AcDb3dPolylineVertex
 10
57.1128
 20
75.9012
 30
0.0
 70
    32
  0
VERTEX
  5
490
330
438
100
AcDbEntity
  8
0
100
AcDbVertex
100
AcDb3dPolylineVertex
 10
57.28
 20
75.9252
 30
0.0
 70
    32
  0
VERTEX
  5
491
330
438
100
AcDbEntity
  8
0
100
AcDbVertex
100
AcDb3dPolylineVertex
 10
57.4446
 20
75.95010000000001
 30
0.0
 70
    32
  0
VERTEX
  5
492
330
438
100
AcDbEntity
  8
0
100
AcDbVertex
100
AcDb3dPolylineVertex
 10
57.6065
 20
75.97599999999999
 30
0.0
 70
    32
  0
VERTEX
  5
493
330
438
100
AcDbEntity
  8
0
100
AcDbVertex
100
AcDb3dPolylineVertex
 10
57.76559999999999
 20
76.00279999999999
 30
0.0
 70
    32
  0
VERTEX
  5
494
330
438
100
AcDbEntity
  8
0
100
AcDbVertex
100
AcDb3dPolylineVertex
 10
57.9219
 20
76.0305
 30
0.0
 70
    32
  0
VERTEX
  5
495
330
438
100
AcDbEntity
  8
0
100
AcDbVertex
100
AcDb3dPolylineVertex
 10
58.0751
 20
76.0591
 30
0.0
 70
    32
  0
VERTEX
  5
496
330
438
100
AcDbEntity
  8
0
100
AcDbVertex
100
AcDb3dPolylineVertex
 10
58.2254
 20
76.08859999999999
 30
0.0
 70
    32
  0
VERTEX
  5
497
330
438
100
AcDbEntity
  8
0
100
AcDbVertex
100
AcDb3dPolylineVertex
 10
58.3725
 20
76.11889999999999
 30
0.0
 70
    32
  0
VERTEX
  5
498
330
438
100
AcDbEntity
  8
0
100
AcDbVertex
100
AcDb3dPolylineVertex
 10
58.5163
 20
76.15000000000001
 30
0.0
 70
    32
  0
VERTEX
  5
499
330
438
100
AcDbEntity
  8
0
100
AcDbVertex
100
AcDb3dPolylineVertex
 10
58.6569
 20
76.182
 30
0.0
 70
    32
  0
VERTEX
  5
49A
330
438
100
AcDbEntity
  8
0
100
AcDbVertex
100
AcDb3dPolylineVertex
 10
58.794
 20
76.21469999999999
 30
0.0
 70
    32
  0
VERTEX
  5
49B
330
438
100
AcDbEntity
  8
0
100
AcDbVertex
100
AcDb3dPolylineVertex
 10
58.92759999999999
 20
76.24819999999999
 30
0.0
 70
    32
  0
VERTEX
  5
49C
330
438
100
AcDbEntity
  8
0
100
AcDbVertex
100
AcDb3dPolylineVertex
 10
59.0577
 20
76.2825
 30
0.0
 70
    32
  0
VERTEX
  5
49D
330
438
100
AcDbEntity
  8
0
100
AcDbVertex
100
AcDb3dPolylineVertex
 10
59.1841
 20
76.3175
 30
0.0
 70
    32
  0
VERTEX
  5
49E
330
438
100
AcDbEntity
  8
0
100
AcDbVertex
100
AcDb3dPolylineVertex
 10
59.3068
 20
76.3532
 30
0.0
 70
    32
  0
VERTEX
  5
49F
330
438
100
AcDbEntity
  8
0
100
AcDbVertex
100
AcDb3dPolylineVertex
 10
59.42569999999999
 20
76.3896
 30
0.0
 70
    32
  0
VERTEX
  5
4A0
330
438
100
AcDbEntity
  8
0
100
AcDbVertex
100
AcDb3dPolylineVertex
 10
59.5407
 20
76.42669999999999
 30
0.0
 70
    32
  0
VERTEX
  5
4A1
330
438
100
AcDbEntity
  8
0
100
AcDbVertex
100
AcDb3dPolylineVertex
 10
59.6518
 20
76.4644
 30
0.0
 70
    32
  0
VERTEX
  5
4A2
330
438
100
AcDbEntity
  8
0
100
AcDbVertex
100
AcDb3dPolylineVertex
 10
59.7588
 20
76.50279999999999
 30
0.0
 70
    32
  0
VERTEX
  5
4A3
330
438
100
AcDbEntity
  8
0
100
AcDbVertex
100
AcDb3dPolylineVertex
 10
59.8618
 20
76.5417
 30
0.0
 70
    32
  0
VERTEX
  5
4A4
330
438
100
AcDbEntity
  8
0
100
AcDbVertex
100
AcDb3dPolylineVertex
 10
59.9607
 20
76.5812
 30
0.0
 70
    32
  0
VERTEX
  5
4A5
330
438
100
AcDbEntity
  8
0
100
AcDbVertex
100
AcDb3dPolylineVertex
 10
60.05539999999999
 20
76.62130000000001
 30
0.0
 70
    32
  0
VERTEX
  5
4A6
330
438
100
AcDbEntity
  8
0
100
AcDbVertex
100
AcDb3dPolylineVertex
 10
60.1458
 20
76.6619
 30
0.0
 70
    32
  0
VERTEX
  5
4A7
330
438
100
AcDbEntity
  8
0
100
AcDbVertex
100
AcDb3dPolylineVertex
 10
60.2319
 20
76.70300000000001
 30
0.0
 70
    32
  0
VERTEX
  5
4A8
330
438
100
AcDbEntity
  8
0
100
AcDbVertex
100
AcDb3dPolylineVertex
 10
60.31369999999999
 20
76.7446
 30
0.0
 70
    32
  0
VERTEX
  5
4A9
330
438
100
AcDbEntity
  8
0
100
AcDbVertex
100
AcDb3dPolylineVertex
 10
60.391
 20
76.7867
 30
0.0
 70
    32
  0
VERTEX
  5
4AA
330
438
100
AcDbEntity
  8
0
100
AcDbVertex
100
AcDb3dPolylineVertex
 10
60.4639
 20
76.8292
 30
0.0
 70
    32
  0
VERTEX
  5
4AB
330
438
100
AcDbEntity
  8
0
100
AcDbVertex
100
AcDb3dPolylineVertex
 10
60.5324
 20
76.872
 30
0.0
 70
    32
  0
VERTEX
  5
4AC
330
438
100
AcDbEntity
  8
0
100
AcDbVertex
100
AcDb3dPolylineVertex
 10
60.5962
 20
76.9153
 30
0.0
 70
    32
  0
VERTEX
  5
4AD
330
438
100
AcDbEntity
  8
0
100
AcDbVertex
100
AcDb3dPolylineVertex
 10
60.6555
 20
76.9589
 30
0.0
 70
    32
  0
VERTEX
  5
4AE
330
438
100
AcDbEntity
  8
0
100
AcDbVertex
100
AcDb3dPolylineVertex
 10
60.7102
 20
77.00279999999999
 30
0.0
 70
    32
  0
VERTEX
  5
4AF
330
438
100
AcDbEntity
  8
0
100
AcDbVertex
100
AcDb3dPolylineVertex
 10
60.7603
 20
77.0471
 30
0.0
 70
    32
  0
VERTEX
  5
4B0
330
438
100
AcDbEntity
  8
0
100
AcDbVertex
100
AcDb3dPolylineVertex
 10
60.8056
 20
77.0916
 30
0.0
 70
    32
  0
VERTEX
  5
4B1
330
438
100
AcDbEntity
  8
0
100
AcDbVertex
100
AcDb3dPolylineVertex
 10
60.8463
 20
77.13639999999999
 30
0.0
 70
    32
  0
VERTEX
  5
4B2
330
438
100
AcDbEntity
  8
0
100
AcDbVertex
100
AcDb3dPolylineVertex
 10
60.88219999999999
 20
77.18129999999999
 30
0.0
 70
    32
  0
VERTEX
  5
4B3
330
438
100
AcDbEntity
  8
0
100
AcDbVertex
100
AcDb3dPolylineVertex
 10
60.9134
 20
77.2265
 30
0.0
 70
    32
  0
VERTEX
  5
4B4
330
438
100
AcDbEntity
  8
0
100
AcDbVertex
100
AcDb3dPolylineVertex
 10
60.9398
 20
77.2718
 30
0.0
 70
    32
  0
VERTEX
  5
4B5
330
438
100
AcDbEntity
  8
0
100
AcDbVertex
100
AcDb3dPolylineVertex
 10
60.9615
 20
77.3173
 30
0.0
 70
    32
  0
VERTEX
  5
4B6
330
438
100
AcDbEntity
  8
0
100
AcDbVertex
100
AcDb3dPolylineVertex
 10
60.9783
 20
77.3629
 30
0.0
 70
    32
  0
VERTEX
  5
4B7
330
438
100
AcDbEntity
  8
0
100
AcDbVertex
100
AcDb3dPolylineVertex
 10
60.9904
 20
77.4085
 30
0.0
 70
    32
  0
VERTEX
  5
4B8
330
438
100
AcDbEntity
  8
0
100
AcDbVertex
100
AcDb3dPolylineVertex
 10
60.99759999999999
 20
77.4543
 30
0.0
 70
    32
  0
VERTEX
  5
4B9
330
438
100
AcDbEntity
  8
0
100
AcDbVertex
100
AcDb3dPolylineVertex
 10
61.0
 20
77.5
 30
0.0
 70
    32
  0
SEQEND
  5
4BA
330
438
100
AcDbEntity
  8
0
  0
LINE
  5
4BB
330
375
100
AcDbEntity
  8
0
100
AcDbLine
 10
59.0
 20
68.0
 30
0.0
 11
59.0
 21
76.267081
 31
0.0
  0
LINE
  5
4BC
330
375
100
AcDbEntity
  8
0
100
AcDbLine
 10
53.0
 20
68.0
 30
0.0
 11
59.0
 21
68.0
 31
0.0
  0
LINE
  5
4BD
330
375
100
AcDbEntity
  8
0
100
AcDbLine
 10
50.0
 20
68.0
 30
0.0
 11
50.0
 21
48.5
 31
0.0
  0
LINE
  5
4BE
330
375
100
AcDbEntity
  8
0
100
AcDbLine
 10
50.0
 20
48.5
 30
0.0
 11
50.5
 21
48.0
 31
0.0
  0
LINE
  5
4BF
330
375
100
AcDbEntity
  8
0
100
AcDbLine
 10
50.5
 20
48.0
 30
0.0
 11
53.0
 21
48.0
 31
0.0
  0
LINE
  5
4C0
330
375
100
AcDbEntity
  8
0
100
AcDbLine
 10
50.5
 20
48.0
 30
0.0
 11
50.5
 21
67.0
 31
0.0
  0
LINE
  5
4C1
330
375
100
AcDbEntity
  8
0
100
AcDbLine
 10
50.0
 20
67.0
 30
0.0
 11
53.0
 21
67.0
 31
0.0
  0
LINE
  5
4C2
330
375
100
AcDbEntity
  8
0
100
AcDbLine
 10
50.0
 20
48.5
 30
0.0
 11
53.0
 21
48.5
 31
0.0
  0
LINE
  5
4C3
330
375
100
AcDbEntity
  8
1
100
AcDbLine
 10
107.0
 20
102.0
 30
0.0
 11
107.0
 21
44.5
 31
0.0
  0
LINE
  5
4C4
330
375
100
AcDbEntity
  8
0
100
AcDbLine
 10
107.0
 20
68.0
 30
0.0
 11
101.0
 21
68.0
 31
0.0
  0
LINE
  5
4C5
330
375
100
AcDbEntity
  8
0
100
AcDbLine
 10
107.0
 20
68.0
 30
0.0
 11
113.0
 21
68.0
 31
0.0
  0
LINE
  5
4C6
330
375
100
AcDbEntity
  8
0
100
AcDbLine
 10
101.0
 20
68.0
 30
0.0
 11
101.0
 21
76.2375
 31
0.0
  0
LINE
  5
4C7
330
375
100
AcDbEntity
  8
0
100
AcDbLine
 10
113.0
 20
68.0
 30
0.0
 11
113.0
 21
79.4625
 31
0.0
  0
LINE
  5
4C8
330
375
100
AcDbEntity
  8
0
100
AcDbLine
 10
99.0
 20
93.73419100000001
 30
0.0
 11
99.0
 21
77.004234
 31
0.0
  0
LINE
  5
4C9
330
375
100
AcDbEntity
  8
0
100
AcDbLine
 10
114.2595409999999
 20
79.80100199999999
 30
0.0
 11
100.259541
 21
76.03850200000001
 31
0.0
  0
LINE
  5
4CA
330
375
100
AcDbEntity
  8
0
100
AcDbLine
 10
115.0
 20
80.766734
 30
0.0
 11
115.0
 21
89.595745
 31
0.0
  0
LINE
  5
4CB
330
375
100
AcDbEntity
  8
0
100
AcDbLine
 10
99.73933399999999
 20
94.69962
 30
0.0
 11
147.739334
 21
107.65962
 31
0.0
  0
LINE
  5
4CC
330
375
100
AcDbEntity
  8
0
100
AcDbLine
 10
103.0
 20
91.08
 30
0.0
 11
103.0
 21
94.0
 31
0.0
  0
LINE
  5
4CD
330
375
100
AcDbEntity
  8
0
100
AcDbLine
 10
103.4999999999999
 20
94.50000000000001
 30
0.0
 11
110.4999999999999
 21
94.50000000000001
 31
0.0
  0
LINE
  5
4CE
330
375
100
AcDbEntity
  8
0
100
AcDbLine
 10
111.0
 20
94.0
 30
0.0
 11
111.0
 21
93.23999999999999
 31
0.0
  0
ARC
  5
4CF
330
375
100
AcDbEntity
  8
0
100
AcDbCircle
 10
103.4999999999999
 20
94.0
 30
0.0
 40
0.5
100
AcDbArc
 50
90.0
 51
180.0
  0
ARC
  5
4D0
330
375
100
AcDbEntity
  8
0
100
AcDbCircle
 10
110.4999999999999
 20
94.0
 30
0.0
 40
0.5
100
AcDbArc
 50
0.0
 51
90.0
  0
LINE
  5
4D1
330
375
100
AcDbEntity
  8
0
100
AcDbLine
 10
149.0
 20
106.694191
 30
0.0
 11
149.0
 21
98.77259699999999
 31
0.0
  0
LINE
  5
4D2
330
375
100
AcDbEntity
  8
0
100
AcDbLine
 10
148.2524219999999
 20
97.80498000000001
 30
0.0
 11
138.054394
 21
95.14462399999999
 31
0.0
  0
LINE
  5
4D3
330
375
100
AcDbEntity
  8
0
100
AcDbLine
 10
137.094865
 20
95.40513500000001
 30
0.0
 11
136.4999999999999
 21
96.0
 31
0.0
  0
LINE
  5
4D4
330
375
100
AcDbEntity
  8
0
100
AcDbLine
 10
136.4999999999999
 20
96.0
 30
0.0
 11
113.0
 21
89.0
 31
0.0
  0
LINE
  5
4D5
330
375
100
AcDbEntity
  8
0
100
AcDbLine
 10
113.0
 20
89.0
 30
0.0
 11
113.0
 21
98.28000000000001
 31
0.0
  0
ARC
  5
4D6
330
375
100
AcDbEntity
  8
0
100
AcDbCircle
 10
148.0
 20
106.694191
 30
0.0
 40
1.0
100
AcDbArc
 50
0.0
 51
105.1095749999999
  0
ARC
  5
4D7
330
375
100
AcDbEntity
  8
0
100
AcDbCircle
 10
148.0
 20
98.77259699999999
 30
0.0
 40
1.0
100
AcDbArc
 50
284.620874
 51
0.0
  0
ARC
  5
4D8
330
375
100
AcDbEntity
  8
0
100
AcDbCircle
 10
137.801972
 20
96.11224200000002
 30
0.0
 40
1.0
100
AcDbArc
 50
225.0
 51
284.620874
  0
ARC
  5
4D9
330
375
100
AcDbEntity
  8
0
100
AcDbCircle
 10
100.0
 20
93.73419100000001
 30
0.0
 40
1.0
100
AcDbArc
 50
105.1095749999999
 51
180.0
  0
ARC
  5
4DA
330
375
100
AcDbEntity
  8
0
100
AcDbCircle
 10
100.0
 20
77.004234
 30
0.0
 40
1.0
100
AcDbArc
 50
180.0
 51
285.0428009999999
  0
ARC
  5
4DB
330
375
100
AcDbEntity
  8
0
100
AcDbCircle
 10
114.0
 20
80.766734
 30
0.0
 40
1.0
100
AcDbArc
 50
285.0428009999999
 51
0.0
  0
LINE
  5
4DC
330
375
100
AcDbEntity
  8
0
100
AcDbLine
 10
56.0
 20
68.0
 30
0.0
 11
56.0
 21
48.5
 31
0.0
  0
LINE
  5
4DD
330
375
100
AcDbEntity
  8
0
100
AcDbLine
 10
55.5
 20
48.0
 30
0.0
 11
55.5
 21
67.0
 31
0.0
  0
LINE
  5
4DE
330
375
100
AcDbEntity
  8
0
100
AcDbLine
 10
55.5
 20
48.0
 30
0.0
 11
53.0
 21
48.0
 31
0.0
  0
LINE
  5
4DF
330
375
100
AcDbEntity
  8
0
100
AcDbLine
 10
56.0
 20
48.5
 30
0.0
 11
53.0
 21
48.5
 31
0.0
  0
LINE
  5
4E0
330
375
100
AcDbEntity
  8
0
100
AcDbLine
 10
56.0
 20
48.5
 30
0.0
 11
55.5
 21
48.0
 31
0.0
  0
LINE
  5
4E1
330
375
100
AcDbEntity
  8
0
100
AcDbLine
 10
56.0
 20
67.0
 30
0.0
 11
53.0
 21
67.0
 31
0.0
  0
LINE
  5
4E2
330
375
100
AcDbEntity
  8
0
100
AcDbLine
 10
110.0
 20
67.0
 30
0.0
 11
107.0
 21
67.0
 31
0.0
  0
LINE
  5
4E3
330
375
100
AcDbEntity
  8
0
100
AcDbLine
 10
110.0
 20
48.5
 30
0.0
 11
107.0
 21
48.5
 31
0.0
  0
LINE
  5
4E4
330
375
100
AcDbEntity
  8
0
100
AcDbLine
 10
109.4999999999999
 20
48.0
 30
0.0
 11
107.0
 21
48.0
 31
0.0
  0
LINE
  5
4E5
330
375
100
AcDbEntity
  8
0
100
AcDbLine
 10
104.0
 20
68.0
 30
0.0
 11
104.0
 21
48.5
 31
0.0
  0
LINE
  5
4E6
330
375
100
AcDbEntity
  8
0
100
AcDbLine
 10
104.4999999999999
 20
48.0
 30
0.0
 11
104.4999999999999
 21
67.0
 31
0.0
  0
LINE
  5
4E7
330
375
100
AcDbEntity
  8
0
100
AcDbLine
 10
104.4999999999999
 20
48.0
 30
0.0
 11
107.0
 21
48.0
 31
0.0
  0
LINE
  5
4E8
330
375
100
AcDbEntity
  8
0
100
AcDbLine
 10
104.0
 20
48.5
 30
0.0
 11
107.0
 21
48.5
 31
0.0
  0
LINE
  5
4E9
330
375
100
AcDbEntity
  8
0
100
AcDbLine
 10
104.0
 20
48.5
 30
0.0
 11
104.4999999999999
 21
48.0
 31
0.0
  0
LINE
  5
4EA
330
375
100
AcDbEntity
  8
0
100
AcDbLine
 10
104.0
 20
67.0
 30
0.0
 11
107.0
 21
67.0
 31
0.0
  0
LINE
  5
4EB
330
375
100
AcDbEntity
  8
0
100
AcDbLine
 10
109.4999999999999
 20
48.0
 30
0.0
 11
109.4999999999999
 21
67.0
 31
0.0
  0
LINE
  5
4EC
330
375
100
AcDbEntity
  8
0
100
AcDbLine
 10
110.0
 20
68.0
 30
0.0
 11
110.0
 21
48.5
 31
0.0
  0
LINE
  5
4ED
330
375
100
AcDbEntity
  8
0
100
AcDbLine
 10
110.0
 20
48.5
 30
0.0
 11
109.4999999999999
 21
48.0
 31
0.0
  0
ELLIPSE
  5
5FC
330
375
100
AcDbEntity
  8
0
100
AcDbEllipse
 10
53.0
 20
96.50000000447832
 30
0.0
 11
-4.000000008396831
 21
0.0
 31
0.0
210
0.0
220
0.0
230
1.0
 40
0.2500000005947753
 41
0.0
 42
6.283185307179586
  0
ENDSEC
  0
SECTION
  2
OBJECTS
  0
DICTIONARY
  5
363
330
0
100
AcDbDictionary
281
     1
  3
ACAD_GROUP
350
364
  3
ACAD_LAYOUT
350
370
  3
ACAD_MLINESTYLE
350
36D
  3
ACAD_PLOTSETTINGS
350
36F
  3
ACAD_PLOTSTYLENAME
350
365
  3
AcDbVariableDictionary
350
5F2
  3
AcmDictionary
350
5A9
  3
AMG
350
4EF
  3
AMGSNAPSETTINGS
350
5F5
  3
DWGPROPS
350
5AC
  3
MAPISURF_MODULE
350
57B
  0
DICTIONARY
  5
5E7
330
375
100
AcDbDictionary
280
     1
281
     1
  3
ACAD_INDEX
360
5E8
  0
DICTIONARY
  5
364
102
{ACAD_REACTORS
330
363
102
}
330
363
100
AcDbDictionary
281
     1
  0
DICTIONARY
  5
370
102
{ACAD_REACTORS
330
363
102
}
330
363
100
AcDbDictionary
281
     1
  3
Model
350
378
  3
ﾚｲｱｳﾄ1
350
374
  0
DICTIONARY
  5
36D
102
{ACAD_REACTORS
330
363
102
}
330
363
100
AcDbDictionary
281
     1
  3
Standard
350
36E
  0
DICTIONARY
  5
36F
102
{ACAD_REACTORS
330
363
102
}
330
363
100
AcDbDictionary
281
     1
  0
ACDBDICTIONARYWDFLT
  5
365
102
{ACAD_REACTORS
330
363
102
}
330
363
100
AcDbDictionary
281
     1
  3
Normal
350
366
100
AcDbDictionaryWithDefault
340
366
  0
DICTIONARY
  5
5F2
102
{ACAD_REACTORS
330
363
102
}
330
363
100
AcDbDictionary
281
     1
  3
DIMASSOC
350
5F4
  3
INDEXCTL
350
5F3
  0
DICTIONARY
  5
5A9
102
{ACAD_REACTORS
330
363
102
}
330
363
100
AcDbDictionary
281
     1
  3
AcmBOMDATA
350
5AA
  3
AcmStdDictionary
350
5B8
  0
DICTIONARY
  5
4EF
102
{ACAD_REACTORS
330
363
102
}
330
363
100
AcDbDictionary
281
     1
  3
AcMgSettings
350
4F0
  3
AMGLAYCFG
350
5BA
  0
DICTIONARY
  5
5F5
102
{ACAD_REACTORS
330
363
102
}
330
363
100
AcDbDictionary
281
     1
  3
DIMENSION
350
5FA
  3
FEA
350
5F9
  3
HATCH (1)
350
5F6
  3
HATCH (2)
350
5F7
  3
SIMPLE WELD
350
5FB
  3
SYMBOLS
350
5F8
  0
XRECORD
  5
5AC
102
{ACAD_REACTORS
330
363
102
}
330
363
100
AcDbXrecord
280
     1
  1
DWGPROPS COOKIE
  2

  3

  4

  6

  7

  8

  9

300
AmdtFileType=84
301
=
302
=
303
=
304
=
305
=
306
=
307
=
308
=
309
=
 40
0.0310342476851852
 41
2450867.009375
 42
2452125.681380995
  1

 90
        1
  0
DICTIONARY
  5
5E8
102
{ACAD_REACTORS
330
5E7
102
}
330
5E7
100
AcDbDictionary
281
     1
  3
*A1
350
5E9
  0
LAYOUT
  5
378
102
{ACAD_REACTORS
330
370
102
}
330
370
100
AcDbPlotSettings
  1

  2
EPSON PM-3700C
  4

  6

 40
0.0
 41
0.0
 42
0.0
 43
0.0
 44
0.0
 45
0.0
 46
0.0
 47
0.0
 48
0.0
 49
0.0
140
0.0
141
0.0
142
1.0
143
1.0
 70
  1712
 72
     0
 73
     0
 74
     0
  7

 75
     0
147
1.0
148
0.0
149
0.0
100
AcDbLayout
  1
Model
 70
     1
 71
     0
 10
0.0
 20
0.0
 11
12.0
 21
9.0
 12
0.0
 22
0.0
 32
0.0
 14
0.0
 24
0.0
 34
0.0
 15
0.0
 25
0.0
 35
0.0
146
0.0
 13
0.0
 23
0.0
 33
0.0
 16
1.0
 26
0.0
 36
0.0
 17
0.0
 27
1.0
 37
0.0
 76
     0
330
375
  0
LAYOUT
  5
374
102
{ACAD_REACTORS
330
370
102
}
330
370
100
AcDbPlotSettings
  1

  2
EPSON PM-3700C
  4

  6

 40
0.0
 41
0.0
 42
0.0
 43
0.0
 44
0.0
 45
0.0
 46
0.0
 47
0.0
 48
0.0
 49
0.0
140
0.0
141
0.0
142
1.0
143
1.0
 70
   688
 72
     0
 73
     0
 74
     5
  7

 75
    16
147
1.0
148
0.0
149
0.0
100
AcDbLayout
  1
ﾚｲｱｳﾄ1
 70
     0
 71
     1
 10
0.0
 20
0.0
 11
12.0
 21
9.0
 12
0.0
 22
0.0
 32
0.0
 14
1.000000000000000E+20
 24
1.000000000000000E+20
 34
1.000000000000000E+20
 15
-1.000000000000000E+20
 25
-1.000000000000000E+20
 35
-1.000000000000000E+20
146
0.0
 13
0.0
 23
0.0
 33
0.0
 16
1.0
 26
0.0
 36
0.0
 17
0.0
 27
1.0
 37
0.0
 76
     0
330
371
  0
MLINESTYLE
  5
36E
102
{ACAD_REACTORS
330
36D
102
}
330
36D
100
AcDbMlineStyle
  2
STANDARD
 70
     0
  3

 62
   256
 51
90.0
 52
90.0
 71
     2
 49
0.5
 62
   256
  6
BYLAYER
 49
-0.5
 62
   256
  6
BYLAYER
  0
ACDBPLACEHOLDER
  5
366
102
{ACAD_REACTORS
330
365
102
}
330
365
  0
DICTIONARYVAR
  5
5F4
102
{ACAD_REACTORS
330
5F2
102
}
330
5F2
100
DictionaryVariables
280
     0
  1
0
  0
DICTIONARYVAR
  5
5F3
102
{ACAD_REACTORS
330
5F2
102
}
330
5F2
100
DictionaryVariables
280
     0
  1
1
  0
ACMDATADICTIONARY
  5
5AA
102
{ACAD_REACTORS
330
5A9
102
}
330
5A9
100
AcDbDictionary
281
     1
  3
*A1
350
5AB
100
AcmDataDictionary
  0
DICTIONARY
  5
5B8
102
{ACAD_REACTORS
330
5A9
102
}
330
5A9
100
AcDbDictionary
281
     1
  3
ANSI
350
5B9
  0
DICTIONARY
  5
4F0
102
{ACAD_REACTORS
330
4EF
102
}
330
4EF
100
AcDbDictionary
281
     1
  3
DWGSETTINGS
350
4F1
  3
TRANSSETTINGS
350
4F5
  0
ACAMGFILTERDAT
  5
5FA
102
{ACAD_REACTORS
330
5F5
102
}
330
5F5
100
AcAmgFilterDat
 70
    15
  1
DIMENSION,AMDT_*_DIM
  2
*
  3
*
  4
*
  5
*
290
     1
  0
ACAMGFILTERDAT
  5
5F9
102
{ACAD_REACTORS
330
5F5
102
}
330
5F5
100
AcAmgFilterDat
 70
    15
  1
*
  2
AM_FEA-AM_*
  3
*
  4
*
  5
*
290
     1
  0
ACAMGFILTERDAT
  5
5F6
102
{ACAD_REACTORS
330
5F5
102
}
330
5F5
100
AcAmgFilterDat
 70
    15
  1
HATCH
  2
*
  3
*
  4
*
  5
*
290
     1
  0
ACAMGFILTERDAT
  5
5F7
102
{ACAD_REACTORS
330
5F5
102
}
330
5F5
100
AcAmgFilterDat
 70
    15
  1
LINE
  2
8,8N,*-8,*-8N,AM_8,AM_8N,*-AM_8,*-AM_8N
  3
*
  4
*
  5
INSERT,STDPART2D
290
     1
  0
ACAMGFILTERDAT
  5
5FB
102
{ACAD_REACTORS
330
5F5
102
}
330
5F5
100
AcAmgFilterDat
 70
    15
  1
ARC
  2
AM_5
  3
*
  4
2
  5
INSERT
290
     0
  0
ACAMGFILTERDAT
  5
5F8
102
{ACAD_REACTORS
330
5F5
102
}
330
5F5
100
AcAmgFilterDat
 70
    15
  1
ACMFCFRAME,ACMDATUMTARGET,ACMDATUMID,ACMWELDSYM,ACMSURFSYM,ACMFEATID,ACMPARTREF,ACMBALLOON,AMDTEDGESYM,AMGSCREWCALCTABLE
  2
*
  3
*
  4
*
  5
*
290
     1
  0
LAYER_INDEX
  5
5E9
102
{ACAD_REACTORS
330
5E8
102
}
330
5E8
100
AcDbIndex
 40
2454700.443668252
100
AcDbLayerIndex
  8
0
360
5EA
 90
       60
  8
1
360
5EB
 90
        2
  8
3
360
5EC
 90
        0
  8
4
360
5ED
 90
        0
  8
10
360
5EE
 90
        0
  8
11
360
5EF
 90
        0
  8
2
360
5F0
 90
        0
  0
ACMDATAENTRYBLOCK
  5
5AB
102
{ACAD_REACTORS
330
5AA
102
}
330
5AA
100
AcmDataEntry
100
AcmDataEntryBlock
  0
IDBUFFER
  5
5EA
330
0
100
AcDbIdBuffer
330
3A5
330
3A6
330
3A9
330
3AA
330
3AB
330
42F
330
430
330
437
330
438
330
4BB
330
4BC
330
4BD
330
4BE
330
4BF
330
4C0
330
4C1
330
4C2
330
4C4
330
4C5
330
4C6
330
4C7
330
4C8
330
4C9
330
4CA
330
4CB
330
4CC
330
4CD
330
4CE
330
4CF
330
4D0
330
4D1
330
4D2
330
4D3
330
4D4
330
4D5
330
4D6
330
4D7
330
4D8
330
4D9
330
4DA
330
4DB
330
4DC
330
4DD
330
4DE
330
4DF
330
4E0
330
4E1
330
4E2
330
4E3
330
4E4
330
4E5
330
4E6
330
4E7
330
4E8
330
4E9
330
4EA
330
4EB
330
4EC
330
4ED
330
5FC
  0
IDBUFFER
  5
5EB
330
0
100
AcDbIdBuffer
330
3A4
330
4C3
  0
IDBUFFER
  5
5EC
330
0
100
AcDbIdBuffer
  0
IDBUFFER
  5
5ED
330
0
100
AcDbIdBuffer
  0
IDBUFFER
  5
5EE
330
0
100
AcDbIdBuffer
  0
IDBUFFER
  5
5EF
330
0
100
AcDbIdBuffer
  0
IDBUFFER
  5
5F0
330
0
100
AcDbIdBuffer
  0
ENDSEC
  0
EOF
