  0
SECTION
  2
HEADER
  9
$ACADVER
  1
AC1015
  9
$ACADMAINTVER
 70
    13
  9
$DWGCODEPAGE
  3
ANSI_932
  9
$INSBASE
 10
0.0
 20
0.0
 30
0.0
  9
$EXTMIN
 10
26.0
 20
36.0
 30
0.0
  9
$EXTMAX
 10
189.97495439485
 20
132.4999999999999
 30
0.0
  9
$LIMMIN
 10
0.0
 20
0.0
  9
$LIMMAX
 10
200.0
 20
150.0
  9
$ORTHOMODE
 70
     1
  9
$REGENMODE
 70
     1
  9
$FILLMODE
 70
     1
  9
$QTEXTMODE
 70
     0
  9
$MIRRTEXT
 70
     1
  9
$LTSCALE
 40
1.0
  9
$ATTMODE
 70
     1
  9
$TEXTSIZE
 40
2.5
  9
$TRACEWID
 40
1.0
  9
$TEXTSTYLE
  7
STANDARD
  9
$CLAYER
  8
0
  9
$CELTYPE
  6
ByLayer
  9
$CECOLOR
 62
   256
  9
$CELTSCALE
 40
1.0
  9
$DISPSILH
 70
     0
  9
$DIMSCALE
 40
1.0
  9
$DIMASZ
 40
2.5
  9
$DIMEXO
 40
0.625
  9
$DIMDLI
 40
3.75
  9
$DIMRND
 40
0.0
  9
$DIMDLE
 40
0.0
  9
$DIMEXE
 40
1.25
  9
$DIMTP
 40
0.0
  9
$DIMTM
 40
0.0
  9
$DIMTXT
 40
2.5
  9
$DIMCEN
 40
2.5
  9
$DIMTSZ
 40
0.0
  9
$DIMTOL
 70
     0
  9
$DIMLIM
 70
     0
  9
$DIMTIH
 70
     0
  9
$DIMTOH
 70
     0
  9
$DIMSE1
 70
     0
  9
$DIMSE2
 70
     0
  9
$DIMTAD
 70
     1
  9
$DIMZIN
 70
     8
  9
$DIMBLK
  1

  9
$DIMASO
 70
     1
  9
$DIMSHO
 70
     1
  9
$DIMPOST
  1

  9
$DIMAPOST
  1

  9
$DIMALT
 70
     0
  9
$DIMALTD
 70
     4
  9
$DIMALTF
 40
0.0394
  9
$DIMLFAC
 40
1.0
  9
$DIMTOFL
 70
     1
  9
$DIMTVP
 40
0.0
  9
$DIMTIX
 70
     0
  9
$DIMSOXD
 70
     0
  9
$DIMSAH
 70
     0
  9
$DIMBLK1
  1

  9
$DIMBLK2
  1

  9
$DIMSTYLE
  2
STANDARD
  9
$DIMCLRD
 70
     0
  9
$DIMCLRE
 70
     0
  9
$DIMCLRT
 70
     0
  9
$DIMTFAC
 40
1.0
  9
$DIMGAP
 40
0.625
  9
$DIMJUST
 70
     0
  9
$DIMSD1
 70
     0
  9
$DIMSD2
 70
     0
  9
$DIMTOLJ
 70
     1
  9
$DIMTZIN
 70
     0
  9
$DIMALTZ
 70
     0
  9
$DIMALTTZ
 70
     0
  9
$DIMUPT
 70
     0
  9
$DIMDEC
 70
     4
  9
$DIMTDEC
 70
     4
  9
$DIMALTU
 70
     2
  9
$DIMALTTD
 70
     2
  9
$DIMTXSTY
  7
STANDARD
  9
$DIMAUNIT
 70
     0
  9
$DIMADEC
 70
     0
  9
$DIMALTRND
 40
0.0
  9
$DIMAZIN
 70
     0
  9
$DIMDSEP
 70
    46
  9
$DIMATFIT
 70
     3
  9
$DIMFRAC
 70
     0
  9
$DIMLDRBLK
  1

  9
$DIMLUNIT
 70
     2
  9
$DIMLWD
 70
    -2
  9
$DIMLWE
 70
    -2
  9
$DIMTMOVE
 70
     0
  9
$LUNITS
 70
     2
  9
$LUPREC
 70
     4
  9
$SKETCHINC
 40
1.0
  9
$FILLETRAD
 40
1.0
  9
$AUNITS
 70
     0
  9
$AUPREC
 70
     0
  9
$MENU
  1
.
  9
$ELEVATION
 40
0.0
  9
$PELEVATION
 40
0.0
  9
$THICKNESS
 40
0.0
  9
$LIMCHECK
 70
     0
  9
$CHAMFERA
 40
10.0
  9
$CHAMFERB
 40
10.0
  9
$CHAMFERC
 40
0.0
  9
$CHAMFERD
 40
0.0
  9
$SKPOLY
 70
     0
  9
$TDCREATE
 40
2452125.683722997
  9
$TDUCREATE
 40
2452125.308722997
  9
$TDUPDATE
 40
2454700.605389710
  9
$TDUUPDATE
 40
2454700.230389710
  9
$TDINDWG
 40
0.1908841898
  9
$TDUSRTIMER
 40
0.1908841898
  9
$USRTIMER
 70
     1
  9
$ANGBASE
 50
0.0
  9
$ANGDIR
 70
     0
  9
$PDMODE
 70
     0
  9
$PDSIZE
 40
0.0
  9
$PLINEWID
 40
0.0
  9
$SPLFRAME
 70
     0
  9
$SPLINETYPE
 70
     6
  9
$SPLINESEGS
 70
     8
  9
$HANDSEED
  5
870
  9
$SURFTAB1
 70
     6
  9
$SURFTAB2
 70
     6
  9
$SURFTYPE
 70
     6
  9
$SURFU
 70
     6
  9
$SURFV
 70
     6
  9
$UCSBASE
  2

  9
$UCSNAME
  2

  9
$UCSORG
 10
0.0
 20
0.0
 30
0.0
  9
$UCSXDIR
 10
1.0
 20
0.0
 30
0.0
  9
$UCSYDIR
 10
0.0
 20
1.0
 30
0.0
  9
$UCSORTHOREF
  2

  9
$UCSORTHOVIEW
 70
     0
  9
$UCSORGTOP
 10
0.0
 20
0.0
 30
0.0
  9
$UCSORGBOTTOM
 10
0.0
 20
0.0
 30
0.0
  9
$UCSORGLEFT
 10
0.0
 20
0.0
 30
0.0
  9
$UCSORGRIGHT
 10
0.0
 20
0.0
 30
0.0
  9
$UCSORGFRONT
 10
0.0
 20
0.0
 30
0.0
  9
$UCSORGBACK
 10
0.0
 20
0.0
 30
0.0
  9
$PUCSBASE
  2

  9
$PUCSNAME
  2

  9
$PUCSORG
 10
0.0
 20
0.0
 30
0.0
  9
$PUCSXDIR
 10
1.0
 20
0.0
 30
0.0
  9
$PUCSYDIR
 10
0.0
 20
1.0
 30
0.0
  9
$PUCSORTHOREF
  2

  9
$PUCSORTHOVIEW
 70
     0
  9
$PUCSORGTOP
 10
0.0
 20
0.0
 30
0.0
  9
$PUCSORGBOTTOM
 10
0.0
 20
0.0
 30
0.0
  9
$PUCSORGLEFT
 10
0.0
 20
0.0
 30
0.0
  9
$PUCSORGRIGHT
 10
0.0
 20
0.0
 30
0.0
  9
$PUCSORGFRONT
 10
0.0
 20
0.0
 30
0.0
  9
$PUCSORGBACK
 10
0.0
 20
0.0
 30
0.0
  9
$USERI1
 70
     0
  9
$USERI2
 70
     0
  9
$USERI3
 70
     0
  9
$USERI4
 70
     0
  9
$USERI5
 70
     0
  9
$USERR1
 40
0.0
  9
$USERR2
 40
0.0
  9
$USERR3
 40
0.0
  9
$USERR4
 40
0.0
  9
$USERR5
 40
0.0
  9
$WORLDVIEW
 70
     1
  9
$SHADEDGE
 70
     3
  9
$SHADEDIF
 70
    70
  9
$TILEMODE
 70
     1
  9
$MAXACTVP
 70
    48
  9
$PINSBASE
 10
0.0
 20
0.0
 30
0.0
  9
$PLIMCHECK
 70
     0
  9
$PEXTMIN
 10
1.000000000000000E+20
 20
1.000000000000000E+20
 30
1.000000000000000E+20
  9
$PEXTMAX
 10
-1.000000000000000E+20
 20
-1.000000000000000E+20
 30
-1.000000000000000E+20
  9
$PLIMMIN
 10
0.0
 20
0.0
  9
$PLIMMAX
 10
420.0
 20
297.0
  9
$UNITMODE
 70
     0
  9
$VISRETAIN
 70
     1
  9
$PLINEGEN
 70
     0
  9
$PSLTSCALE
 70
     1
  9
$TREEDEPTH
 70
  3020
  9
$CMLSTYLE
  2
Standard
  9
$CMLJUST
 70
     0
  9
$CMLSCALE
 40
1.0
  9
$PROXYGRAPHICS
 70
     1
  9
$MEASUREMENT
 70
     0
  9
$CELWEIGHT
370
    -1
  9
$ENDCAPS
280
     0
  9
$JOINSTYLE
280
     0
  9
$LWDISPLAY
290
     0
  9
$INSUNITS
 70
     0
  9
$HYPERLINKBASE
  1

  9
$STYLESHEET
  1

  9
$XEDIT
290
     1
  9
$CEPSNTYPE
380
     0
  9
$PSTYLEMODE
290
     1
  9
$FINGERPRINTGUID
  2
{FFADE5A6-8884-4505-9B2A-AA59C6CE23C2}
  9
$VERSIONGUID
  2
{DD145807-08FB-450C-AB59-059E3B86E4A7}
  9
$EXTNAMES
290
     1
  9
$PSVPSCALE
 40
0.0
  9
$OLESTARTUP
290
     0
  0
ENDSEC
  0
SECTION
  2
CLASSES
  0
CLASS
  1
ACDBDICTIONARYWDFLT
  2
AcDbDictionaryWithDefault
  3
AutoCAD 2000
 90
        0
280
     0
281
     0
  0
CLASS
  1
ACDBPLACEHOLDER
  2
AcDbPlaceHolder
  3
AutoCAD 2000
 90
        0
280
     0
281
     0
  0
CLASS
  1
LAYOUT
  2
AcDbLayout
  3
AutoCAD 2000
 90
        0
280
     0
281
     0
  0
CLASS
  1
AMGSETTINGSOBJ
  2
AmgSettingsObj
  3
"AcadM|Product Description: AutoCAD Mechanical 2000|Company: Autodesk"
 90
        0
280
     0
281
     0
  0
CLASS
  1
ACME_DOCUMENT
  2
AcMeDbDoc
  3
AcMeServices
 90
        0
280
     0
281
     0
  0
CLASS
  1
ACMESCOPE
  2
AcMeScope
  3
AcMeServices
 90
        0
280
     0
281
     0
  0
CLASS
  1
ACMECOMMANDHISTORY
  2
AcMeCommandHistory
  3
AcMeServices
 90
        0
280
     0
281
     0
  0
CLASS
  1
ACIMSYSVARMAN
  2
AcImSysVarManager
  3
AcMeServices
 90
        0
280
     0
281
     0
  0
CLASS
  1
ACIMREALSYSVAR
  2
AcImRealSysVar
  3
AcMeServices
 90
        0
280
     0
281
     0
  0
CLASS
  1
ACIMINTSYSVAR
  2
AcImIntSysVar
  3
AcMeServices
 90
        0
280
     0
281
     0
  0
CLASS
  1
ACMEDRAWINGMAN
  2
AcMeDrawingMan
  3
AcMeServices
 90
        0
280
     0
281
     0
  0
CLASS
  1
ACMEVIEW
  2
AcMeView
  3
AcMeServices
 90
        0
280
     0
281
     0
  0
CLASS
  1
ACDBENTITYCACHE
  2
AcMeEntityCache
  3
AcMeServices
 90
        0
280
     0
281
     0
  0
CLASS
  1
GSMANAGER
  2
AcMeGSManager
  3
AcMeServices
 90
        0
280
     0
281
     0
  0
CLASS
  1
AMDTINTERNALREACTOR
  2
AmdtInternalReactor
  3
AcMeServices
 90
        0
280
     0
281
     0
  0
CLASS
  1
ACMESTATEMGR
  2
AcMeStateMgr
  3
AcMeServices
 90
        0
280
     0
281
     0
  0
CLASS
  1
ACGREFMASTER
  2
AcGrefMaster
  3
AcAttribServices
 90
        0
280
     0
281
     0
  0
CLASS
  1
AM_DRAWING_MGR
  2
AcDmDwgMgr
  3
AcMechDwgViewMgmt
 90
        0
280
     0
281
     0
  0
CLASS
  1
AM_DWG_DOCUMENT
  2
AcDmDwgDocument
  3
AcMechDwgViewMgmt
 90
        0
280
     0
281
     0
  0
CLASS
  1
AM_DWG_SHEET
  2
AcDmSheet
  3
AcMechDwgViewMgmt
 90
        0
280
     0
281
     0
  0
CLASS
  1
AM_VIEWDIMPARMAP
  2
AcDmViewDimParMap
  3
AcMechDwgViewMgmt
 90
        0
280
     0
281
     0
  0
CLASS
  1
AM_DWGMGR_NAME
  2
AcDmDwgMgrName
  3
AcMechDwgViewMgmt
 90
        0
280
     0
281
     0
  0
CLASS
  1
ACME_DATABASE
  2
AcMeDbDatabase
  3
AcMeServices
 90
        0
280
     0
281
     0
  0
CLASS
  1
ACRFINSADJUSTERMGR
  2
AcRfInsAdjusterMgr
  3
AcMeServices
 90
        0
280
     0
281
     0
  0
CLASS
  1
ACGREFACADMASTER
  2
AcGrefacadMaster
  3
AcGrefServices
 90
        0
280
     0
281
     0
  0
CLASS
  1
AMDTMENUSTATEMGR
  2
AmdtMenuStateMgr
  3
McadcomServices
 90
        0
280
     0
281
     0
  0
CLASS
  1
AMDTMCOMMENUSTATE
  2
AmdtMcomMenuState
  3
McadcomServices
 90
        0
280
     0
281
     0
  0
CLASS
  1
AMIMASTER
  2
AmiMaster
  3
AmiServices
 90
        0
280
     0
281
     0
  0
CLASS
  1
ASAPP
  2
AcAsAppObject
  3
AutoSurfServices
 90
        0
280
     0
281
     0
  0
CLASS
  1
IM_STATIC_MAN
  2
AcImStaticVarManager
  3
AcMeServices
 90
        0
280
     0
281
     0
  0
CLASS
  1
ACIMSTRSYSVAR
  2
AcImStrSysVar
  3
AcMeServices
 90
        0
280
     0
281
     0
  0
CLASS
  1
ACIMDBLSTATICVAR
  2
AcImDblStaticVar
  3
AcMeServices
 90
        0
280
     0
281
     0
  0
CLASS
  1
ACIMSTRSTATICVAR
  2
AcImStrStaticVar
  3
AcMeServices
 90
        0
280
     0
281
     0
  0
CLASS
  1
ACIMINTSTATICVAR
  2
AcImIntStaticVar
  3
AcMeServices
 90
        0
280
     0
281
     0
  0
CLASS
  1
ACASGREFMASTER
  2
AcAsGrefMaster
  3
AutoSurfResolverServices
 90
        0
280
     0
281
     0
  0
CLASS
  1
ACADGREFMODULE
  2
AcAdGrefModule
  3
AdGrefServices
 90
        0
280
     0
281
     0
  0
CLASS
  1
AMDTMAPISURFMOUDULE
  2
AmdtMApiSurfModule
  3
MApiSurfServices
 90
        0
280
     0
281
     0
  0
CLASS
  1
MAPIAMMOUDLE
  2
MApiAmModule
  3
MApiAmServices
 90
        0
280
     0
281
     0
  0
CLASS
  1
AMDTADMENUSTATE
  2
AmdtAdMenuState
  3
DesignerServices
 90
        0
280
     0
281
     0
  0
CLASS
  1
ADAPPL
  2
AcAdAppl
  3
DesignerServices
 90
        0
280
     0
281
     0
  0
CLASS
  1
DEPMGR
  2
AcAdDepMgr
  3
DesignerServices
 90
        0
280
     0
281
     0
  0
CLASS
  1
PARAMMGR
  2
AcAdParamMgr
  3
DesignerServices
 90
        0
280
     0
281
     0
  0
CLASS
  1
PARAMSCOPE
  2
AcAdParamScope
  3
DesignerServices
 90
        0
280
     0
281
     0
  0
CLASS
  1
NAMEDAPPL
  2
AcAdNamedAppl
  3
DesignerServices
 90
        0
280
     0
281
     0
  0
CLASS
  1
AMDTDMMENUSTATE
  2
AmdtDmMenuState
  3
AcMechDwgViewMgmt
 90
        0
280
     0
281
     0
  0
CLASS
  1
MAPIADMODULE
  2
MApiAdModule
  3
MApiAdServices
 90
        0
280
     0
281
     0
  0
CLASS
  1
AMDTAMMENUSTATE
  2
AmdtAmMenuState
  3
DesignerAssemblies
 90
        0
280
     0
281
     0
  0
CLASS
  1
ACAMPROJECT
  2
AcAmProject
  3
DesignerAssemblies
 90
        0
280
     0
281
     0
  0
CLASS
  1
ACAMGRCOMPDEF
  2
AcAmGrCompDef
  3
DesignerAssemblies
 90
        0
280
     0
281
     0
  0
CLASS
  1
ACCMCONTEXT
  2
AcCmContext
  3
DesignerAssemblies
 90
        0
280
     0
281
     0
  0
CLASS
  1
ACAMCOMPDEF
  2
AcAmCompDef
  3
DesignerAssemblies
 90
        0
280
     0
281
     0
  0
CLASS
  1
ACAMCOMPDEFMGR
  2
AcAmCompDefMgr
  3
DesignerAssemblies
 90
        0
280
     0
281
     0
  0
CLASS
  1
AMCONTEXTMGR
  2
AcAmContextMgr
  3
DesignerAssemblies
 90
        0
280
     0
281
     0
  0
CLASS
  1
ACAMCONTEXTMODELER
  2
AcAmContextModeler
  3
DesignerAssemblies
 90
        0
280
     0
281
     0
  0
CLASS
  1
ACMDATADICTIONARY
  2
AcmDataDictionary
  3
"AcmSymBB|Product Description: AutoCAD Mechanical 2000|Company: Autodesk"
 90
        0
280
     0
281
     0
  0
CLASS
  1
ACMDATAENTRYBLOCK
  2
AcmDataEntryBlock
  3
"AcmSymBB|Product Description: AutoCAD Mechanical 2000|Company: Autodesk"
 90
        0
280
     0
281
     0
  0
CLASS
  1
CATALOGSTATE
  2
AcAmCatalogState
  3
DesignerAssemblies
 90
        0
280
     0
281
     0
  0
CLASS
  1
ACAMGRCOMPDEFSET
  2
AcAmGrCompDefSet
  3
DesignerAssemblies
 90
        0
280
     0
281
     0
  0
CLASS
  1
AMDTBROWSERDBTAB
  2
AmdtBrowserDbTab
  3
McadcomServices
 90
        0
280
     0
281
     0
  0
CLASS
  1
CBROWSERAPPOBJECT
  2
CBrowserAppObject
  3
McadcomServices
 90
        0
280
     0
281
     0
  0
CLASS
  1
DM_PLACEHOLDER
  2
AcDmSelsetPlaceholder
  3
AcMechDwgViewMgmt
 90
        0
280
     0
281
     0
  0
CLASS
  1
ACMSTANDARDANSI
  2
AcmStandardANSI
  3
"Amdt_StdImp|Product Description: AutoCAD Mechanical 2000|Company: Autodesk"
 90
        0
280
     0
281
     0
  0
CLASS
  1
AMGOBJPROPCFG
  2
AmgObjPropCfg
  3
"AmgLay|Product Description: AutoCAD Mechanical 2000|Company: Autodesk"
 90
        1
280
     0
281
     0
  0
CLASS
  1
ACMSURFSTANDARDANSI
  2
AcmSurfTextStdANSI
  3
"Amdt_StdImp|Product Description: AutoCAD Mechanical 2000|Company: Autodesk"
 90
        0
280
     0
281
     0
  0
CLASS
  1
ACMFCFSTANDARDANSI
  2
AcmFCFStdANSI
  3
"Amdt_StdImp|Product Description: AutoCAD Mechanical 2000|Company: Autodesk"
 90
        0
280
     0
281
     0
  0
CLASS
  1
ACMWELDSTANDARDANSI
  2
AcmWeldingStdANSI
  3
"Amdt_StdImp|Product Description: AutoCAD Mechanical 2000|Company: Autodesk"
 90
        0
280
     0
281
     0
  0
CLASS
  1
ACMIDSTANDARDANSI
  2
AcmIdStdANSI
  3
"Amdt_StdImp|Product Description: AutoCAD Mechanical 2000|Company: Autodesk"
 90
        0
280
     0
281
     0
  0
CLASS
  1
ACMDATUMSTANDARDANSI
  2
AcmDatumStdANSI
  3
"Amdt_StdImp|Product Description: AutoCAD Mechanical 2000|Company: Autodesk"
 90
        0
280
     0
281
     0
  0
CLASS
  1
ACMBOMSTANDARDANSI
  2
AcmBOMStdANSI
  3
"Amdt_StdImp|Product Description: AutoCAD Mechanical 2000|Company: Autodesk"
 90
        0
280
     0
281
     0
  0
CLASS
  1
ACMDETAILSTANDARDANSI
  2
AmdtDetailSymStdANSI
  3
"Amdt_StdImp|Product Description: AutoCAD Mechanical 2000|Company: Autodesk"
 90
        0
280
     0
281
     0
  0
CLASS
  1
ACMSECTIONSTANDARDANSI
  2
AmdtSectionSymStdANSI
  3
"Amdt_StdImp|Product Description: AutoCAD Mechanical 2000|Company: Autodesk"
 90
        0
280
     0
281
     0
  0
CLASS
  1
ACMCENTERLINESTANDARDANSI
  2
AmdtCenterLineStdANSI
  3
"Amdt_StdImp|Product Description: AutoCAD Mechanical 2000|Company: Autodesk"
 90
        0
280
     0
281
     0
  0
CLASS
  1
ACMTHREADLINESTANDARDANSI
  2
AmdtThreadLineStdANSI
  3
"Amdt_StdImp|Product Description: AutoCAD Mechanical 2000|Company: Autodesk"
 90
        0
280
     0
281
     0
  0
CLASS
  1
ACMNOTESTANDARDANSI
  2
AmdtNoteStdANSI
  3
"Amdt_StdImp|Product Description: AutoCAD Mechanical 2000|Company: Autodesk"
 90
        0
280
     0
281
     0
  0
CLASS
  1
ACAMGLAYSTD
  2
AcAmgLayStd
  3
"AcAmgLayStd|Product Description: AutoCAD Mechanical 2000|Company: Autodesk"
 90
        0
280
     0
281
     0
  0
CLASS
  1
ACAMGDIMSTD
  2
AcAmgDimStd
  3
"AcAmgDimStd|Product Description: AutoCAD Mechanical 2000|Company: Autodesk"
 90
        0
280
     0
281
     0
  0
CLASS
  1
ACAMGHOLECHARTSTDANSI
  2
AcAmgHoleChartStdANSI
  3
ACMSYMBB_MODULE_NAME
 90
        0
280
     0
281
     0
  0
CLASS
  1
ACAMGTITLESTD
  2
AcAmgTitleStd
  3
"TITLEAPP"
 90
        0
280
     0
281
     0
  0
CLASS
  1
LAYER_INDEX
  2
AcDbLayerIndex
  3
AutoCAD 2000
 90
        0
280
     0
281
     0
  0
CLASS
  1
IDBUFFER
  2
AcDbIdBuffer
  3
AutoCAD 2000
 90
        0
280
     0
281
     0
  0
CLASS
  1
DICTIONARYVAR
  2
AcDbDictionaryVar
  3
AutoCAD 2000
 90
        0
280
     0
281
     0
  0
CLASS
  1
ACAMGFILTERDAT
  2
AcAmgFilterDat
  3
"AcadM|Product Description: AutoCAD Mechanical 2000|Company: Autodesk"
 90
        0
280
     0
281
     0
  0
ENDSEC
  0
SECTION
  2
TABLES
  0
TABLE
  2
VPORT
  5
415
330
0
100
AcDbSymbolTable
 70
     6
  0
VPORT
  5
86F
330
415
100
AcDbSymbolTableRecord
100
AcDbViewportTableRecord
  2
*Active
 70
     0
 10
0.0
 20
0.0
 11
1.0
 21
1.0
 12
0.0
 22
0.0
 13
0.0
 23
0.0
 14
0.5
 24
0.5
 15
1.0
 25
1.0
 16
0.0
 26
0.0
 36
1.0
 17
113.7736169056603
 27
75.0
 37
0.0
 40
150.0
 41
1.516981132075471
 42
50.0
 43
0.0
 44
0.0
 50
0.0
 51
0.0
 71
     0
 72
   100
 73
     1
 74
     1
 75
     0
 76
     0
 77
     0
 78
     0
281
     0
 65
     0
110
0.0
120
0.0
130
0.0
111
1.0
121
0.0
131
0.0
112
0.0
122
1.0
132
0.0
 79
     0
146
0.0
  0
ENDTAB
  0
TABLE
  2
LTYPE
  5
412
330
0
100
AcDbSymbolTable
 70
    18
  0
LTYPE
  5
420
330
412
100
AcDbSymbolTableRecord
100
AcDbLinetypeTableRecord
  2
ByBlock
 70
     0
  3

 72
    65
 73
     0
 40
0.0
  0
LTYPE
  5
421
330
412
100
AcDbSymbolTableRecord
100
AcDbLinetypeTableRecord
  2
ByLayer
 70
     0
  3

 72
    65
 73
     0
 40
0.0
  0
LTYPE
  5
422
330
412
100
AcDbSymbolTableRecord
100
AcDbLinetypeTableRecord
  2
CONTINUOUS
 70
     0
  3
Solid line
 72
    65
 73
     0
 40
0.0
  0
LTYPE
  5
430
330
412
100
AcDbSymbolTableRecord
100
AcDbLinetypeTableRecord
  2
CENTER
 70
     0
  3
____ _ ____ _ ____ _ ____ _ ____ _ ____ _ ____
 72
    65
 73
     4
 40
2.0
 49
1.25
 74
     0
 49
-0.25
 74
     0
 49
0.25
 74
     0
 49
-0.25
 74
     0
  0
LTYPE
  5
779
330
412
100
AcDbSymbolTableRecord
100
AcDbLinetypeTableRecord
  2
HIDDEN
 70
     0
  3
Hidden __ __ __ __ __ __ __ __ __ __ __ __ __ _
 72
    65
 73
     2
 40
0.375
 49
0.25
 74
     0
 49
-0.125
 74
     0
  0
LTYPE
  5
77A
330
412
100
AcDbSymbolTableRecord
100
AcDbLinetypeTableRecord
  2
PHANTOM2
 70
     0
  3
Phantom (.5x) ___ _ _ ___ _ _ ___ _ _ ___ _ _
 72
    65
 73
     6
 40
1.25
 49
0.625
 74
     0
 49
-0.125
 74
     0
 49
0.125
 74
     0
 49
-0.125
 74
     0
 49
0.125
 74
     0
 49
-0.125
 74
     0
  0
LTYPE
  5
7DC
330
412
100
AcDbSymbolTableRecord
100
AcDbLinetypeTableRecord
  2
ASULTYPE
 70
     0
  3
実線
 72
    65
 73
     2
 40
3.0
 49
2.5
 74
     0
 49
0.5
 74
     0
  0
LTYPE
  5
7DD
330
412
100
AcDbSymbolTableRecord
100
AcDbLinetypeTableRecord
  2
ASVLTYPE
 70
     0
  3
__ __ __ __ __ __ __ __ __ __ __ __ __ __ __ __ __ __ __ __ __
 72
    65
 73
     2
 40
0.75
 49
0.5
 74
     0
 49
-0.25
 74
     0
  0
LTYPE
  5
821
330
412
100
AcDbSymbolTableRecord
100
AcDbLinetypeTableRecord
  2
AM_ISO02W050
 70
     0
  3
__ __ __ __ __ __ __ __ __ __ __ __ __ __ __
 72
    65
 73
     2
 40
7.5
 49
6.0
 74
     0
 49
-1.5
 74
     0
  0
LTYPE
  5
822
330
412
100
AcDbSymbolTableRecord
100
AcDbLinetypeTableRecord
  2
AM_ISO08W050
 70
     0
  3
____ . ____ . ____ . ____ . ____ . ____ . ____
 72
    65
 73
     4
 40
18.0
 49
12.0
 74
     0
 49
-1.5
 74
     0
 49
3.0
 74
     0
 49
-1.5
 74
     0
  0
LTYPE
  5
823
330
412
100
AcDbSymbolTableRecord
100
AcDbLinetypeTableRecord
  2
AM_ISO09W050
 70
     0
  3
_____ . . _____ . . _____ . . ____ .. ____
 72
    65
 73
     6
 40
22.5
 49
12.0
 74
     0
 49
-1.5
 74
     0
 49
3.0
 74
     0
 49
-1.5
 74
     0
 49
3.0
 74
     0
 49
-1.5
 74
     0
  0
LTYPE
  5
824
330
412
100
AcDbSymbolTableRecord
100
AcDbLinetypeTableRecord
  2
Amconstr
 70
     0
  3
_______________________
 72
    65
 73
     2
 40
9999.0
 49
9999.0
 74
     0
 49
0.0
 74
     0
  0
LTYPE
  5
825
330
412
100
AcDbSymbolTableRecord
100
AcDbLinetypeTableRecord
  2
AM_ISO08W050x2
 70
     0
  3
__ . __ . __ . __ . __ . __
 72
    65
 73
     4
 40
9.0
 49
6.0
 74
     0
 49
-0.75
 74
     0
 49
1.5
 74
     0
 49
-0.75
 74
     0
  0
LTYPE
  5
826
330
412
100
AcDbSymbolTableRecord
100
AcDbLinetypeTableRecord
  2
AM_ISO02W050x2
 70
     0
  3
 _ _ _ _ _ _ _ _ _ _ _ _
 72
    65
 73
     2
 40
3.75
 49
3.0
 74
     0
 49
-0.75
 74
     0
  0
LTYPE
  5
829
330
412
100
AcDbSymbolTableRecord
100
AcDbLinetypeTableRecord
  2
Amzigzag
 70
     0
  3
/\/-/\/-/\/-/\/-/\/-/\/
 72
    65
 73
     2
 40
11.00009999999999
 49
0.0001
 74
     4
 75
   135
340
828
 46
0.04
 50
0.0
 44
0.0
 45
0.0
 49
-11.0
 74
     0
  0
LTYPE
  5
82A
330
412
100
AcDbSymbolTableRecord
100
AcDbLinetypeTableRecord
  2
CENTER2
 70
     0
  3
Center (.5x) ___ _ ___ _ ___ _ ___ _ ___ _ ___
 72
    65
 73
     4
 40
1.125
 49
0.75
 74
     0
 49
-0.125
 74
     0
 49
0.125
 74
     0
 49
-0.125
 74
     0
  0
LTYPE
  5
82B
330
412
100
AcDbSymbolTableRecord
100
AcDbLinetypeTableRecord
  2
HIDDEN2
 70
     0
  3
Hidden (.5x) _ _ _ _ _ _ _ _ _ _ _ _ _ _ _ _ _
 72
    65
 73
     2
 40
0.1875
 49
0.125
 74
     0
 49
-0.0625
 74
     0
  0
LTYPE
  5
82C
330
412
100
AcDbSymbolTableRecord
100
AcDbLinetypeTableRecord
  2
Amzigzag2
 70
     0
  3
/\/-/\/-/\/-/\/-/\/-/\/
 72
    65
 73
     2
 40
0.4401
 49
0.0001
 74
     4
 75
   135
340
828
 46
0.0016
 50
0.0
 44
0.0
 45
0.0
 49
-0.4400000000000001
 74
     0
  0
LTYPE
  5
83A
330
412
100
AcDbSymbolTableRecord
100
AcDbLinetypeTableRecord
  2
ACANSTGB
 70
     0
  3
__ . . __ . .
 72
    65
 73
     6
 40
0.35433070866
 49
0.15748031496
 74
     0
 49
-0.03937007874
 74
     0
 49
0.03937007874
 74
     0
 49
-0.03937007874
 74
     0
 49
0.03937007874
 74
     0
 49
-0.03937007874
 74
     0
  0
LTYPE
  5
83B
330
412
100
AcDbSymbolTableRecord
100
AcDbLinetypeTableRecord
  2
ACANSTGL
 70
     0
  3
_ _ _ _ _
 72
    65
 73
     2
 40
0.11811023622
 49
0.07874015748
 74
     0
 49
-0.03937007874
 74
     0
  0
ENDTAB
  0
TABLE
  2
LAYER
  5
40F
330
0
100
AcDbSymbolTable
 70
     3
  0
LAYER
  5
41D
330
40F
100
AcDbSymbolTableRecord
100
AcDbLayerTableRecord
  2
0
 70
     0
 62
     7
  6
CONTINUOUS
370
    -3
390
41C
  0
LAYER
  5
431
330
40F
100
AcDbSymbolTableRecord
100
AcDbLayerTableRecord
  2
1
 70
     0
 62
     1
  6
CENTER
370
    -3
390
41C
  0
LAYER
  5
85E
330
40F
100
AcDbSymbolTableRecord
100
AcDbLayerTableRecord
  2
Defpoints
 70
     0
 62
     7
  6
CONTINUOUS
290
     0
370
    -3
390
41C
  0
ENDTAB
  0
TABLE
  2
STYLE
  5
410
330
0
100
AcDbSymbolTable
 70
     5
  0
STYLE
  5
41E
330
410
100
AcDbSymbolTableRecord
100
AcDbTextStyleTableRecord
  2
STANDARD
 70
     0
 40
0.0
 41
1.0
 50
0.0
 71
     0
 42
2.5
  3
txt
  4

  0
STYLE
  5
432
330
410
100
AcDbSymbolTableRecord
100
AcDbTextStyleTableRecord
  2
BIGFONT
 70
     0
 40
10.0
 41
0.8
 50
0.0
 71
     0
 42
10.0
  3
txt.shx
  4
bigfont
  0
STYLE
  5
828
330
410
100
AcDbSymbolTableRecord
100
AcDbTextStyleTableRecord
  2

 70
     1
 40
0.0
 41
1.0
 50
0.0
 71
     0
 42
2.5
  3
ltypeshp.shx
  4

  0
STYLE
  5
82D
330
410
100
AcDbSymbolTableRecord
100
AcDbTextStyleTableRecord
  2
ACANSTS
 70
     0
 40
1.0
 41
1.0
 50
0.0
 71
     0
 42
2.5
  3
romans.shx
  4
extfont.shx
  0
STYLE
  5
839
330
410
100
AcDbSymbolTableRecord
100
AcDbTextStyleTableRecord
  2
ACANSGDT
 70
     0
 40
0.0
 41
1.0
 50
0.0
 71
     0
 42
2.5
  3
amgdtans.shx
  4

  0
ENDTAB
  0
TABLE
  2
VIEW
  5
413
330
0
100
AcDbSymbolTable
 70
     0
  0
ENDTAB
  0
TABLE
  2
UCS
  5
414
330
0
100
AcDbSymbolTable
 70
     0
  0
ENDTAB
  0
TABLE
  2
APPID
  5
416
330
0
100
AcDbSymbolTable
 70
    13
  0
APPID
  5
41F
330
416
100
AcDbSymbolTableRecord
100
AcDbRegAppTableRecord
  2
ACAD
 70
     0
  0
APPID
  5
757
330
416
100
AcDbSymbolTableRecord
100
AcDbRegAppTableRecord
  2
GENIUS_GENDIM_13
 70
     0
  0
APPID
  5
758
330
416
100
AcDbSymbolTableRecord
100
AcDbRegAppTableRecord
  2
GENIUS_GENDTOL_13
 70
     0
  0
APPID
  5
759
330
416
100
AcDbSymbolTableRecord
100
AcDbRegAppTableRecord
  2
GENIUS_GE3DTOL_13
 70
     0
  0
APPID
  5
75C
330
416
100
AcDbSymbolTableRecord
100
AcDbRegAppTableRecord
  2
MCAD_NO_VIS
 70
     0
  0
APPID
  5
75D
330
416
100
AcDbSymbolTableRecord
100
AcDbRegAppTableRecord
  2
ACAD_TEMP_GRAPHIC
 70
     0
  0
APPID
  5
78F
330
416
100
AcDbSymbolTableRecord
100
AcDbRegAppTableRecord
  2
AD_DRAW
 70
     0
  0
APPID
  5
792
330
416
100
AcDbSymbolTableRecord
100
AcDbRegAppTableRecord
  2
ACATTRIBSERVICES
 70
     0
  0
APPID
  5
7DE
330
416
100
AcDbSymbolTableRecord
100
AcDbRegAppTableRecord
  2
ASURF_PCURVE_APPNAME
 70
     0
  0
APPID
  5
7E3
330
416
100
AcDbSymbolTableRecord
100
AcDbRegAppTableRecord
  2
AMG_3D2D_5.0
 70
     0
  0
APPID
  5
80E
330
416
100
AcDbSymbolTableRecord
100
AcDbRegAppTableRecord
  2
DESIGNERASSEMBLIES
 70
     0
  0
APPID
  5
816
330
416
100
AcDbSymbolTableRecord
100
AcDbRegAppTableRecord
  2
ACADM_DIM_EDIT
 70
     0
  0
APPID
  5
817
330
416
100
AcDbSymbolTableRecord
100
AcDbRegAppTableRecord
  2
AMDT_DM_ADJ
 70
     0
  0
ENDTAB
  0
TABLE
  2
DIMSTYLE
  5
417
330
0
100
AcDbSymbolTable
 70
     7
100
AcDbDimStyleTable
 71
     1
340
433
  0
DIMSTYLE
105
433
330
417
100
AcDbSymbolTableRecord
100
AcDbDimStyleTableRecord
  2
STANDARD
 70
     0
274
     4
279
     2
284
     8
285
     8
286
     8
340
41E
  0
DIMSTYLE
105
840
330
417
100
AcDbSymbolTableRecord
100
AcDbDimStyleTableRecord
  2
AM_ANSI
 70
     0
  4
mm
 41
0.1
 42
0.05
 43
0.5
 44
0.1
 47
0.1
 48
0.1
 78
     7
 79
     2
140
0.12
141
0.0
146
0.71
147
0.06
176
   256
177
   256
178
     2
274
     4
284
     7
340
41E
371
    -1
372
    -1
  0
DIMSTYLE
105
841
330
417
100
AcDbSymbolTableRecord
100
AcDbDimStyleTableRecord
  2
AM_ANSI$3
 70
     0
  4
mm
 41
0.1
 42
0.05
 43
0.5
 44
0.1
 47
0.1
 48
0.1
 78
     7
 79
     2
140
0.12
141
0.0
146
0.71
147
0.06
176
   256
177
   256
178
     2
274
     4
284
     7
288
     1
289
     0
340
41E
371
    -1
372
    -1
  0
DIMSTYLE
105
842
330
417
100
AcDbSymbolTableRecord
100
AcDbDimStyleTableRecord
  2
AM_ANSI$4
 70
     0
  4
mm
 41
0.1
 42
0.05
 43
0.5
 44
0.1
 47
0.1
 48
0.1
 78
     7
 79
     2
140
0.12
141
0.0
146
0.71
147
0.06
176
   256
177
   256
178
     2
274
     4
284
     7
288
     1
289
     0
340
41E
371
    -1
372
    -1
  0
DIMSTYLE
105
843
330
417
100
AcDbSymbolTableRecord
100
AcDbDimStyleTableRecord
  2
AM_ANSI$7
 70
     0
  4
mm
 41
0.1
 42
0.05
 43
0.5
 44
0.1
 47
0.1
 48
0.1
 78
     7
 79
     2
140
0.24
141
0.0
146
0.71
147
0.06
176
   256
177
   256
178
     2
274
     4
284
     7
340
41E
371
    -1
372
    -1
  0
DIMSTYLE
105
844
330
417
100
AcDbSymbolTableRecord
100
AcDbDimStyleTableRecord
  2
AM_ANSI$SF
 70
     0
  4
mm
 41
0.1
 42
0.05
 43
0.5
 44
0.1
 47
0.1
 48
0.1
 75
     1
 76
     1
 78
     7
 79
     2
140
0.12
141
0.0
146
0.71
147
0.06
176
   256
177
   256
178
     2
274
     4
284
     7
340
41E
371
    -1
372
    -1
  0
DIMSTYLE
105
849
330
417
100
AcDbSymbolTableRecord
100
AcDbDimStyleTableRecord
  2
AM_ANSI$SH
 70
     0
  4
mm
 41
0.1
 42
0.05
 43
0.5
 44
0.1
 47
0.1
 48
0.1
 75
     1
 76
     1
 78
     7
 79
     2
140
0.12
141
0.0
146
0.71
147
0.06
173
     1
176
   256
177
   256
178
     2
274
     4
284
     7
340
41E
343
845
371
    -1
372
    -1
  0
ENDTAB
  0
TABLE
  2
BLOCK_RECORD
  5
40E
330
0
100
AcDbSymbolTable
 70
     6
  0
BLOCK_RECORD
  5
42B
102
{ACAD_XDICTIONARY
360
84D
102
}
330
40E
100
AcDbSymbolTableRecord
100
AcDbBlockTableRecord
  2
*Model_Space
340
42E
  0
BLOCK_RECORD
  5
427
330
40E
100
AcDbSymbolTableRecord
100
AcDbBlockTableRecord
  2
*Paper_Space
340
42A
  0
BLOCK_RECORD
  5
436
330
40E
100
AcDbSymbolTableRecord
100
AcDbBlockTableRecord
  2
$MODEL_SPACE
340
0
  0
BLOCK_RECORD
  5
439
330
40E
100
AcDbSymbolTableRecord
100
AcDbBlockTableRecord
  2
$PAPER_SPACE
340
0
  0
BLOCK_RECORD
  5
43C
330
40E
100
AcDbSymbolTableRecord
100
AcDbBlockTableRecord
  2
A$C0C13436D
340
0
  0
BLOCK_RECORD
  5
805
330
40E
100
AcDbSymbolTableRecord
100
AcDbBlockTableRecord
  2
*U3
340
0
  0
BLOCK_RECORD
  5
845
330
40E
100
AcDbSymbolTableRecord
100
AcDbBlockTableRecord
  2
GENAXEH
340
0
  0
BLOCK_RECORD
  5
85F
330
40E
100
AcDbSymbolTableRecord
100
AcDbBlockTableRecord
  2
*D5
340
0
  0
ENDTAB
  0
ENDSEC
  0
SECTION
  2
BLOCKS
  0
BLOCK
  5
42C
330
42B
100
AcDbEntity
  8
0
100
AcDbBlockBegin
  2
*Model_Space
 70
     0
 10
0.0
 20
0.0
 30
0.0
  3
*Model_Space
  1

  0
ENDBLK
  5
42D
330
42B
100
AcDbEntity
  8
0
100
AcDbBlockEnd
  0
BLOCK
  5
428
330
427
100
AcDbEntity
 67
     1
  8
0
100
AcDbBlockBegin
  2
*Paper_Space
 70
     0
 10
0.0
 20
0.0
 30
0.0
  3
*Paper_Space
  1

  0
ENDBLK
  5
429
330
427
100
AcDbEntity
 67
     1
  8
0
100
AcDbBlockEnd
  0
BLOCK
  5
437
330
436
100
AcDbEntity
  8
0
100
AcDbBlockBegin
  2
$MODEL_SPACE
 70
     0
 10
0.0
 20
0.0
 30
0.0
  3
$MODEL_SPACE
  1

  0
ENDBLK
  5
438
330
436
100
AcDbEntity
  8
0
100
AcDbBlockEnd
  0
BLOCK
  5
43A
330
439
100
AcDbEntity
  8
0
100
AcDbBlockBegin
  2
$PAPER_SPACE
 70
     0
 10
0.0
 20
0.0
 30
0.0
  3
$PAPER_SPACE
  1

  0
ENDBLK
  5
43B
330
439
100
AcDbEntity
  8
0
100
AcDbBlockEnd
  0
BLOCK
  5
43D
330
43C
100
AcDbEntity
  8
0
100
AcDbBlockBegin
  2
A$C0C13436D
 70
     0
 10
0.0
 20
0.0
 30
0.0
  3
A$C0C13436D
  1

  0
ARC
  5
43E
330
43C
100
AcDbEntity
  8
0
100
AcDbCircle
 10
55.0
 20
38.004234
 30
0.0
 40
1.0
100
AcDbArc
 50
180.0
 51
285.0428009999999
  0
LINE
  5
43F
330
43C
100
AcDbEntity
  8
0
100
AcDbLine
 10
54.73933399999999
 20
55.69962
 30
0.0
 11
102.7393339999999
 21
68.65961999999999
 31
0.0
  0
LINE
  5
440
330
43C
100
AcDbEntity
  8
1
100
AcDbLine
 10
8.0
 20
70.5
 30
0.0
 11
8.0
 21
0.0
 31
0.0
  0
LINE
  5
441
330
43C
100
AcDbEntity
  8
0
100
AcDbLine
 10
14.0
 20
33.5
 30
0.0
 11
14.0
 21
37.26708099999999
 31
0.0
  0
LINE
  5
442
330
43C
100
AcDbEntity
  8
0
100
AcDbLine
 10
2.0
 20
33.5
 30
0.0
 11
2.0
 21
37.26708099999999
 31
0.0
  0
LINE
  5
443
330
43C
100
AcDbEntity
  8
0
100
AcDbLine
 10
5.0
 20
33.5
 30
0.0
 11
5.0
 21
4.0
 31
0.0
  0
LINE
  5
444
330
43C
100
AcDbEntity
  8
0
100
AcDbLine
 10
5.5
 20
3.5
 30
0.0
 11
5.5
 21
32.5
 31
0.0
  0
LINE
  5
445
330
43C
100
AcDbEntity
  8
0
100
AcDbLine
 10
10.5
 20
3.5
 30
0.0
 11
10.5
 21
32.5
 31
0.0
  0
LINE
  5
446
330
43C
100
AcDbEntity
  8
0
100
AcDbLine
 10
11.0
 20
33.5
 30
0.0
 11
11.0
 21
4.0
 31
0.0
  0
LINE
  5
447
330
43C
100
AcDbEntity
  8
0
100
AcDbLine
 10
10.5
 20
3.5
 30
0.0
 11
8.0
 21
3.5
 31
0.0
  0
LINE
  5
448
330
43C
100
AcDbEntity
  8
0
100
AcDbLine
 10
11.0
 20
4.0
 30
0.0
 11
8.0
 21
4.0
 31
0.0
  0
LINE
  5
449
330
43C
100
AcDbEntity
  8
0
100
AcDbLine
 10
5.5
 20
3.5
 30
0.0
 11
8.0
 21
3.5
 31
0.0
  0
LINE
  5
44A
330
43C
100
AcDbEntity
  8
0
100
AcDbLine
 10
5.0
 20
4.0
 30
0.0
 11
8.0
 21
4.0
 31
0.0
  0
LINE
  5
44B
330
43C
100
AcDbEntity
  8
0
100
AcDbLine
 10
5.0
 20
4.0
 30
0.0
 11
5.5
 21
3.5
 31
0.0
  0
LINE
  5
44C
330
43C
100
AcDbEntity
  8
0
100
AcDbLine
 10
11.0
 20
4.0
 30
0.0
 11
10.5
 21
3.5
 31
0.0
  0
LINE
  5
44D
330
43C
100
AcDbEntity
  8
0
100
AcDbLine
 10
11.0
 20
32.5
 30
0.0
 11
8.0
 21
32.5
 31
0.0
  0
LINE
  5
44E
330
43C
100
AcDbEntity
  8
0
100
AcDbLine
 10
8.0
 20
33.5
 30
0.0
 11
14.0
 21
33.5
 31
0.0
  0
LINE
  5
44F
330
43C
100
AcDbEntity
  8
0
100
AcDbLine
 10
8.0
 20
33.5
 30
0.0
 11
2.0
 21
33.5
 31
0.0
  0
LINE
  5
450
330
43C
100
AcDbEntity
  8
0
100
AcDbLine
 10
5.0
 20
32.5
 30
0.0
 11
8.0
 21
32.5
 31
0.0
  0
LINE
  5
451
330
43C
100
AcDbEntity
  8
0
100
AcDbLine
 10
16.0
 20
38.5
 30
0.0
 11
16.0
 21
57.5
 31
0.0
  0
ARC
  5
452
330
43C
100
AcDbEntity
  8
0
100
AcDbCircle
 10
8.0
 20
65.0
 30
0.0
 40
8.5
100
AcDbArc
 50
241.9275129999999
 51
298.072487
  0
POLYLINE
  5
453
330
43C
100
AcDbEntity
  8
0
100
AcDb3dPolyline
 66
     1
 10
0.0
 20
0.0
 30
0.0
 70
     8
  0
VERTEX
  5
454
330
453
100
AcDbEntity
  8
0
100
AcDbVertex
100
AcDb3dPolylineVertex
 10
0.267585
 20
58.0129
 30
0.0
 70
    32
  0
VERTEX
  5
455
330
453
100
AcDbEntity
  8
0
100
AcDbVertex
100
AcDb3dPolylineVertex
 10
0.212081
 20
57.9575
 30
0.0
 70
    32
  0
VERTEX
  5
456
330
453
100
AcDbEntity
  8
0
100
AcDbVertex
100
AcDb3dPolylineVertex
 10
0.162945
 20
57.9016
 30
0.0
 70
    32
  0
VERTEX
  5
457
330
453
100
AcDbEntity
  8
0
100
AcDbVertex
100
AcDb3dPolylineVertex
 10
0.120218
 20
57.84539999999999
 30
0.0
 70
    32
  0
VERTEX
  5
458
330
453
100
AcDbEntity
  8
0
100
AcDbVertex
100
AcDb3dPolylineVertex
 10
0.0839342
 20
57.789
 30
0.0
 70
    32
  0
VERTEX
  5
459
330
453
100
AcDbEntity
  8
0
100
AcDbVertex
100
AcDb3dPolylineVertex
 10
0.0541232
 20
57.7323
 30
0.0
 70
    32
  0
VERTEX
  5
45A
330
453
100
AcDbEntity
  8
0
100
AcDbVertex
100
AcDb3dPolylineVertex
 10
0.0308095
 20
57.6754
 30
0.0
 70
    32
  0
VERTEX
  5
45B
330
453
100
AcDbEntity
  8
0
100
AcDbVertex
100
AcDb3dPolylineVertex
 10
0.0140121
 20
57.61829999999999
 30
0.0
 70
    32
  0
VERTEX
  5
45C
330
453
100
AcDbEntity
  8
0
100
AcDbVertex
100
AcDb3dPolylineVertex
 10
0.00374481
 20
57.5612
 30
0.0
 70
    32
  0
VERTEX
  5
45D
330
453
100
AcDbEntity
  8
0
100
AcDbVertex
100
AcDb3dPolylineVertex
 10
0.0000160367
 20
57.50399999999999
 30
0.0
 70
    32
  0
VERTEX
  5
45E
330
453
100
AcDbEntity
  8
0
100
AcDbVertex
100
AcDb3dPolylineVertex
 10
0.00282881
 20
57.4468
 30
0.0
 70
    32
  0
VERTEX
  5
45F
330
453
100
AcDbEntity
  8
0
100
AcDbVertex
100
AcDb3dPolylineVertex
 10
0.0121808
 20
57.3897
 30
0.0
 70
    32
  0
VERTEX
  5
460
330
453
100
AcDbEntity
  8
0
100
AcDbVertex
100
AcDb3dPolylineVertex
 10
0.0280644
 20
57.3326
 30
0.0
 70
    32
  0
VERTEX
  5
461
330
453
100
AcDbEntity
  8
0
100
AcDbVertex
100
AcDb3dPolylineVertex
 10
0.0504667
 20
57.2757
 30
0.0
 70
    32
  0
VERTEX
  5
462
330
453
100
AcDbEntity
  8
0
100
AcDbVertex
100
AcDb3dPolylineVertex
 10
0.0793692
 20
57.219
 30
0.0
 70
    32
  0
VERTEX
  5
463
330
453
100
AcDbEntity
  8
0
100
AcDbVertex
100
AcDb3dPolylineVertex
 10
0.114748
 20
57.1625
 30
0.0
 70
    32
  0
VERTEX
  5
464
330
453
100
AcDbEntity
  8
0
100
AcDbVertex
100
AcDb3dPolylineVertex
 10
0.156575
 20
57.1062
 30
0.0
 70
    32
  0
VERTEX
  5
465
330
453
100
AcDbEntity
  8
0
100
AcDbVertex
100
AcDb3dPolylineVertex
 10
0.204816
 20
57.0503
 30
0.0
 70
    32
  0
VERTEX
  5
466
330
453
100
AcDbEntity
  8
0
100
AcDbVertex
100
AcDb3dPolylineVertex
 10
0.25943
 20
56.9948
 30
0.0
 70
    32
  0
VERTEX
  5
467
330
453
100
AcDbEntity
  8
0
100
AcDbVertex
100
AcDb3dPolylineVertex
 10
0.320374
 20
56.9397
 30
0.0
 70
    32
  0
VERTEX
  5
468
330
453
100
AcDbEntity
  8
0
100
AcDbVertex
100
AcDb3dPolylineVertex
 10
0.387598
 20
56.885
 30
0.0
 70
    32
  0
VERTEX
  5
469
330
453
100
AcDbEntity
  8
0
100
AcDbVertex
100
AcDb3dPolylineVertex
 10
0.461046
 20
56.83089999999999
 30
0.0
 70
    32
  0
VERTEX
  5
46A
330
453
100
AcDbEntity
  8
0
100
AcDbVertex
100
AcDb3dPolylineVertex
 10
0.540659
 20
56.7772
 30
0.0
 70
    32
  0
VERTEX
  5
46B
330
453
100
AcDbEntity
  8
0
100
AcDbVertex
100
AcDb3dPolylineVertex
 10
0.626371
 20
56.7242
 30
0.0
 70
    32
  0
VERTEX
  5
46C
330
453
100
AcDbEntity
  8
0
100
AcDbVertex
100
AcDb3dPolylineVertex
 10
0.718112
 20
56.6718
 30
0.0
 70
    32
  0
VERTEX
  5
46D
330
453
100
AcDbEntity
  8
0
100
AcDbVertex
100
AcDb3dPolylineVertex
 10
0.8158079999999999
 20
56.6201
 30
0.0
 70
    32
  0
VERTEX
  5
46E
330
453
100
AcDbEntity
  8
0
100
AcDbVertex
100
AcDb3dPolylineVertex
 10
0.9193789999999999
 20
56.56909999999999
 30
0.0
 70
    32
  0
VERTEX
  5
46F
330
453
100
AcDbEntity
  8
0
100
AcDbVertex
100
AcDb3dPolylineVertex
 10
1.028739999999999
 20
56.5189
 30
0.0
 70
    32
  0
VERTEX
  5
470
330
453
100
AcDbEntity
  8
0
100
AcDbVertex
100
AcDb3dPolylineVertex
 10
1.143799999999999
 20
56.4695
 30
0.0
 70
    32
  0
VERTEX
  5
471
330
453
100
AcDbEntity
  8
0
100
AcDbVertex
100
AcDb3dPolylineVertex
 10
1.264469999999999
 20
56.4209
 30
0.0
 70
    32
  0
VERTEX
  5
472
330
453
100
AcDbEntity
  8
0
100
AcDbVertex
100
AcDb3dPolylineVertex
 10
1.390639999999999
 20
56.37319999999999
 30
0.0
 70
    32
  0
VERTEX
  5
473
330
453
100
AcDbEntity
  8
0
100
AcDbVertex
100
AcDb3dPolylineVertex
 10
1.52222
 20
56.3264
 30
0.0
 70
    32
  0
VERTEX
  5
474
330
453
100
AcDbEntity
  8
0
100
AcDbVertex
100
AcDb3dPolylineVertex
 10
1.6591
 20
56.2806
 30
0.0
 70
    32
  0
VERTEX
  5
475
330
453
100
AcDbEntity
  8
0
100
AcDbVertex
100
AcDb3dPolylineVertex
 10
1.801159999999999
 20
56.2357
 30
0.0
 70
    32
  0
VERTEX
  5
476
330
453
100
AcDbEntity
  8
0
100
AcDbVertex
100
AcDb3dPolylineVertex
 10
1.94829
 20
56.19189999999999
 30
0.0
 70
    32
  0
VERTEX
  5
477
330
453
100
AcDbEntity
  8
0
100
AcDbVertex
100
AcDb3dPolylineVertex
 10
2.100359999999999
 20
56.1492
 30
0.0
 70
    32
  0
VERTEX
  5
478
330
453
100
AcDbEntity
  8
0
100
AcDbVertex
100
AcDb3dPolylineVertex
 10
2.25727
 20
56.10759999999999
 30
0.0
 70
    32
  0
VERTEX
  5
479
330
453
100
AcDbEntity
  8
0
100
AcDbVertex
100
AcDb3dPolylineVertex
 10
2.41886
 20
56.0671
 30
0.0
 70
    32
  0
VERTEX
  5
47A
330
453
100
AcDbEntity
  8
0
100
AcDbVertex
100
AcDb3dPolylineVertex
 10
2.58502
 20
56.0278
 30
0.0
 70
    32
  0
VERTEX
  5
47B
330
453
100
AcDbEntity
  8
0
100
AcDbVertex
100
AcDb3dPolylineVertex
 10
2.755609999999999
 20
55.9897
 30
0.0
 70
    32
  0
VERTEX
  5
47C
330
453
100
AcDbEntity
  8
0
100
AcDbVertex
100
AcDb3dPolylineVertex
 10
2.93049
 20
55.9528
 30
0.0
 70
    32
  0
VERTEX
  5
47D
330
453
100
AcDbEntity
  8
0
100
AcDbVertex
100
AcDb3dPolylineVertex
 10
3.109509999999999
 20
55.9172
 30
0.0
 70
    32
  0
VERTEX
  5
47E
330
453
100
AcDbEntity
  8
0
100
AcDbVertex
100
AcDb3dPolylineVertex
 10
3.29254
 20
55.8829
 30
0.0
 70
    32
  0
VERTEX
  5
47F
330
453
100
AcDbEntity
  8
0
100
AcDbVertex
100
AcDb3dPolylineVertex
 10
3.479409999999999
 20
55.8499
 30
0.0
 70
    32
  0
VERTEX
  5
480
330
453
100
AcDbEntity
  8
0
100
AcDbVertex
100
AcDb3dPolylineVertex
 10
3.669969999999999
 20
55.8183
 30
0.0
 70
    32
  0
VERTEX
  5
481
330
453
100
AcDbEntity
  8
0
100
AcDbVertex
100
AcDb3dPolylineVertex
 10
3.86408
 20
55.788
 30
0.0
 70
    32
  0
VERTEX
  5
482
330
453
100
AcDbEntity
  8
0
100
AcDbVertex
100
AcDb3dPolylineVertex
 10
4.061569999999999
 20
55.75919999999999
 30
0.0
 70
    32
  0
VERTEX
  5
483
330
453
100
AcDbEntity
  8
0
100
AcDbVertex
100
AcDb3dPolylineVertex
 10
4.26228
 20
55.7317
 30
0.0
 70
    32
  0
VERTEX
  5
484
330
453
100
AcDbEntity
  8
0
100
AcDbVertex
100
AcDb3dPolylineVertex
 10
4.46605
 20
55.7057
 30
0.0
 70
    32
  0
VERTEX
  5
485
330
453
100
AcDbEntity
  8
0
100
AcDbVertex
100
AcDb3dPolylineVertex
 10
4.672709999999999
 20
55.6812
 30
0.0
 70
    32
  0
VERTEX
  5
486
330
453
100
AcDbEntity
  8
0
100
AcDbVertex
100
AcDb3dPolylineVertex
 10
4.88208
 20
55.65809999999999
 30
0.0
 70
    32
  0
VERTEX
  5
487
330
453
100
AcDbEntity
  8
0
100
AcDbVertex
100
AcDb3dPolylineVertex
 10
5.094009999999999
 20
55.6366
 30
0.0
 70
    32
  0
VERTEX
  5
488
330
453
100
AcDbEntity
  8
0
100
AcDbVertex
100
AcDb3dPolylineVertex
 10
5.308309999999999
 20
55.61659999999999
 30
0.0
 70
    32
  0
VERTEX
  5
489
330
453
100
AcDbEntity
  8
0
100
AcDbVertex
100
AcDb3dPolylineVertex
 10
5.52482
 20
55.5981
 30
0.0
 70
    32
  0
VERTEX
  5
48A
330
453
100
AcDbEntity
  8
0
100
AcDbVertex
100
AcDb3dPolylineVertex
 10
5.74335
 20
55.5812
 30
0.0
 70
    32
  0
VERTEX
  5
48B
330
453
100
AcDbEntity
  8
0
100
AcDbVertex
100
AcDb3dPolylineVertex
 10
5.963719999999999
 20
55.56589999999999
 30
0.0
 70
    32
  0
VERTEX
  5
48C
330
453
100
AcDbEntity
  8
0
100
AcDbVertex
100
AcDb3dPolylineVertex
 10
6.18576
 20
55.5521
 30
0.0
 70
    32
  0
VERTEX
  5
48D
330
453
100
AcDbEntity
  8
0
100
AcDbVertex
100
AcDb3dPolylineVertex
 10
6.409279999999999
 20
55.5399
 30
0.0
 70
    32
  0
VERTEX
  5
48E
330
453
100
AcDbEntity
  8
0
100
AcDbVertex
100
AcDb3dPolylineVertex
 10
6.6341
 20
55.5294
 30
0.0
 70
    32
  0
VERTEX
  5
48F
330
453
100
AcDbEntity
  8
0
100
AcDbVertex
100
AcDb3dPolylineVertex
 10
6.860039999999999
 20
55.5204
 30
0.0
 70
    32
  0
VERTEX
  5
490
330
453
100
AcDbEntity
  8
0
100
AcDbVertex
100
AcDb3dPolylineVertex
 10
7.08691
 20
55.5131
 30
0.0
 70
    32
  0
VERTEX
  5
491
330
453
100
AcDbEntity
  8
0
100
AcDbVertex
100
AcDb3dPolylineVertex
 10
7.31453
 20
55.5074
 30
0.0
 70
    32
  0
VERTEX
  5
492
330
453
100
AcDbEntity
  8
0
100
AcDbVertex
100
AcDb3dPolylineVertex
 10
7.54271
 20
55.5033
 30
0.0
 70
    32
  0
VERTEX
  5
493
330
453
100
AcDbEntity
  8
0
100
AcDbVertex
100
AcDb3dPolylineVertex
 10
7.77126
 20
55.5008
 30
0.0
 70
    32
  0
VERTEX
  5
494
330
453
100
AcDbEntity
  8
0
100
AcDbVertex
100
AcDb3dPolylineVertex
 10
8.0
 20
55.5
 30
0.0
 70
    32
  0
VERTEX
  5
495
330
453
100
AcDbEntity
  8
0
100
AcDbVertex
100
AcDb3dPolylineVertex
 10
8.22874
 20
55.5008
 30
0.0
 70
    32
  0
VERTEX
  5
496
330
453
100
AcDbEntity
  8
0
100
AcDbVertex
100
AcDb3dPolylineVertex
 10
8.457289999999998
 20
55.5033
 30
0.0
 70
    32
  0
VERTEX
  5
497
330
453
100
AcDbEntity
  8
0
100
AcDbVertex
100
AcDb3dPolylineVertex
 10
8.68547
 20
55.5074
 30
0.0
 70
    32
  0
VERTEX
  5
498
330
453
100
AcDbEntity
  8
0
100
AcDbVertex
100
AcDb3dPolylineVertex
 10
8.913089999999998
 20
55.5131
 30
0.0
 70
    32
  0
VERTEX
  5
499
330
453
100
AcDbEntity
  8
0
100
AcDbVertex
100
AcDb3dPolylineVertex
 10
9.13996
 20
55.5204
 30
0.0
 70
    32
  0
VERTEX
  5
49A
330
453
100
AcDbEntity
  8
0
100
AcDbVertex
100
AcDb3dPolylineVertex
 10
9.365899999999999
 20
55.5294
 30
0.0
 70
    32
  0
VERTEX
  5
49B
330
453
100
AcDbEntity
  8
0
100
AcDbVertex
100
AcDb3dPolylineVertex
 10
9.590719999999999
 20
55.5399
 30
0.0
 70
    32
  0
VERTEX
  5
49C
330
453
100
AcDbEntity
  8
0
100
AcDbVertex
100
AcDb3dPolylineVertex
 10
9.814239999999999
 20
55.5521
 30
0.0
 70
    32
  0
VERTEX
  5
49D
330
453
100
AcDbEntity
  8
0
100
AcDbVertex
100
AcDb3dPolylineVertex
 10
10.0363
 20
55.56589999999999
 30
0.0
 70
    32
  0
VERTEX
  5
49E
330
453
100
AcDbEntity
  8
0
100
AcDbVertex
100
AcDb3dPolylineVertex
 10
10.2567
 20
55.5812
 30
0.0
 70
    32
  0
VERTEX
  5
49F
330
453
100
AcDbEntity
  8
0
100
AcDbVertex
100
AcDb3dPolylineVertex
 10
10.4752
 20
55.5981
 30
0.0
 70
    32
  0
VERTEX
  5
4A0
330
453
100
AcDbEntity
  8
0
100
AcDbVertex
100
AcDb3dPolylineVertex
 10
10.6917
 20
55.61659999999999
 30
0.0
 70
    32
  0
VERTEX
  5
4A1
330
453
100
AcDbEntity
  8
0
100
AcDbVertex
100
AcDb3dPolylineVertex
 10
10.906
 20
55.6366
 30
0.0
 70
    32
  0
VERTEX
  5
4A2
330
453
100
AcDbEntity
  8
0
100
AcDbVertex
100
AcDb3dPolylineVertex
 10
11.1179
 20
55.65809999999999
 30
0.0
 70
    32
  0
VERTEX
  5
4A3
330
453
100
AcDbEntity
  8
0
100
AcDbVertex
100
AcDb3dPolylineVertex
 10
11.3273
 20
55.6812
 30
0.0
 70
    32
  0
VERTEX
  5
4A4
330
453
100
AcDbEntity
  8
0
100
AcDbVertex
100
AcDb3dPolylineVertex
 10
11.53389999999999
 20
55.7057
 30
0.0
 70
    32
  0
VERTEX
  5
4A5
330
453
100
AcDbEntity
  8
0
100
AcDbVertex
100
AcDb3dPolylineVertex
 10
11.73769999999999
 20
55.7317
 30
0.0
 70
    32
  0
VERTEX
  5
4A6
330
453
100
AcDbEntity
  8
0
100
AcDbVertex
100
AcDb3dPolylineVertex
 10
11.9384
 20
55.75919999999999
 30
0.0
 70
    32
  0
VERTEX
  5
4A7
330
453
100
AcDbEntity
  8
0
100
AcDbVertex
100
AcDb3dPolylineVertex
 10
12.13589999999999
 20
55.788
 30
0.0
 70
    32
  0
VERTEX
  5
4A8
330
453
100
AcDbEntity
  8
0
100
AcDbVertex
100
AcDb3dPolylineVertex
 10
12.33
 20
55.8183
 30
0.0
 70
    32
  0
VERTEX
  5
4A9
330
453
100
AcDbEntity
  8
0
100
AcDbVertex
100
AcDb3dPolylineVertex
 10
12.5206
 20
55.8499
 30
0.0
 70
    32
  0
VERTEX
  5
4AA
330
453
100
AcDbEntity
  8
0
100
AcDbVertex
100
AcDb3dPolylineVertex
 10
12.7075
 20
55.8829
 30
0.0
 70
    32
  0
VERTEX
  5
4AB
330
453
100
AcDbEntity
  8
0
100
AcDbVertex
100
AcDb3dPolylineVertex
 10
12.8905
 20
55.9172
 30
0.0
 70
    32
  0
VERTEX
  5
4AC
330
453
100
AcDbEntity
  8
0
100
AcDbVertex
100
AcDb3dPolylineVertex
 10
13.0695
 20
55.9528
 30
0.0
 70
    32
  0
VERTEX
  5
4AD
330
453
100
AcDbEntity
  8
0
100
AcDbVertex
100
AcDb3dPolylineVertex
 10
13.2444
 20
55.9897
 30
0.0
 70
    32
  0
VERTEX
  5
4AE
330
453
100
AcDbEntity
  8
0
100
AcDbVertex
100
AcDb3dPolylineVertex
 10
13.41499999999999
 20
56.0278
 30
0.0
 70
    32
  0
VERTEX
  5
4AF
330
453
100
AcDbEntity
  8
0
100
AcDbVertex
100
AcDb3dPolylineVertex
 10
13.58109999999999
 20
56.0671
 30
0.0
 70
    32
  0
VERTEX
  5
4B0
330
453
100
AcDbEntity
  8
0
100
AcDbVertex
100
AcDb3dPolylineVertex
 10
13.7427
 20
56.10759999999999
 30
0.0
 70
    32
  0
VERTEX
  5
4B1
330
453
100
AcDbEntity
  8
0
100
AcDbVertex
100
AcDb3dPolylineVertex
 10
13.8996
 20
56.1492
 30
0.0
 70
    32
  0
VERTEX
  5
4B2
330
453
100
AcDbEntity
  8
0
100
AcDbVertex
100
AcDb3dPolylineVertex
 10
14.0517
 20
56.19189999999999
 30
0.0
 70
    32
  0
VERTEX
  5
4B3
330
453
100
AcDbEntity
  8
0
100
AcDbVertex
100
AcDb3dPolylineVertex
 10
14.1988
 20
56.2357
 30
0.0
 70
    32
  0
VERTEX
  5
4B4
330
453
100
AcDbEntity
  8
0
100
AcDbVertex
100
AcDb3dPolylineVertex
 10
14.3409
 20
56.2806
 30
0.0
 70
    32
  0
VERTEX
  5
4B5
330
453
100
AcDbEntity
  8
0
100
AcDbVertex
100
AcDb3dPolylineVertex
 10
14.4778
 20
56.3264
 30
0.0
 70
    32
  0
VERTEX
  5
4B6
330
453
100
AcDbEntity
  8
0
100
AcDbVertex
100
AcDb3dPolylineVertex
 10
14.6094
 20
56.37319999999999
 30
0.0
 70
    32
  0
VERTEX
  5
4B7
330
453
100
AcDbEntity
  8
0
100
AcDbVertex
100
AcDb3dPolylineVertex
 10
14.7355
 20
56.4209
 30
0.0
 70
    32
  0
VERTEX
  5
4B8
330
453
100
AcDbEntity
  8
0
100
AcDbVertex
100
AcDb3dPolylineVertex
 10
14.85619999999999
 20
56.4695
 30
0.0
 70
    32
  0
VERTEX
  5
4B9
330
453
100
AcDbEntity
  8
0
100
AcDbVertex
100
AcDb3dPolylineVertex
 10
14.9713
 20
56.5189
 30
0.0
 70
    32
  0
VERTEX
  5
4BA
330
453
100
AcDbEntity
  8
0
100
AcDbVertex
100
AcDb3dPolylineVertex
 10
15.0806
 20
56.56909999999999
 30
0.0
 70
    32
  0
VERTEX
  5
4BB
330
453
100
AcDbEntity
  8
0
100
AcDbVertex
100
AcDb3dPolylineVertex
 10
15.1842
 20
56.6201
 30
0.0
 70
    32
  0
VERTEX
  5
4BC
330
453
100
AcDbEntity
  8
0
100
AcDbVertex
100
AcDb3dPolylineVertex
 10
15.2819
 20
56.6718
 30
0.0
 70
    32
  0
VERTEX
  5
4BD
330
453
100
AcDbEntity
  8
0
100
AcDbVertex
100
AcDb3dPolylineVertex
 10
15.3736
 20
56.7242
 30
0.0
 70
    32
  0
VERTEX
  5
4BE
330
453
100
AcDbEntity
  8
0
100
AcDbVertex
100
AcDb3dPolylineVertex
 10
15.4593
 20
56.7772
 30
0.0
 70
    32
  0
VERTEX
  5
4BF
330
453
100
AcDbEntity
  8
0
100
AcDbVertex
100
AcDb3dPolylineVertex
 10
15.539
 20
56.83089999999999
 30
0.0
 70
    32
  0
VERTEX
  5
4C0
330
453
100
AcDbEntity
  8
0
100
AcDbVertex
100
AcDb3dPolylineVertex
 10
15.61239999999999
 20
56.885
 30
0.0
 70
    32
  0
VERTEX
  5
4C1
330
453
100
AcDbEntity
  8
0
100
AcDbVertex
100
AcDb3dPolylineVertex
 10
15.6796
 20
56.9397
 30
0.0
 70
    32
  0
VERTEX
  5
4C2
330
453
100
AcDbEntity
  8
0
100
AcDbVertex
100
AcDb3dPolylineVertex
 10
15.7406
 20
56.9948
 30
0.0
 70
    32
  0
VERTEX
  5
4C3
330
453
100
AcDbEntity
  8
0
100
AcDbVertex
100
AcDb3dPolylineVertex
 10
15.7952
 20
57.0503
 30
0.0
 70
    32
  0
VERTEX
  5
4C4
330
453
100
AcDbEntity
  8
0
100
AcDbVertex
100
AcDb3dPolylineVertex
 10
15.8434
 20
57.1062
 30
0.0
 70
    32
  0
VERTEX
  5
4C5
330
453
100
AcDbEntity
  8
0
100
AcDbVertex
100
AcDb3dPolylineVertex
 10
15.8853
 20
57.1625
 30
0.0
 70
    32
  0
VERTEX
  5
4C6
330
453
100
AcDbEntity
  8
0
100
AcDbVertex
100
AcDb3dPolylineVertex
 10
15.9206
 20
57.219
 30
0.0
 70
    32
  0
VERTEX
  5
4C7
330
453
100
AcDbEntity
  8
0
100
AcDbVertex
100
AcDb3dPolylineVertex
 10
15.9495
 20
57.2757
 30
0.0
 70
    32
  0
VERTEX
  5
4C8
330
453
100
AcDbEntity
  8
0
100
AcDbVertex
100
AcDb3dPolylineVertex
 10
15.9719
 20
57.3326
 30
0.0
 70
    32
  0
VERTEX
  5
4C9
330
453
100
AcDbEntity
  8
0
100
AcDbVertex
100
AcDb3dPolylineVertex
 10
15.9878
 20
57.3897
 30
0.0
 70
    32
  0
VERTEX
  5
4CA
330
453
100
AcDbEntity
  8
0
100
AcDbVertex
100
AcDb3dPolylineVertex
 10
15.9972
 20
57.4468
 30
0.0
 70
    32
  0
VERTEX
  5
4CB
330
453
100
AcDbEntity
  8
0
100
AcDbVertex
100
AcDb3dPolylineVertex
 10
16.0
 20
57.50399999999999
 30
0.0
 70
    32
  0
VERTEX
  5
4CC
330
453
100
AcDbEntity
  8
0
100
AcDbVertex
100
AcDb3dPolylineVertex
 10
15.9963
 20
57.5612
 30
0.0
 70
    32
  0
VERTEX
  5
4CD
330
453
100
AcDbEntity
  8
0
100
AcDbVertex
100
AcDb3dPolylineVertex
 10
15.986
 20
57.61829999999999
 30
0.0
 70
    32
  0
VERTEX
  5
4CE
330
453
100
AcDbEntity
  8
0
100
AcDbVertex
100
AcDb3dPolylineVertex
 10
15.9692
 20
57.6754
 30
0.0
 70
    32
  0
VERTEX
  5
4CF
330
453
100
AcDbEntity
  8
0
100
AcDbVertex
100
AcDb3dPolylineVertex
 10
15.9459
 20
57.7323
 30
0.0
 70
    32
  0
VERTEX
  5
4D0
330
453
100
AcDbEntity
  8
0
100
AcDbVertex
100
AcDb3dPolylineVertex
 10
15.9161
 20
57.789
 30
0.0
 70
    32
  0
VERTEX
  5
4D1
330
453
100
AcDbEntity
  8
0
100
AcDbVertex
100
AcDb3dPolylineVertex
 10
15.87979999999999
 20
57.84539999999999
 30
0.0
 70
    32
  0
VERTEX
  5
4D2
330
453
100
AcDbEntity
  8
0
100
AcDbVertex
100
AcDb3dPolylineVertex
 10
15.83709999999999
 20
57.9016
 30
0.0
 70
    32
  0
VERTEX
  5
4D3
330
453
100
AcDbEntity
  8
0
100
AcDbVertex
100
AcDb3dPolylineVertex
 10
15.7879
 20
57.9575
 30
0.0
 70
    32
  0
VERTEX
  5
4D4
330
453
100
AcDbEntity
  8
0
100
AcDbVertex
100
AcDb3dPolylineVertex
 10
15.7324
 20
58.0129
 30
0.0
 70
    32
  0
SEQEND
  5
4D5
330
453
100
AcDbEntity
  8
0
  0
LINE
  5
4D6
330
43C
100
AcDbEntity
  8
0
100
AcDbLine
 10
0.0
 20
38.5
 30
0.0
 11
0.0
 21
57.5
 31
0.0
  0
POLYLINE
  5
4D7
330
43C
100
AcDbEntity
  8
0
100
AcDb3dPolyline
 66
     1
 10
0.0
 20
0.0
 30
0.0
 70
     8
  0
VERTEX
  5
4D8
330
4D7
100
AcDbEntity
  8
0
100
AcDbVertex
100
AcDb3dPolylineVertex
 10
0.0
 20
38.5
 30
0.0
 70
    32
  0
VERTEX
  5
4D9
330
4D7
100
AcDbEntity
  8
0
100
AcDbVertex
100
AcDb3dPolylineVertex
 10
0.00240945
 20
38.4543
 30
0.0
 70
    32
  0
VERTEX
  5
4DA
330
4D7
100
AcDbEntity
  8
0
100
AcDbVertex
100
AcDb3dPolylineVertex
 10
0.00963635
 20
38.40849999999999
 30
0.0
 70
    32
  0
VERTEX
  5
4DB
330
4D7
100
AcDbEntity
  8
0
100
AcDbVertex
100
AcDb3dPolylineVertex
 10
0.0216763
 20
38.3629
 30
0.0
 70
    32
  0
VERTEX
  5
4DC
330
4D7
100
AcDbEntity
  8
0
100
AcDbVertex
100
AcDb3dPolylineVertex
 10
0.0385222
 20
38.3173
 30
0.0
 70
    32
  0
VERTEX
  5
4DD
330
4D7
100
AcDbEntity
  8
0
100
AcDbVertex
100
AcDb3dPolylineVertex
 10
0.0601637
 20
38.2718
 30
0.0
 70
    32
  0
VERTEX
  5
4DE
330
4D7
100
AcDbEntity
  8
0
100
AcDbVertex
100
AcDb3dPolylineVertex
 10
0.0865879
 20
38.2265
 30
0.0
 70
    32
  0
VERTEX
  5
4DF
330
4D7
100
AcDbEntity
  8
0
100
AcDbVertex
100
AcDb3dPolylineVertex
 10
0.117779
 20
38.1813
 30
0.0
 70
    32
  0
VERTEX
  5
4E0
330
4D7
100
AcDbEntity
  8
0
100
AcDbVertex
100
AcDb3dPolylineVertex
 10
0.153718
 20
38.1364
 30
0.0
 70
    32
  0
VERTEX
  5
4E1
330
4D7
100
AcDbEntity
  8
0
100
AcDbVertex
100
AcDb3dPolylineVertex
 10
0.194383
 20
38.0916
 30
0.0
 70
    32
  0
VERTEX
  5
4E2
330
4D7
100
AcDbEntity
  8
0
100
AcDbVertex
100
AcDb3dPolylineVertex
 10
0.23975
 20
38.0471
 30
0.0
 70
    32
  0
VERTEX
  5
4E3
330
4D7
100
AcDbEntity
  8
0
100
AcDbVertex
100
AcDb3dPolylineVertex
 10
0.2897909999999999
 20
38.0028
 30
0.0
 70
    32
  0
VERTEX
  5
4E4
330
4D7
100
AcDbEntity
  8
0
100
AcDbVertex
100
AcDb3dPolylineVertex
 10
0.344477
 20
37.95889999999999
 30
0.0
 70
    32
  0
VERTEX
  5
4E5
330
4D7
100
AcDbEntity
  8
0
100
AcDbVertex
100
AcDb3dPolylineVertex
 10
0.403775
 20
37.9153
 30
0.0
 70
    32
  0
VERTEX
  5
4E6
330
4D7
100
AcDbEntity
  8
0
100
AcDbVertex
100
AcDb3dPolylineVertex
 10
0.4676470000000001
 20
37.872
 30
0.0
 70
    32
  0
VERTEX
  5
4E7
330
4D7
100
AcDbEntity
  8
0
100
AcDbVertex
100
AcDb3dPolylineVertex
 10
0.5360580000000001
 20
37.8292
 30
0.0
 70
    32
  0
VERTEX
  5
4E8
330
4D7
100
AcDbEntity
  8
0
100
AcDbVertex
100
AcDb3dPolylineVertex
 10
0.6089640000000001
 20
37.7867
 30
0.0
 70
    32
  0
VERTEX
  5
4E9
330
4D7
100
AcDbEntity
  8
0
100
AcDbVertex
100
AcDb3dPolylineVertex
 10
0.686322
 20
37.74459999999999
 30
0.0
 70
    32
  0
VERTEX
  5
4EA
330
4D7
100
AcDbEntity
  8
0
100
AcDbVertex
100
AcDb3dPolylineVertex
 10
0.768086
 20
37.703
 30
0.0
 70
    32
  0
VERTEX
  5
4EB
330
4D7
100
AcDbEntity
  8
0
100
AcDbVertex
100
AcDb3dPolylineVertex
 10
0.8542059999999999
 20
37.6619
 30
0.0
 70
    32
  0
VERTEX
  5
4EC
330
4D7
100
AcDbEntity
  8
0
100
AcDbVertex
100
AcDb3dPolylineVertex
 10
0.9446299999999999
 20
37.62129999999999
 30
0.0
 70
    32
  0
VERTEX
  5
4ED
330
4D7
100
AcDbEntity
  8
0
100
AcDbVertex
100
AcDb3dPolylineVertex
 10
1.039299999999999
 20
37.5812
 30
0.0
 70
    32
  0
VERTEX
  5
4EE
330
4D7
100
AcDbEntity
  8
0
100
AcDbVertex
100
AcDb3dPolylineVertex
 10
1.13817
 20
37.5417
 30
0.0
 70
    32
  0
VERTEX
  5
4EF
330
4D7
100
AcDbEntity
  8
0
100
AcDbVertex
100
AcDb3dPolylineVertex
 10
1.24117
 20
37.5028
 30
0.0
 70
    32
  0
VERTEX
  5
4F0
330
4D7
100
AcDbEntity
  8
0
100
AcDbVertex
100
AcDb3dPolylineVertex
 10
1.348239999999999
 20
37.46439999999999
 30
0.0
 70
    32
  0
VERTEX
  5
4F1
330
4D7
100
AcDbEntity
  8
0
100
AcDbVertex
100
AcDb3dPolylineVertex
 10
1.45932
 20
37.42669999999999
 30
0.0
 70
    32
  0
VERTEX
  5
4F2
330
4D7
100
AcDbEntity
  8
0
100
AcDbVertex
100
AcDb3dPolylineVertex
 10
1.57434
 20
37.3896
 30
0.0
 70
    32
  0
VERTEX
  5
4F3
330
4D7
100
AcDbEntity
  8
0
100
AcDbVertex
100
AcDb3dPolylineVertex
 10
1.693229999999999
 20
37.3532
 30
0.0
 70
    32
  0
VERTEX
  5
4F4
330
4D7
100
AcDbEntity
  8
0
100
AcDbVertex
100
AcDb3dPolylineVertex
 10
1.81592
 20
37.3175
 30
0.0
 70
    32
  0
VERTEX
  5
4F5
330
4D7
100
AcDbEntity
  8
0
100
AcDbVertex
100
AcDb3dPolylineVertex
 10
1.942329999999999
 20
37.2825
 30
0.0
 70
    32
  0
VERTEX
  5
4F6
330
4D7
100
AcDbEntity
  8
0
100
AcDbVertex
100
AcDb3dPolylineVertex
 10
2.072389999999999
 20
37.24819999999999
 30
0.0
 70
    32
  0
VERTEX
  5
4F7
330
4D7
100
AcDbEntity
  8
0
100
AcDbVertex
100
AcDb3dPolylineVertex
 10
2.20602
 20
37.2147
 30
0.0
 70
    32
  0
VERTEX
  5
4F8
330
4D7
100
AcDbEntity
  8
0
100
AcDbVertex
100
AcDb3dPolylineVertex
 10
2.34315
 20
37.182
 30
0.0
 70
    32
  0
VERTEX
  5
4F9
330
4D7
100
AcDbEntity
  8
0
100
AcDbVertex
100
AcDb3dPolylineVertex
 10
2.48368
 20
37.14999999999999
 30
0.0
 70
    32
  0
VERTEX
  5
4FA
330
4D7
100
AcDbEntity
  8
0
100
AcDbVertex
100
AcDb3dPolylineVertex
 10
2.62753
 20
37.11889999999999
 30
0.0
 70
    32
  0
VERTEX
  5
4FB
330
4D7
100
AcDbEntity
  8
0
100
AcDbVertex
100
AcDb3dPolylineVertex
 10
2.77462
 20
37.0886
 30
0.0
 70
    32
  0
VERTEX
  5
4FC
330
4D7
100
AcDbEntity
  8
0
100
AcDbVertex
100
AcDb3dPolylineVertex
 10
2.92485
 20
37.0591
 30
0.0
 70
    32
  0
VERTEX
  5
4FD
330
4D7
100
AcDbEntity
  8
0
100
AcDbVertex
100
AcDb3dPolylineVertex
 10
3.078149999999999
 20
37.0305
 30
0.0
 70
    32
  0
VERTEX
  5
4FE
330
4D7
100
AcDbEntity
  8
0
100
AcDbVertex
100
AcDb3dPolylineVertex
 10
3.23441
 20
37.0028
 30
0.0
 70
    32
  0
VERTEX
  5
4FF
330
4D7
100
AcDbEntity
  8
0
100
AcDbVertex
100
AcDb3dPolylineVertex
 10
3.39353
 20
36.97599999999999
 30
0.0
 70
    32
  0
VERTEX
  5
500
330
4D7
100
AcDbEntity
  8
0
100
AcDbVertex
100
AcDb3dPolylineVertex
 10
3.555439999999999
 20
36.95009999999999
 30
0.0
 70
    32
  0
VERTEX
  5
501
330
4D7
100
AcDbEntity
  8
0
100
AcDbVertex
100
AcDb3dPolylineVertex
 10
3.720019999999999
 20
36.9252
 30
0.0
 70
    32
  0
VERTEX
  5
502
330
4D7
100
AcDbEntity
  8
0
100
AcDbVertex
100
AcDb3dPolylineVertex
 10
3.88718
 20
36.9012
 30
0.0
 70
    32
  0
VERTEX
  5
503
330
4D7
100
AcDbEntity
  8
0
100
AcDbVertex
100
AcDb3dPolylineVertex
 10
4.056809999999999
 20
36.8782
 30
0.0
 70
    32
  0
VERTEX
  5
504
330
4D7
100
AcDbEntity
  8
0
100
AcDbVertex
100
AcDb3dPolylineVertex
 10
4.22883
 20
36.8561
 30
0.0
 70
    32
  0
VERTEX
  5
505
330
4D7
100
AcDbEntity
  8
0
100
AcDbVertex
100
AcDb3dPolylineVertex
 10
4.403109999999999
 20
36.835
 30
0.0
 70
    32
  0
VERTEX
  5
506
330
4D7
100
AcDbEntity
  8
0
100
AcDbVertex
100
AcDb3dPolylineVertex
 10
4.579559999999999
 20
36.81499999999999
 30
0.0
 70
    32
  0
VERTEX
  5
507
330
4D7
100
AcDbEntity
  8
0
100
AcDbVertex
100
AcDb3dPolylineVertex
 10
4.75807
 20
36.7959
 30
0.0
 70
    32
  0
VERTEX
  5
508
330
4D7
100
AcDbEntity
  8
0
100
AcDbVertex
100
AcDb3dPolylineVertex
 10
4.93853
 20
36.7779
 30
0.0
 70
    32
  0
VERTEX
  5
509
330
4D7
100
AcDbEntity
  8
0
100
AcDbVertex
100
AcDb3dPolylineVertex
 10
5.12084
 20
36.7609
 30
0.0
 70
    32
  0
VERTEX
  5
50A
330
4D7
100
AcDbEntity
  8
0
100
AcDbVertex
100
AcDb3dPolylineVertex
 10
5.30488
 20
36.745
 30
0.0
 70
    32
  0
VERTEX
  5
50B
330
4D7
100
AcDbEntity
  8
0
100
AcDbVertex
100
AcDb3dPolylineVertex
 10
5.490549999999999
 20
36.7301
 30
0.0
 70
    32
  0
VERTEX
  5
50C
330
4D7
100
AcDbEntity
  8
0
100
AcDbVertex
100
AcDb3dPolylineVertex
 10
5.677719999999999
 20
36.71629999999999
 30
0.0
 70
    32
  0
VERTEX
  5
50D
330
4D7
100
AcDbEntity
  8
0
100
AcDbVertex
100
AcDb3dPolylineVertex
 10
5.866299999999999
 20
36.7035
 30
0.0
 70
    32
  0
VERTEX
  5
50E
330
4D7
100
AcDbEntity
  8
0
100
AcDbVertex
100
AcDb3dPolylineVertex
 10
6.05616
 20
36.69189999999999
 30
0.0
 70
    32
  0
VERTEX
  5
50F
330
4D7
100
AcDbEntity
  8
0
100
AcDbVertex
100
AcDb3dPolylineVertex
 10
6.247189999999999
 20
36.6813
 30
0.0
 70
    32
  0
VERTEX
  5
510
330
4D7
100
AcDbEntity
  8
0
100
AcDbVertex
100
AcDb3dPolylineVertex
 10
6.43928
 20
36.6718
 30
0.0
 70
    32
  0
VERTEX
  5
511
330
4D7
100
AcDbEntity
  8
0
100
AcDbVertex
100
AcDb3dPolylineVertex
 10
6.632299999999999
 20
36.6634
 30
0.0
 70
    32
  0
VERTEX
  5
512
330
4D7
100
AcDbEntity
  8
0
100
AcDbVertex
100
AcDb3dPolylineVertex
 10
6.82616
 20
36.6562
 30
0.0
 70
    32
  0
VERTEX
  5
513
330
4D7
100
AcDbEntity
  8
0
100
AcDbVertex
100
AcDb3dPolylineVertex
 10
7.02071
 20
36.65
 30
0.0
 70
    32
  0
VERTEX
  5
514
330
4D7
100
AcDbEntity
  8
0
100
AcDbVertex
100
AcDb3dPolylineVertex
 10
7.21586
 20
36.645
 30
0.0
 70
    32
  0
VERTEX
  5
515
330
4D7
100
AcDbEntity
  8
0
100
AcDbVertex
100
AcDb3dPolylineVertex
 10
7.41148
 20
36.6411
 30
0.0
 70
    32
  0
VERTEX
  5
516
330
4D7
100
AcDbEntity
  8
0
100
AcDbVertex
100
AcDb3dPolylineVertex
 10
7.60746
 20
36.63819999999999
 30
0.0
 70
    32
  0
VERTEX
  5
517
330
4D7
100
AcDbEntity
  8
0
100
AcDbVertex
100
AcDb3dPolylineVertex
 10
7.803669999999999
 20
36.6366
 30
0.0
 70
    32
  0
VERTEX
  5
518
330
4D7
100
AcDbEntity
  8
0
100
AcDbVertex
100
AcDb3dPolylineVertex
 10
8.0
 20
36.636
 30
0.0
 70
    32
  0
VERTEX
  5
519
330
4D7
100
AcDbEntity
  8
0
100
AcDbVertex
100
AcDb3dPolylineVertex
 10
8.196329999999999
 20
36.6366
 30
0.0
 70
    32
  0
VERTEX
  5
51A
330
4D7
100
AcDbEntity
  8
0
100
AcDbVertex
100
AcDb3dPolylineVertex
 10
8.392539999999998
 20
36.63819999999999
 30
0.0
 70
    32
  0
VERTEX
  5
51B
330
4D7
100
AcDbEntity
  8
0
100
AcDbVertex
100
AcDb3dPolylineVertex
 10
8.588519999999999
 20
36.6411
 30
0.0
 70
    32
  0
VERTEX
  5
51C
330
4D7
100
AcDbEntity
  8
0
100
AcDbVertex
100
AcDb3dPolylineVertex
 10
8.784139999999998
 20
36.645
 30
0.0
 70
    32
  0
VERTEX
  5
51D
330
4D7
100
AcDbEntity
  8
0
100
AcDbVertex
100
AcDb3dPolylineVertex
 10
8.979289999999998
 20
36.65
 30
0.0
 70
    32
  0
VERTEX
  5
51E
330
4D7
100
AcDbEntity
  8
0
100
AcDbVertex
100
AcDb3dPolylineVertex
 10
9.17384
 20
36.6562
 30
0.0
 70
    32
  0
VERTEX
  5
51F
330
4D7
100
AcDbEntity
  8
0
100
AcDbVertex
100
AcDb3dPolylineVertex
 10
9.367699999999999
 20
36.6634
 30
0.0
 70
    32
  0
VERTEX
  5
520
330
4D7
100
AcDbEntity
  8
0
100
AcDbVertex
100
AcDb3dPolylineVertex
 10
9.560719999999999
 20
36.6718
 30
0.0
 70
    32
  0
VERTEX
  5
521
330
4D7
100
AcDbEntity
  8
0
100
AcDbVertex
100
AcDb3dPolylineVertex
 10
9.75281
 20
36.6813
 30
0.0
 70
    32
  0
VERTEX
  5
522
330
4D7
100
AcDbEntity
  8
0
100
AcDbVertex
100
AcDb3dPolylineVertex
 10
9.943839999999999
 20
36.69189999999999
 30
0.0
 70
    32
  0
VERTEX
  5
523
330
4D7
100
AcDbEntity
  8
0
100
AcDbVertex
100
AcDb3dPolylineVertex
 10
10.13369999999999
 20
36.7035
 30
0.0
 70
    32
  0
VERTEX
  5
524
330
4D7
100
AcDbEntity
  8
0
100
AcDbVertex
100
AcDb3dPolylineVertex
 10
10.32229999999999
 20
36.71629999999999
 30
0.0
 70
    32
  0
VERTEX
  5
525
330
4D7
100
AcDbEntity
  8
0
100
AcDbVertex
100
AcDb3dPolylineVertex
 10
10.5095
 20
36.7301
 30
0.0
 70
    32
  0
VERTEX
  5
526
330
4D7
100
AcDbEntity
  8
0
100
AcDbVertex
100
AcDb3dPolylineVertex
 10
10.69509999999999
 20
36.745
 30
0.0
 70
    32
  0
VERTEX
  5
527
330
4D7
100
AcDbEntity
  8
0
100
AcDbVertex
100
AcDb3dPolylineVertex
 10
10.8792
 20
36.7609
 30
0.0
 70
    32
  0
VERTEX
  5
528
330
4D7
100
AcDbEntity
  8
0
100
AcDbVertex
100
AcDb3dPolylineVertex
 10
11.0615
 20
36.7779
 30
0.0
 70
    32
  0
VERTEX
  5
529
330
4D7
100
AcDbEntity
  8
0
100
AcDbVertex
100
AcDb3dPolylineVertex
 10
11.2419
 20
36.7959
 30
0.0
 70
    32
  0
VERTEX
  5
52A
330
4D7
100
AcDbEntity
  8
0
100
AcDbVertex
100
AcDb3dPolylineVertex
 10
11.4204
 20
36.81499999999999
 30
0.0
 70
    32
  0
VERTEX
  5
52B
330
4D7
100
AcDbEntity
  8
0
100
AcDbVertex
100
AcDb3dPolylineVertex
 10
11.5969
 20
36.835
 30
0.0
 70
    32
  0
VERTEX
  5
52C
330
4D7
100
AcDbEntity
  8
0
100
AcDbVertex
100
AcDb3dPolylineVertex
 10
11.7712
 20
36.8561
 30
0.0
 70
    32
  0
VERTEX
  5
52D
330
4D7
100
AcDbEntity
  8
0
100
AcDbVertex
100
AcDb3dPolylineVertex
 10
11.9432
 20
36.8782
 30
0.0
 70
    32
  0
VERTEX
  5
52E
330
4D7
100
AcDbEntity
  8
0
100
AcDbVertex
100
AcDb3dPolylineVertex
 10
12.1128
 20
36.9012
 30
0.0
 70
    32
  0
VERTEX
  5
52F
330
4D7
100
AcDbEntity
  8
0
100
AcDbVertex
100
AcDb3dPolylineVertex
 10
12.27999999999999
 20
36.9252
 30
0.0
 70
    32
  0
VERTEX
  5
530
330
4D7
100
AcDbEntity
  8
0
100
AcDbVertex
100
AcDb3dPolylineVertex
 10
12.4446
 20
36.95009999999999
 30
0.0
 70
    32
  0
VERTEX
  5
531
330
4D7
100
AcDbEntity
  8
0
100
AcDbVertex
100
AcDb3dPolylineVertex
 10
12.6065
 20
36.97599999999999
 30
0.0
 70
    32
  0
VERTEX
  5
532
330
4D7
100
AcDbEntity
  8
0
100
AcDbVertex
100
AcDb3dPolylineVertex
 10
12.76559999999999
 20
37.0028
 30
0.0
 70
    32
  0
VERTEX
  5
533
330
4D7
100
AcDbEntity
  8
0
100
AcDbVertex
100
AcDb3dPolylineVertex
 10
12.9219
 20
37.0305
 30
0.0
 70
    32
  0
VERTEX
  5
534
330
4D7
100
AcDbEntity
  8
0
100
AcDbVertex
100
AcDb3dPolylineVertex
 10
13.0751
 20
37.0591
 30
0.0
 70
    32
  0
VERTEX
  5
535
330
4D7
100
AcDbEntity
  8
0
100
AcDbVertex
100
AcDb3dPolylineVertex
 10
13.2254
 20
37.0886
 30
0.0
 70
    32
  0
VERTEX
  5
536
330
4D7
100
AcDbEntity
  8
0
100
AcDbVertex
100
AcDb3dPolylineVertex
 10
13.3725
 20
37.11889999999999
 30
0.0
 70
    32
  0
VERTEX
  5
537
330
4D7
100
AcDbEntity
  8
0
100
AcDbVertex
100
AcDb3dPolylineVertex
 10
13.5163
 20
37.14999999999999
 30
0.0
 70
    32
  0
VERTEX
  5
538
330
4D7
100
AcDbEntity
  8
0
100
AcDbVertex
100
AcDb3dPolylineVertex
 10
13.6569
 20
37.182
 30
0.0
 70
    32
  0
VERTEX
  5
539
330
4D7
100
AcDbEntity
  8
0
100
AcDbVertex
100
AcDb3dPolylineVertex
 10
13.794
 20
37.2147
 30
0.0
 70
    32
  0
VERTEX
  5
53A
330
4D7
100
AcDbEntity
  8
0
100
AcDbVertex
100
AcDb3dPolylineVertex
 10
13.92759999999999
 20
37.24819999999999
 30
0.0
 70
    32
  0
VERTEX
  5
53B
330
4D7
100
AcDbEntity
  8
0
100
AcDbVertex
100
AcDb3dPolylineVertex
 10
14.0577
 20
37.2825
 30
0.0
 70
    32
  0
VERTEX
  5
53C
330
4D7
100
AcDbEntity
  8
0
100
AcDbVertex
100
AcDb3dPolylineVertex
 10
14.1841
 20
37.3175
 30
0.0
 70
    32
  0
VERTEX
  5
53D
330
4D7
100
AcDbEntity
  8
0
100
AcDbVertex
100
AcDb3dPolylineVertex
 10
14.3068
 20
37.3532
 30
0.0
 70
    32
  0
VERTEX
  5
53E
330
4D7
100
AcDbEntity
  8
0
100
AcDbVertex
100
AcDb3dPolylineVertex
 10
14.4257
 20
37.3896
 30
0.0
 70
    32
  0
VERTEX
  5
53F
330
4D7
100
AcDbEntity
  8
0
100
AcDbVertex
100
AcDb3dPolylineVertex
 10
14.54069999999999
 20
37.42669999999999
 30
0.0
 70
    32
  0
VERTEX
  5
540
330
4D7
100
AcDbEntity
  8
0
100
AcDbVertex
100
AcDb3dPolylineVertex
 10
14.6518
 20
37.46439999999999
 30
0.0
 70
    32
  0
VERTEX
  5
541
330
4D7
100
AcDbEntity
  8
0
100
AcDbVertex
100
AcDb3dPolylineVertex
 10
14.7588
 20
37.5028
 30
0.0
 70
    32
  0
VERTEX
  5
542
330
4D7
100
AcDbEntity
  8
0
100
AcDbVertex
100
AcDb3dPolylineVertex
 10
14.8618
 20
37.5417
 30
0.0
 70
    32
  0
VERTEX
  5
543
330
4D7
100
AcDbEntity
  8
0
100
AcDbVertex
100
AcDb3dPolylineVertex
 10
14.9607
 20
37.5812
 30
0.0
 70
    32
  0
VERTEX
  5
544
330
4D7
100
AcDbEntity
  8
0
100
AcDbVertex
100
AcDb3dPolylineVertex
 10
15.0554
 20
37.62129999999999
 30
0.0
 70
    32
  0
VERTEX
  5
545
330
4D7
100
AcDbEntity
  8
0
100
AcDbVertex
100
AcDb3dPolylineVertex
 10
15.1458
 20
37.6619
 30
0.0
 70
    32
  0
VERTEX
  5
546
330
4D7
100
AcDbEntity
  8
0
100
AcDbVertex
100
AcDb3dPolylineVertex
 10
15.2319
 20
37.703
 30
0.0
 70
    32
  0
VERTEX
  5
547
330
4D7
100
AcDbEntity
  8
0
100
AcDbVertex
100
AcDb3dPolylineVertex
 10
15.3137
 20
37.74459999999999
 30
0.0
 70
    32
  0
VERTEX
  5
548
330
4D7
100
AcDbEntity
  8
0
100
AcDbVertex
100
AcDb3dPolylineVertex
 10
15.391
 20
37.7867
 30
0.0
 70
    32
  0
VERTEX
  5
549
330
4D7
100
AcDbEntity
  8
0
100
AcDbVertex
100
AcDb3dPolylineVertex
 10
15.4639
 20
37.8292
 30
0.0
 70
    32
  0
VERTEX
  5
54A
330
4D7
100
AcDbEntity
  8
0
100
AcDbVertex
100
AcDb3dPolylineVertex
 10
15.5324
 20
37.872
 30
0.0
 70
    32
  0
VERTEX
  5
54B
330
4D7
100
AcDbEntity
  8
0
100
AcDbVertex
100
AcDb3dPolylineVertex
 10
15.59619999999999
 20
37.9153
 30
0.0
 70
    32
  0
VERTEX
  5
54C
330
4D7
100
AcDbEntity
  8
0
100
AcDbVertex
100
AcDb3dPolylineVertex
 10
15.65549999999999
 20
37.95889999999999
 30
0.0
 70
    32
  0
VERTEX
  5
54D
330
4D7
100
AcDbEntity
  8
0
100
AcDbVertex
100
AcDb3dPolylineVertex
 10
15.7102
 20
38.0028
 30
0.0
 70
    32
  0
VERTEX
  5
54E
330
4D7
100
AcDbEntity
  8
0
100
AcDbVertex
100
AcDb3dPolylineVertex
 10
15.7603
 20
38.0471
 30
0.0
 70
    32
  0
VERTEX
  5
54F
330
4D7
100
AcDbEntity
  8
0
100
AcDbVertex
100
AcDb3dPolylineVertex
 10
15.8056
 20
38.0916
 30
0.0
 70
    32
  0
VERTEX
  5
550
330
4D7
100
AcDbEntity
  8
0
100
AcDbVertex
100
AcDb3dPolylineVertex
 10
15.84629999999999
 20
38.1364
 30
0.0
 70
    32
  0
VERTEX
  5
551
330
4D7
100
AcDbEntity
  8
0
100
AcDbVertex
100
AcDb3dPolylineVertex
 10
15.88219999999999
 20
38.1813
 30
0.0
 70
    32
  0
VERTEX
  5
552
330
4D7
100
AcDbEntity
  8
0
100
AcDbVertex
100
AcDb3dPolylineVertex
 10
15.91339999999999
 20
38.2265
 30
0.0
 70
    32
  0
VERTEX
  5
553
330
4D7
100
AcDbEntity
  8
0
100
AcDbVertex
100
AcDb3dPolylineVertex
 10
15.9398
 20
38.2718
 30
0.0
 70
    32
  0
VERTEX
  5
554
330
4D7
100
AcDbEntity
  8
0
100
AcDbVertex
100
AcDb3dPolylineVertex
 10
15.96149999999999
 20
38.3173
 30
0.0
 70
    32
  0
VERTEX
  5
555
330
4D7
100
AcDbEntity
  8
0
100
AcDbVertex
100
AcDb3dPolylineVertex
 10
15.9783
 20
38.3629
 30
0.0
 70
    32
  0
VERTEX
  5
556
330
4D7
100
AcDbEntity
  8
0
100
AcDbVertex
100
AcDb3dPolylineVertex
 10
15.9904
 20
38.40849999999999
 30
0.0
 70
    32
  0
VERTEX
  5
557
330
4D7
100
AcDbEntity
  8
0
100
AcDbVertex
100
AcDb3dPolylineVertex
 10
15.9976
 20
38.4543
 30
0.0
 70
    32
  0
VERTEX
  5
558
330
4D7
100
AcDbEntity
  8
0
100
AcDbVertex
100
AcDb3dPolylineVertex
 10
16.0
 20
38.5
 30
0.0
 70
    32
  0
SEQEND
  5
559
330
4D7
100
AcDbEntity
  8
0
  0
LINE
  5
55A
330
43C
100
AcDbEntity
  8
0
100
AcDbLine
 10
2.029365
 20
56.16884599999999
 30
0.0
 11
2.0
 21
56.0
 31
0.0
  0
LINE
  5
55B
330
43C
100
AcDbEntity
  8
0
100
AcDbLine
 10
13.970635
 20
56.16884599999999
 30
0.0
 11
14.0
 21
56.0
 31
0.0
  0
LINE
  5
55C
330
43C
100
AcDbEntity
  8
0
100
AcDbLine
 10
8.0
 20
60.0
 30
0.0
 11
11.5
 21
60.0
 31
0.0
  0
ARC
  5
55D
330
43C
100
AcDbEntity
  8
0
100
AcDbCircle
 10
8.0
 20
62.916667
 30
0.0
 40
6.083333
100
AcDbArc
 50
48.88791
 51
131.1120899999999
  0
LINE
  5
55E
330
43C
100
AcDbEntity
  8
0
100
AcDbLine
 10
4.0
 20
67.5
 30
0.0
 11
2.514031999999999
 21
58.95568199999999
 31
0.0
  0
ARC
  5
55F
330
43C
100
AcDbEntity
  8
0
100
AcDbCircle
 10
4.5
 20
59.5
 30
0.0
 40
0.5
100
AcDbArc
 50
90.0
 51
180.0
  0
LINE
  5
560
330
43C
100
AcDbEntity
  8
0
100
AcDbLine
 10
4.0
 20
59.5
 30
0.0
 11
4.0
 21
57.5
 31
0.0
  0
LINE
  5
561
330
43C
100
AcDbEntity
  8
0
100
AcDbLine
 10
8.0
 20
60.0
 30
0.0
 11
4.5
 21
60.0
 31
0.0
  0
LINE
  5
562
330
43C
100
AcDbEntity
  8
0
100
AcDbLine
 10
12.0
 20
67.5
 30
0.0
 11
13.485968
 21
58.95568199999999
 31
0.0
  0
ARC
  5
563
330
43C
100
AcDbEntity
  8
0
100
AcDbCircle
 10
11.5
 20
59.5
 30
0.0
 40
0.5
100
AcDbArc
 50
0.0
 51
90.0
  0
LINE
  5
564
330
43C
100
AcDbEntity
  8
0
100
AcDbLine
 10
12.0
 20
59.5
 30
0.0
 11
12.0
 21
57.5
 31
0.0
  0
LINE
  5
565
330
43C
100
AcDbEntity
  8
0
100
AcDbLine
 10
54.0
 20
54.734191
 30
0.0
 11
54.0
 21
38.004234
 31
0.0
  0
ARC
  5
566
330
43C
100
AcDbEntity
  8
0
100
AcDbCircle
 10
55.0
 20
54.734191
 30
0.0
 40
1.0
100
AcDbArc
 50
105.1095749999999
 51
180.0
  0
LINE
  5
567
330
43C
100
AcDbEntity
  8
1
100
AcDbLine
 10
62.0
 20
63.0
 30
0.0
 11
62.0
 21
0.0
 31
0.0
  0
LINE
  5
568
330
43C
100
AcDbEntity
  8
0
100
AcDbLine
 10
68.0
 20
33.5
 30
0.0
 11
68.0
 21
40.46249999999999
 31
0.0
  0
LINE
  5
569
330
43C
100
AcDbEntity
  8
0
100
AcDbLine
 10
56.0
 20
33.5
 30
0.0
 11
56.0
 21
37.23749999999999
 31
0.0
  0
LINE
  5
56A
330
43C
100
AcDbEntity
  8
0
100
AcDbLine
 10
59.0
 20
33.5
 30
0.0
 11
59.0
 21
4.0
 31
0.0
  0
LINE
  5
56B
330
43C
100
AcDbEntity
  8
0
100
AcDbLine
 10
59.5
 20
3.5
 30
0.0
 11
59.5
 21
32.5
 31
0.0
  0
LINE
  5
56C
330
43C
100
AcDbEntity
  8
0
100
AcDbLine
 10
64.5
 20
3.5
 30
0.0
 11
64.5
 21
32.5
 31
0.0
  0
LINE
  5
56D
330
43C
100
AcDbEntity
  8
0
100
AcDbLine
 10
65.0
 20
33.5
 30
0.0
 11
65.0
 21
4.0
 31
0.0
  0
LINE
  5
56E
330
43C
100
AcDbEntity
  8
0
100
AcDbLine
 10
64.5
 20
3.5
 30
0.0
 11
62.0
 21
3.5
 31
0.0
  0
LINE
  5
56F
330
43C
100
AcDbEntity
  8
0
100
AcDbLine
 10
65.0
 20
4.0
 30
0.0
 11
62.0
 21
4.0
 31
0.0
  0
LINE
  5
570
330
43C
100
AcDbEntity
  8
0
100
AcDbLine
 10
59.5
 20
3.5
 30
0.0
 11
62.0
 21
3.5
 31
0.0
  0
LINE
  5
571
330
43C
100
AcDbEntity
  8
0
100
AcDbLine
 10
59.0
 20
4.0
 30
0.0
 11
62.0
 21
4.0
 31
0.0
  0
LINE
  5
572
330
43C
100
AcDbEntity
  8
0
100
AcDbLine
 10
59.0
 20
4.0
 30
0.0
 11
59.5
 21
3.5
 31
0.0
  0
LINE
  5
573
330
43C
100
AcDbEntity
  8
0
100
AcDbLine
 10
65.0
 20
4.0
 30
0.0
 11
64.5
 21
3.5
 31
0.0
  0
LINE
  5
574
330
43C
100
AcDbEntity
  8
0
100
AcDbLine
 10
65.0
 20
32.5
 30
0.0
 11
62.0
 21
32.5
 31
0.0
  0
LINE
  5
575
330
43C
100
AcDbEntity
  8
0
100
AcDbLine
 10
62.0
 20
33.5
 30
0.0
 11
68.0
 21
33.5
 31
0.0
  0
LINE
  5
576
330
43C
100
AcDbEntity
  8
0
100
AcDbLine
 10
62.0
 20
33.5
 30
0.0
 11
56.0
 21
33.5
 31
0.0
  0
LINE
  5
577
330
43C
100
AcDbEntity
  8
0
100
AcDbLine
 10
59.0
 20
32.5
 30
0.0
 11
62.0
 21
32.5
 31
0.0
  0
LINE
  5
578
330
43C
100
AcDbEntity
  8
0
100
AcDbLine
 10
91.5
 20
57.0
 30
0.0
 11
68.0
 21
50.0
 31
0.0
  0
LINE
  5
579
330
43C
100
AcDbEntity
  8
0
100
AcDbLine
 10
68.0
 20
50.0
 30
0.0
 11
68.0
 21
59.28
 31
0.0
  0
LINE
  5
57A
330
43C
100
AcDbEntity
  8
0
100
AcDbLine
 10
58.0
 20
56.58
 30
0.0
 11
58.0
 21
59.5
 31
0.0
  0
LINE
  5
57B
330
43C
100
AcDbEntity
  8
0
100
AcDbLine
 10
70.0
 20
41.766734
 30
0.0
 11
70.0
 21
50.595745
 31
0.0
  0
LINE
  5
57C
330
43C
100
AcDbEntity
  8
0
100
AcDbLine
 10
69.25954
 20
40.801001
 30
0.0
 11
55.25954
 21
37.038501
 31
0.0
  0
ARC
  5
57D
330
43C
100
AcDbEntity
  8
0
100
AcDbCircle
 10
69.0
 20
41.766734
 30
0.0
 40
1.0
100
AcDbArc
 50
285.0428009999999
 51
0.0
  0
LINE
  5
57E
330
43C
100
AcDbEntity
  8
0
100
AcDbLine
 10
58.5
 20
60.0
 30
0.0
 11
65.5
 21
60.0
 31
0.0
  0
ARC
  5
57F
330
43C
100
AcDbEntity
  8
0
100
AcDbCircle
 10
58.5
 20
59.5
 30
0.0
 40
0.5
100
AcDbArc
 50
90.0
 51
180.0
  0
ARC
  5
580
330
43C
100
AcDbEntity
  8
0
100
AcDbCircle
 10
65.5
 20
59.5
 30
0.0
 40
0.5
100
AcDbArc
 50
0.0
 51
90.0
  0
LINE
  5
581
330
43C
100
AcDbEntity
  8
0
100
AcDbLine
 10
66.0
 20
59.5
 30
0.0
 11
66.0
 21
58.74
 31
0.0
  0
LINE
  5
582
330
43C
100
AcDbEntity
  8
0
100
AcDbLine
 10
103.2524219999999
 20
58.80498000000001
 30
0.0
 11
93.05439399999999
 21
56.144624
 31
0.0
  0
ARC
  5
583
330
43C
100
AcDbEntity
  8
0
100
AcDbCircle
 10
92.80197199999999
 20
57.112242
 30
0.0
 40
1.0
100
AcDbArc
 50
225.0
 51
284.620874
  0
LINE
  5
584
330
43C
100
AcDbEntity
  8
0
100
AcDbLine
 10
92.094865
 20
56.40513499999999
 30
0.0
 11
91.5
 21
57.0
 31
0.0
  0
ARC
  5
585
330
43C
100
AcDbEntity
  8
0
100
AcDbCircle
 10
103.0
 20
67.694191
 30
0.0
 40
1.0
100
AcDbArc
 50
0.0
 51
105.1095749999999
  0
LINE
  5
586
330
43C
100
AcDbEntity
  8
0
100
AcDbLine
 10
104.0
 20
67.694191
 30
0.0
 11
104.0
 21
59.772597
 31
0.0
  0
ARC
  5
587
330
43C
100
AcDbEntity
  8
0
100
AcDbCircle
 10
103.0
 20
59.772597
 30
0.0
 40
1.0
100
AcDbArc
 50
284.620874
 51
0.0
  0
ENDBLK
  5
588
330
43C
100
AcDbEntity
  8
0
100
AcDbBlockEnd
  0
BLOCK
  5
806
330
805
100
AcDbEntity
  8
0
100
AcDbBlockBegin
  2
*U3
 70
     1
 10
0.0
 20
0.0
 30
0.0
  3
*U3
  1

  0
ENDBLK
  5
807
330
805
100
AcDbEntity
  8
0
100
AcDbBlockEnd
  0
BLOCK
  5
847
330
845
100
AcDbEntity
  8
0
100
AcDbBlockBegin
  2
GENAXEH
 70
     0
 10
0.0
 20
0.0
 30
0.0
  3
GENAXEH
  1

  0
LINE
  5
846
330
845
100
AcDbEntity
  8
0
100
AcDbLine
 10
-1.0
 20
0.0
 30
0.0
 11
1.0
 21
0.0
 31
0.0
  0
ENDBLK
  5
848
330
845
100
AcDbEntity
  8
0
100
AcDbBlockEnd
  0
BLOCK
  5
869
330
85F
100
AcDbEntity
  8
0
100
AcDbBlockBegin
  2
*D5
 70
     1
 10
0.0
 20
0.0
 30
0.0
  3
*D5
  1

  0
LINE
  5
860
330
85F
100
AcDbEntity
  8
0
 62
     0
370
    -2
100
AcDbLine
 10
39.125
 20
123.0
 30
0.0
 11
70.72072952446429
 21
123.0
 31
0.0
  0
LINE
  5
861
330
85F
100
AcDbEntity
  8
0
 62
     0
370
    -2
100
AcDbLine
 10
49.125
 20
60.0
 30
0.0
 11
70.72072952446427
 21
60.0
 31
0.0
  0
LINE
  5
862
330
85F
100
AcDbEntity
  8
0
 62
     0
370
    -2
100
AcDbLine
 10
69.47072952446429
 20
120.5
 30
0.0
 11
69.47072952446427
 21
62.5
 31
0.0
  0
SOLID
  5
863
330
85F
100
AcDbEntity
  8
0
 62
     0
100
AcDbTrace
 10
69.05406285779761
 20
120.5
 30
0.0
 11
69.88739619113096
 21
120.5
 31
0.0
 12
69.47072952446429
 22
123.0
 32
0.0
 13
69.47072952446429
 23
123.0
 33
0.0
  0
SOLID
  5
864
330
85F
100
AcDbEntity
  8
0
 62
     0
100
AcDbTrace
 10
69.0540628577976
 20
62.5
 30
0.0
 11
69.88739619113094
 21
62.5
 31
0.0
 12
69.47072952446427
 22
60.0
 32
0.0
 13
69.47072952446427
 23
60.0
 33
0.0
  0
MTEXT
  5
865
330
85F
100
AcDbEntity
  8
0
 62
     0
100
AcDbMText
 10
67.59572952446426
 20
91.50000000000002
 30
0.0
 40
2.5
 41
0.0
 71
     5
 72
     1
  1
\A1;63
 11
0.0000000000000001
 21
1.0
 31
0.0
 73
     1
 44
1.0
  0
POINT
  5
866
330
85F
100
AcDbEntity
  8
Defpoints
 62
     0
100
AcDbPoint
 10
38.5
 20
123.0
 30
0.0
  0
POINT
  5
867
330
85F
100
AcDbEntity
  8
Defpoints
 62
     0
100
AcDbPoint
 10
48.5
 20
60.0
 30
0.0
  0
POINT
  5
868
330
85F
100
AcDbEntity
  8
Defpoints
 62
     0
100
AcDbPoint
 10
69.47072952446427
 20
60.0
 30
0.0
  0
ENDBLK
  5
86A
330
85F
100
AcDbEntity
  8
0
100
AcDbBlockEnd
  0
ENDSEC
  0
SECTION
  2
ENTITIES
  0
LINE
  5
589
330
42B
100
AcDbEntity
  8
1
100
AcDbLine
 10
38.5
 20
37.5
 30
0.0
 11
38.5
 21
132.4999999999999
 31
0.0
  0
LINE
  5
58A
330
42B
100
AcDbEntity
  8
0
100
AcDbLine
 10
38.5
 20
60.0
 30
0.0
 11
28.5
 21
60.0
 31
0.0
  0
LINE
  5
58B
330
42B
100
AcDbEntity
  8
0
100
AcDbLine
 10
28.5
 20
60.0
 30
0.0
 11
28.5
 21
75.7
 31
0.0
  0
LINE
  5
58C
330
42B
100
AcDbEntity
  8
0
100
AcDbLine
 10
48.5
 20
60.0
 30
0.0
 11
48.5
 21
75.7
 31
0.0
  0
LINE
  5
58D
330
42B
100
AcDbEntity
  8
0
100
AcDbLine
 10
38.5
 20
60.0
 30
0.0
 11
48.5
 21
60.0
 31
0.0
  0
POLYLINE
  5
58E
330
42B
100
AcDbEntity
  8
0
100
AcDb3dPolyline
 66
     1
 10
0.0
 20
0.0
 30
0.0
 70
     8
  0
VERTEX
  5
58F
330
58E
100
AcDbEntity
  8
0
100
AcDbVertex
100
AcDb3dPolylineVertex
 10
26.0
 20
77.5
 30
0.0
 70
    32
  0
VERTEX
  5
590
330
58E
100
AcDbEntity
  8
0
100
AcDbVertex
100
AcDb3dPolylineVertex
 10
26.00379999999999
 20
77.4264
 30
0.0
 70
    32
  0
VERTEX
  5
591
330
58E
100
AcDbEntity
  8
0
100
AcDbVertex
100
AcDb3dPolylineVertex
 10
26.0151
 20
77.3528
 30
0.0
 70
    32
  0
VERTEX
  5
592
330
58E
100
AcDbEntity
  8
0
100
AcDbVertex
100
AcDb3dPolylineVertex
 10
26.0339
 20
77.2793
 30
0.0
 70
    32
  0
VERTEX
  5
593
330
58E
100
AcDbEntity
  8
0
100
AcDbVertex
100
AcDb3dPolylineVertex
 10
26.0602
 20
77.2059
 30
0.0
 70
    32
  0
VERTEX
  5
594
330
58E
100
AcDbEntity
  8
0
100
AcDbVertex
100
AcDb3dPolylineVertex
 10
26.094
 20
77.13280000000001
 30
0.0
 70
    32
  0
VERTEX
  5
595
330
58E
100
AcDbEntity
  8
0
100
AcDbVertex
100
AcDb3dPolylineVertex
 10
26.1353
 20
77.0598
 30
0.0
 70
    32
  0
VERTEX
  5
596
330
58E
100
AcDbEntity
  8
0
100
AcDbVertex
100
AcDb3dPolylineVertex
 10
26.184
 20
76.9871
 30
0.0
 70
    32
  0
VERTEX
  5
597
330
58E
100
AcDbEntity
  8
0
100
AcDbVertex
100
AcDb3dPolylineVertex
 10
26.2402
 20
76.91469999999999
 30
0.0
 70
    32
  0
VERTEX
  5
598
330
58E
100
AcDbEntity
  8
0
100
AcDbVertex
100
AcDb3dPolylineVertex
 10
26.3037
 20
76.84269999999999
 30
0.0
 70
    32
  0
VERTEX
  5
599
330
58E
100
AcDbEntity
  8
0
100
AcDbVertex
100
AcDb3dPolylineVertex
 10
26.3746
 20
76.7711
 30
0.0
 70
    32
  0
VERTEX
  5
59A
330
58E
100
AcDbEntity
  8
0
100
AcDbVertex
100
AcDb3dPolylineVertex
 10
26.4528
 20
76.6999
 30
0.0
 70
    32
  0
VERTEX
  5
59B
330
58E
100
AcDbEntity
  8
0
100
AcDbVertex
100
AcDb3dPolylineVertex
 10
26.5382
 20
76.6291
 30
0.0
 70
    32
  0
VERTEX
  5
59C
330
58E
100
AcDbEntity
  8
0
100
AcDbVertex
100
AcDb3dPolylineVertex
 10
26.6309
 20
76.55899999999999
 30
0.0
 70
    32
  0
VERTEX
  5
59D
330
58E
100
AcDbEntity
  8
0
100
AcDbVertex
100
AcDb3dPolylineVertex
 10
26.7307
 20
76.4893
 30
0.0
 70
    32
  0
VERTEX
  5
59E
330
58E
100
AcDbEntity
  8
0
100
AcDbVertex
100
AcDb3dPolylineVertex
 10
26.83759999999999
 20
76.4203
 30
0.0
 70
    32
  0
VERTEX
  5
59F
330
58E
100
AcDbEntity
  8
0
100
AcDbVertex
100
AcDb3dPolylineVertex
 10
26.95149999999999
 20
76.3519
 30
0.0
 70
    32
  0
VERTEX
  5
5A0
330
58E
100
AcDbEntity
  8
0
100
AcDbVertex
100
AcDb3dPolylineVertex
 10
27.0724
 20
76.2843
 30
0.0
 70
    32
  0
VERTEX
  5
5A1
330
58E
100
AcDbEntity
  8
0
100
AcDbVertex
100
AcDb3dPolylineVertex
 10
27.2001
 20
76.21729999999999
 30
0.0
 70
    32
  0
VERTEX
  5
5A2
330
58E
100
AcDbEntity
  8
0
100
AcDbVertex
100
AcDb3dPolylineVertex
 10
27.3347
 20
76.1512
 30
0.0
 70
    32
  0
VERTEX
  5
5A3
330
58E
100
AcDbEntity
  8
0
100
AcDbVertex
100
AcDb3dPolylineVertex
 10
27.476
 20
76.0858
 30
0.0
 70
    32
  0
VERTEX
  5
5A4
330
58E
100
AcDbEntity
  8
0
100
AcDbVertex
100
AcDb3dPolylineVertex
 10
27.62389999999999
 20
76.02129999999999
 30
0.0
 70
    32
  0
VERTEX
  5
5A5
330
58E
100
AcDbEntity
  8
0
100
AcDbVertex
100
AcDb3dPolylineVertex
 10
27.7784
 20
75.9577
 30
0.0
 70
    32
  0
VERTEX
  5
5A6
330
58E
100
AcDbEntity
  8
0
100
AcDbVertex
100
AcDb3dPolylineVertex
 10
27.9393
 20
75.895
 30
0.0
 70
    32
  0
VERTEX
  5
5A7
330
58E
100
AcDbEntity
  8
0
100
AcDbVertex
100
AcDb3dPolylineVertex
 10
28.1066
 20
75.8333
 30
0.0
 70
    32
  0
VERTEX
  5
5A8
330
58E
100
AcDbEntity
  8
0
100
AcDbVertex
100
AcDb3dPolylineVertex
 10
28.2802
 20
75.77259999999999
 30
0.0
 70
    32
  0
VERTEX
  5
5A9
330
58E
100
AcDbEntity
  8
0
100
AcDbVertex
100
AcDb3dPolylineVertex
 10
28.4599
 20
75.71290000000001
 30
0.0
 70
    32
  0
VERTEX
  5
5AA
330
58E
100
AcDbEntity
  8
0
100
AcDbVertex
100
AcDb3dPolylineVertex
 10
28.6457
 20
75.6543
 30
0.0
 70
    32
  0
VERTEX
  5
5AB
330
58E
100
AcDbEntity
  8
0
100
AcDbVertex
100
AcDb3dPolylineVertex
 10
28.83739999999999
 20
75.5968
 30
0.0
 70
    32
  0
VERTEX
  5
5AC
330
58E
100
AcDbEntity
  8
0
100
AcDbVertex
100
AcDb3dPolylineVertex
 10
29.0349
 20
75.5405
 30
0.0
 70
    32
  0
VERTEX
  5
5AD
330
58E
100
AcDbEntity
  8
0
100
AcDbVertex
100
AcDb3dPolylineVertex
 10
29.23809999999999
 20
75.48529999999999
 30
0.0
 70
    32
  0
VERTEX
  5
5AE
330
58E
100
AcDbEntity
  8
0
100
AcDbVertex
100
AcDb3dPolylineVertex
 10
29.44689999999999
 20
75.4314
 30
0.0
 70
    32
  0
VERTEX
  5
5AF
330
58E
100
AcDbEntity
  8
0
100
AcDbVertex
100
AcDb3dPolylineVertex
 10
29.6612
 20
75.37869999999999
 30
0.0
 70
    32
  0
VERTEX
  5
5B0
330
58E
100
AcDbEntity
  8
0
100
AcDbVertex
100
AcDb3dPolylineVertex
 10
29.8807
 20
75.32729999999999
 30
0.0
 70
    32
  0
VERTEX
  5
5B1
330
58E
100
AcDbEntity
  8
0
100
AcDbVertex
100
AcDb3dPolylineVertex
 10
30.1055
 20
75.2771
 30
0.0
 70
    32
  0
VERTEX
  5
5B2
330
58E
100
AcDbEntity
  8
0
100
AcDbVertex
100
AcDb3dPolylineVertex
 10
30.3353
 20
75.22839999999999
 30
0.0
 70
    32
  0
VERTEX
  5
5B3
330
58E
100
AcDbEntity
  8
0
100
AcDbVertex
100
AcDb3dPolylineVertex
 10
30.5701
 20
75.181
 30
0.0
 70
    32
  0
VERTEX
  5
5B4
330
58E
100
AcDbEntity
  8
0
100
AcDbVertex
100
AcDb3dPolylineVertex
 10
30.8096
 20
75.135
 30
0.0
 70
    32
  0
VERTEX
  5
5B5
330
58E
100
AcDbEntity
  8
0
100
AcDbVertex
100
AcDb3dPolylineVertex
 10
31.0538
 20
75.0904
 30
0.0
 70
    32
  0
VERTEX
  5
5B6
330
58E
100
AcDbEntity
  8
0
100
AcDbVertex
100
AcDb3dPolylineVertex
 10
31.3024
 20
75.0472
 30
0.0
 70
    32
  0
VERTEX
  5
5B7
330
58E
100
AcDbEntity
  8
0
100
AcDbVertex
100
AcDb3dPolylineVertex
 10
31.5554
 20
75.0056
 30
0.0
 70
    32
  0
VERTEX
  5
5B8
330
58E
100
AcDbEntity
  8
0
100
AcDbVertex
100
AcDb3dPolylineVertex
 10
31.8125
 20
74.9654
 30
0.0
 70
    32
  0
VERTEX
  5
5B9
330
58E
100
AcDbEntity
  8
0
100
AcDbVertex
100
AcDb3dPolylineVertex
 10
32.0737
 20
74.9268
 30
0.0
 70
    32
  0
VERTEX
  5
5BA
330
58E
100
AcDbEntity
  8
0
100
AcDbVertex
100
AcDb3dPolylineVertex
 10
32.3388
 20
74.88970000000001
 30
0.0
 70
    32
  0
VERTEX
  5
5BB
330
58E
100
AcDbEntity
  8
0
100
AcDbVertex
100
AcDb3dPolylineVertex
 10
32.6075
 20
74.85420000000001
 30
0.0
 70
    32
  0
VERTEX
  5
5BC
330
58E
100
AcDbEntity
  8
0
100
AcDbVertex
100
AcDb3dPolylineVertex
 10
32.8799
 20
74.8203
 30
0.0
 70
    32
  0
VERTEX
  5
5BD
330
58E
100
AcDbEntity
  8
0
100
AcDbVertex
100
AcDb3dPolylineVertex
 10
33.1556
 20
74.78799999999999
 30
0.0
 70
    32
  0
VERTEX
  5
5BE
330
58E
100
AcDbEntity
  8
0
100
AcDbVertex
100
AcDb3dPolylineVertex
 10
33.4345
 20
74.7574
 30
0.0
 70
    32
  0
VERTEX
  5
5BF
330
58E
100
AcDbEntity
  8
0
100
AcDbVertex
100
AcDb3dPolylineVertex
 10
33.7165
 20
74.72839999999999
 30
0.0
 70
    32
  0
VERTEX
  5
5C0
330
58E
100
AcDbEntity
  8
0
100
AcDbVertex
100
AcDb3dPolylineVertex
 10
34.0013
 20
74.70099999999999
 30
0.0
 70
    32
  0
VERTEX
  5
5C1
330
58E
100
AcDbEntity
  8
0
100
AcDbVertex
100
AcDb3dPolylineVertex
 10
34.28889999999999
 20
74.67539999999999
 30
0.0
 70
    32
  0
VERTEX
  5
5C2
330
58E
100
AcDbEntity
  8
0
100
AcDbVertex
100
AcDb3dPolylineVertex
 10
34.579
 20
74.65139999999999
 30
0.0
 70
    32
  0
VERTEX
  5
5C3
330
58E
100
AcDbEntity
  8
0
100
AcDbVertex
100
AcDb3dPolylineVertex
 10
34.8714
 20
74.6292
 30
0.0
 70
    32
  0
VERTEX
  5
5C4
330
58E
100
AcDbEntity
  8
0
100
AcDbVertex
100
AcDb3dPolylineVertex
 10
35.1661
 20
74.60869999999999
 30
0.0
 70
    32
  0
VERTEX
  5
5C5
330
58E
100
AcDbEntity
  8
0
100
AcDbVertex
100
AcDb3dPolylineVertex
 10
35.46269999999999
 20
74.5899
 30
0.0
 70
    32
  0
VERTEX
  5
5C6
330
58E
100
AcDbEntity
  8
0
100
AcDbVertex
100
AcDb3dPolylineVertex
 10
35.7612
 20
74.5729
 30
0.0
 70
    32
  0
VERTEX
  5
5C7
330
58E
100
AcDbEntity
  8
0
100
AcDbVertex
100
AcDb3dPolylineVertex
 10
36.06139999999999
 20
74.55759999999999
 30
0.0
 70
    32
  0
VERTEX
  5
5C8
330
58E
100
AcDbEntity
  8
0
100
AcDbVertex
100
AcDb3dPolylineVertex
 10
36.363
 20
74.5442
 30
0.0
 70
    32
  0
VERTEX
  5
5C9
330
58E
100
AcDbEntity
  8
0
100
AcDbVertex
100
AcDb3dPolylineVertex
 10
36.6659
 20
74.5325
 30
0.0
 70
    32
  0
VERTEX
  5
5CA
330
58E
100
AcDbEntity
  8
0
100
AcDbVertex
100
AcDb3dPolylineVertex
 10
36.9699
 20
74.52259999999999
 30
0.0
 70
    32
  0
VERTEX
  5
5CB
330
58E
100
AcDbEntity
  8
0
100
AcDbVertex
100
AcDb3dPolylineVertex
 10
37.27479999999999
 20
74.51439999999999
 30
0.0
 70
    32
  0
VERTEX
  5
5CC
330
58E
100
AcDbEntity
  8
0
100
AcDbVertex
100
AcDb3dPolylineVertex
 10
37.58039999999999
 20
74.5081
 30
0.0
 70
    32
  0
VERTEX
  5
5CD
330
58E
100
AcDbEntity
  8
0
100
AcDbVertex
100
AcDb3dPolylineVertex
 10
37.88669999999999
 20
74.5036
 30
0.0
 70
    32
  0
VERTEX
  5
5CE
330
58E
100
AcDbEntity
  8
0
100
AcDbVertex
100
AcDb3dPolylineVertex
 10
38.19319999999999
 20
74.5009
 30
0.0
 70
    32
  0
VERTEX
  5
5CF
330
58E
100
AcDbEntity
  8
0
100
AcDbVertex
100
AcDb3dPolylineVertex
 10
38.5
 20
74.5
 30
0.0
 70
    32
  0
VERTEX
  5
5D0
330
58E
100
AcDbEntity
  8
0
100
AcDbVertex
100
AcDb3dPolylineVertex
 10
38.8068
 20
74.5009
 30
0.0
 70
    32
  0
VERTEX
  5
5D1
330
58E
100
AcDbEntity
  8
0
100
AcDbVertex
100
AcDb3dPolylineVertex
 10
39.1133
 20
74.5036
 30
0.0
 70
    32
  0
VERTEX
  5
5D2
330
58E
100
AcDbEntity
  8
0
100
AcDbVertex
100
AcDb3dPolylineVertex
 10
39.4196
 20
74.5081
 30
0.0
 70
    32
  0
VERTEX
  5
5D3
330
58E
100
AcDbEntity
  8
0
100
AcDbVertex
100
AcDb3dPolylineVertex
 10
39.7252
 20
74.51439999999999
 30
0.0
 70
    32
  0
VERTEX
  5
5D4
330
58E
100
AcDbEntity
  8
0
100
AcDbVertex
100
AcDb3dPolylineVertex
 10
40.03009999999999
 20
74.52259999999999
 30
0.0
 70
    32
  0
VERTEX
  5
5D5
330
58E
100
AcDbEntity
  8
0
100
AcDbVertex
100
AcDb3dPolylineVertex
 10
40.33409999999999
 20
74.5325
 30
0.0
 70
    32
  0
VERTEX
  5
5D6
330
58E
100
AcDbEntity
  8
0
100
AcDbVertex
100
AcDb3dPolylineVertex
 10
40.63699999999999
 20
74.5442
 30
0.0
 70
    32
  0
VERTEX
  5
5D7
330
58E
100
AcDbEntity
  8
0
100
AcDbVertex
100
AcDb3dPolylineVertex
 10
40.9386
 20
74.55759999999999
 30
0.0
 70
    32
  0
VERTEX
  5
5D8
330
58E
100
AcDbEntity
  8
0
100
AcDbVertex
100
AcDb3dPolylineVertex
 10
41.23879999999999
 20
74.5729
 30
0.0
 70
    32
  0
VERTEX
  5
5D9
330
58E
100
AcDbEntity
  8
0
100
AcDbVertex
100
AcDb3dPolylineVertex
 10
41.5373
 20
74.5899
 30
0.0
 70
    32
  0
VERTEX
  5
5DA
330
58E
100
AcDbEntity
  8
0
100
AcDbVertex
100
AcDb3dPolylineVertex
 10
41.8339
 20
74.60869999999999
 30
0.0
 70
    32
  0
VERTEX
  5
5DB
330
58E
100
AcDbEntity
  8
0
100
AcDbVertex
100
AcDb3dPolylineVertex
 10
42.1286
 20
74.6292
 30
0.0
 70
    32
  0
VERTEX
  5
5DC
330
58E
100
AcDbEntity
  8
0
100
AcDbVertex
100
AcDb3dPolylineVertex
 10
42.42099999999999
 20
74.65139999999999
 30
0.0
 70
    32
  0
VERTEX
  5
5DD
330
58E
100
AcDbEntity
  8
0
100
AcDbVertex
100
AcDb3dPolylineVertex
 10
42.7111
 20
74.67539999999999
 30
0.0
 70
    32
  0
VERTEX
  5
5DE
330
58E
100
AcDbEntity
  8
0
100
AcDbVertex
100
AcDb3dPolylineVertex
 10
42.9987
 20
74.70099999999999
 30
0.0
 70
    32
  0
VERTEX
  5
5DF
330
58E
100
AcDbEntity
  8
0
100
AcDbVertex
100
AcDb3dPolylineVertex
 10
43.28349999999999
 20
74.72839999999999
 30
0.0
 70
    32
  0
VERTEX
  5
5E0
330
58E
100
AcDbEntity
  8
0
100
AcDbVertex
100
AcDb3dPolylineVertex
 10
43.5655
 20
74.7574
 30
0.0
 70
    32
  0
VERTEX
  5
5E1
330
58E
100
AcDbEntity
  8
0
100
AcDbVertex
100
AcDb3dPolylineVertex
 10
43.8444
 20
74.78799999999999
 30
0.0
 70
    32
  0
VERTEX
  5
5E2
330
58E
100
AcDbEntity
  8
0
100
AcDbVertex
100
AcDb3dPolylineVertex
 10
44.1201
 20
74.8203
 30
0.0
 70
    32
  0
VERTEX
  5
5E3
330
58E
100
AcDbEntity
  8
0
100
AcDbVertex
100
AcDb3dPolylineVertex
 10
44.3925
 20
74.85420000000001
 30
0.0
 70
    32
  0
VERTEX
  5
5E4
330
58E
100
AcDbEntity
  8
0
100
AcDbVertex
100
AcDb3dPolylineVertex
 10
44.6612
 20
74.88970000000001
 30
0.0
 70
    32
  0
VERTEX
  5
5E5
330
58E
100
AcDbEntity
  8
0
100
AcDbVertex
100
AcDb3dPolylineVertex
 10
44.9263
 20
74.9268
 30
0.0
 70
    32
  0
VERTEX
  5
5E6
330
58E
100
AcDbEntity
  8
0
100
AcDbVertex
100
AcDb3dPolylineVertex
 10
45.18749999999999
 20
74.9654
 30
0.0
 70
    32
  0
VERTEX
  5
5E7
330
58E
100
AcDbEntity
  8
0
100
AcDbVertex
100
AcDb3dPolylineVertex
 10
45.44459999999999
 20
75.0056
 30
0.0
 70
    32
  0
VERTEX
  5
5E8
330
58E
100
AcDbEntity
  8
0
100
AcDbVertex
100
AcDb3dPolylineVertex
 10
45.6976
 20
75.0472
 30
0.0
 70
    32
  0
VERTEX
  5
5E9
330
58E
100
AcDbEntity
  8
0
100
AcDbVertex
100
AcDb3dPolylineVertex
 10
45.94619999999999
 20
75.0904
 30
0.0
 70
    32
  0
VERTEX
  5
5EA
330
58E
100
AcDbEntity
  8
0
100
AcDbVertex
100
AcDb3dPolylineVertex
 10
46.1904
 20
75.135
 30
0.0
 70
    32
  0
VERTEX
  5
5EB
330
58E
100
AcDbEntity
  8
0
100
AcDbVertex
100
AcDb3dPolylineVertex
 10
46.4299
 20
75.181
 30
0.0
 70
    32
  0
VERTEX
  5
5EC
330
58E
100
AcDbEntity
  8
0
100
AcDbVertex
100
AcDb3dPolylineVertex
 10
46.6647
 20
75.22839999999999
 30
0.0
 70
    32
  0
VERTEX
  5
5ED
330
58E
100
AcDbEntity
  8
0
100
AcDbVertex
100
AcDb3dPolylineVertex
 10
46.89449999999999
 20
75.2771
 30
0.0
 70
    32
  0
VERTEX
  5
5EE
330
58E
100
AcDbEntity
  8
0
100
AcDbVertex
100
AcDb3dPolylineVertex
 10
47.1193
 20
75.32729999999999
 30
0.0
 70
    32
  0
VERTEX
  5
5EF
330
58E
100
AcDbEntity
  8
0
100
AcDbVertex
100
AcDb3dPolylineVertex
 10
47.3388
 20
75.37869999999999
 30
0.0
 70
    32
  0
VERTEX
  5
5F0
330
58E
100
AcDbEntity
  8
0
100
AcDbVertex
100
AcDb3dPolylineVertex
 10
47.5531
 20
75.4314
 30
0.0
 70
    32
  0
VERTEX
  5
5F1
330
58E
100
AcDbEntity
  8
0
100
AcDbVertex
100
AcDb3dPolylineVertex
 10
47.76189999999999
 20
75.48529999999999
 30
0.0
 70
    32
  0
VERTEX
  5
5F2
330
58E
100
AcDbEntity
  8
0
100
AcDbVertex
100
AcDb3dPolylineVertex
 10
47.9651
 20
75.5405
 30
0.0
 70
    32
  0
VERTEX
  5
5F3
330
58E
100
AcDbEntity
  8
0
100
AcDbVertex
100
AcDb3dPolylineVertex
 10
48.16259999999999
 20
75.5968
 30
0.0
 70
    32
  0
VERTEX
  5
5F4
330
58E
100
AcDbEntity
  8
0
100
AcDbVertex
100
AcDb3dPolylineVertex
 10
48.3543
 20
75.6543
 30
0.0
 70
    32
  0
VERTEX
  5
5F5
330
58E
100
AcDbEntity
  8
0
100
AcDbVertex
100
AcDb3dPolylineVertex
 10
48.5401
 20
75.71290000000001
 30
0.0
 70
    32
  0
VERTEX
  5
5F6
330
58E
100
AcDbEntity
  8
0
100
AcDbVertex
100
AcDb3dPolylineVertex
 10
48.7198
 20
75.77259999999999
 30
0.0
 70
    32
  0
VERTEX
  5
5F7
330
58E
100
AcDbEntity
  8
0
100
AcDbVertex
100
AcDb3dPolylineVertex
 10
48.8934
 20
75.8333
 30
0.0
 70
    32
  0
VERTEX
  5
5F8
330
58E
100
AcDbEntity
  8
0
100
AcDbVertex
100
AcDb3dPolylineVertex
 10
49.06069999999999
 20
75.895
 30
0.0
 70
    32
  0
VERTEX
  5
5F9
330
58E
100
AcDbEntity
  8
0
100
AcDbVertex
100
AcDb3dPolylineVertex
 10
49.2216
 20
75.9577
 30
0.0
 70
    32
  0
VERTEX
  5
5FA
330
58E
100
AcDbEntity
  8
0
100
AcDbVertex
100
AcDb3dPolylineVertex
 10
49.3761
 20
76.02129999999999
 30
0.0
 70
    32
  0
VERTEX
  5
5FB
330
58E
100
AcDbEntity
  8
0
100
AcDbVertex
100
AcDb3dPolylineVertex
 10
49.524
 20
76.0858
 30
0.0
 70
    32
  0
VERTEX
  5
5FC
330
58E
100
AcDbEntity
  8
0
100
AcDbVertex
100
AcDb3dPolylineVertex
 10
49.6653
 20
76.1512
 30
0.0
 70
    32
  0
VERTEX
  5
5FD
330
58E
100
AcDbEntity
  8
0
100
AcDbVertex
100
AcDb3dPolylineVertex
 10
49.7999
 20
76.21729999999999
 30
0.0
 70
    32
  0
VERTEX
  5
5FE
330
58E
100
AcDbEntity
  8
0
100
AcDbVertex
100
AcDb3dPolylineVertex
 10
49.9276
 20
76.2843
 30
0.0
 70
    32
  0
VERTEX
  5
5FF
330
58E
100
AcDbEntity
  8
0
100
AcDbVertex
100
AcDb3dPolylineVertex
 10
50.0485
 20
76.3519
 30
0.0
 70
    32
  0
VERTEX
  5
600
330
58E
100
AcDbEntity
  8
0
100
AcDbVertex
100
AcDb3dPolylineVertex
 10
50.16239999999999
 20
76.4203
 30
0.0
 70
    32
  0
VERTEX
  5
601
330
58E
100
AcDbEntity
  8
0
100
AcDbVertex
100
AcDb3dPolylineVertex
 10
50.2693
 20
76.4893
 30
0.0
 70
    32
  0
VERTEX
  5
602
330
58E
100
AcDbEntity
  8
0
100
AcDbVertex
100
AcDb3dPolylineVertex
 10
50.3691
 20
76.55899999999999
 30
0.0
 70
    32
  0
VERTEX
  5
603
330
58E
100
AcDbEntity
  8
0
100
AcDbVertex
100
AcDb3dPolylineVertex
 10
50.46179999999999
 20
76.6291
 30
0.0
 70
    32
  0
VERTEX
  5
604
330
58E
100
AcDbEntity
  8
0
100
AcDbVertex
100
AcDb3dPolylineVertex
 10
50.54719999999999
 20
76.6999
 30
0.0
 70
    32
  0
VERTEX
  5
605
330
58E
100
AcDbEntity
  8
0
100
AcDbVertex
100
AcDb3dPolylineVertex
 10
50.6254
 20
76.7711
 30
0.0
 70
    32
  0
VERTEX
  5
606
330
58E
100
AcDbEntity
  8
0
100
AcDbVertex
100
AcDb3dPolylineVertex
 10
50.6963
 20
76.84269999999999
 30
0.0
 70
    32
  0
VERTEX
  5
607
330
58E
100
AcDbEntity
  8
0
100
AcDbVertex
100
AcDb3dPolylineVertex
 10
50.7598
 20
76.91469999999999
 30
0.0
 70
    32
  0
VERTEX
  5
608
330
58E
100
AcDbEntity
  8
0
100
AcDbVertex
100
AcDb3dPolylineVertex
 10
50.816
 20
76.9871
 30
0.0
 70
    32
  0
VERTEX
  5
609
330
58E
100
AcDbEntity
  8
0
100
AcDbVertex
100
AcDb3dPolylineVertex
 10
50.8647
 20
77.0598
 30
0.0
 70
    32
  0
VERTEX
  5
60A
330
58E
100
AcDbEntity
  8
0
100
AcDbVertex
100
AcDb3dPolylineVertex
 10
50.906
 20
77.13280000000001
 30
0.0
 70
    32
  0
VERTEX
  5
60B
330
58E
100
AcDbEntity
  8
0
100
AcDbVertex
100
AcDb3dPolylineVertex
 10
50.9398
 20
77.2059
 30
0.0
 70
    32
  0
VERTEX
  5
60C
330
58E
100
AcDbEntity
  8
0
100
AcDbVertex
100
AcDb3dPolylineVertex
 10
50.9661
 20
77.2793
 30
0.0
 70
    32
  0
VERTEX
  5
60D
330
58E
100
AcDbEntity
  8
0
100
AcDbVertex
100
AcDb3dPolylineVertex
 10
50.9849
 20
77.3528
 30
0.0
 70
    32
  0
VERTEX
  5
60E
330
58E
100
AcDbEntity
  8
0
100
AcDbVertex
100
AcDb3dPolylineVertex
 10
50.9962
 20
77.4264
 30
0.0
 70
    32
  0
VERTEX
  5
60F
330
58E
100
AcDbEntity
  8
0
100
AcDbVertex
100
AcDb3dPolylineVertex
 10
51.0
 20
77.5
 30
0.0
 70
    32
  0
SEQEND
  5
610
330
58E
100
AcDbEntity
  8
0
  0
LINE
  5
611
330
42B
100
AcDbEntity
  8
0
100
AcDbLine
 10
51.0
 20
77.5
 30
0.0
 11
51.0
 21
109.0
 31
0.0
  0
LINE
  5
612
330
42B
100
AcDbEntity
  8
0
100
AcDbLine
 10
26.0
 20
77.5
 30
0.0
 11
26.0
 21
109.0
 31
0.0
  0
POLYLINE
  5
613
330
42B
100
AcDbEntity
  8
0
100
AcDb3dPolyline
 66
     1
 10
0.0
 20
0.0
 30
0.0
 70
     8
  0
VERTEX
  5
614
330
613
100
AcDbEntity
  8
0
100
AcDbVertex
100
AcDb3dPolylineVertex
 10
26.2784
 20
109.63
 30
0.0
 70
    32
  0
VERTEX
  5
615
330
613
100
AcDbEntity
  8
0
100
AcDbVertex
100
AcDb3dPolylineVertex
 10
26.2101
 20
109.548
 30
0.0
 70
    32
  0
VERTEX
  5
616
330
613
100
AcDbEntity
  8
0
100
AcDbVertex
100
AcDb3dPolylineVertex
 10
26.1513
 20
109.465
 30
0.0
 70
    32
  0
VERTEX
  5
617
330
613
100
AcDbEntity
  8
0
100
AcDbVertex
100
AcDb3dPolylineVertex
 10
26.1021
 20
109.383
 30
0.0
 70
    32
  0
VERTEX
  5
618
330
613
100
AcDbEntity
  8
0
100
AcDbVertex
100
AcDb3dPolylineVertex
 10
26.0625
 20
109.2999999999999
 30
0.0
 70
    32
  0
VERTEX
  5
619
330
613
100
AcDbEntity
  8
0
100
AcDbVertex
100
AcDb3dPolylineVertex
 10
26.0326
 20
109.216
 30
0.0
 70
    32
  0
VERTEX
  5
61A
330
613
100
AcDbEntity
  8
0
100
AcDbVertex
100
AcDb3dPolylineVertex
 10
26.0123
 20
109.1329999999999
 30
0.0
 70
    32
  0
VERTEX
  5
61B
330
613
100
AcDbEntity
  8
0
100
AcDbVertex
100
AcDb3dPolylineVertex
 10
26.0017
 20
109.05
 30
0.0
 70
    32
  0
VERTEX
  5
61C
330
613
100
AcDbEntity
  8
0
100
AcDbVertex
100
AcDb3dPolylineVertex
 10
26.0008
 20
108.966
 30
0.0
 70
    32
  0
VERTEX
  5
61D
330
613
100
AcDbEntity
  8
0
100
AcDbVertex
100
AcDb3dPolylineVertex
 10
26.0096
 20
108.8829999999999
 30
0.0
 70
    32
  0
VERTEX
  5
61E
330
613
100
AcDbEntity
  8
0
100
AcDbVertex
100
AcDb3dPolylineVertex
 10
26.02809999999999
 20
108.799
 30
0.0
 70
    32
  0
VERTEX
  5
61F
330
613
100
AcDbEntity
  8
0
100
AcDbVertex
100
AcDb3dPolylineVertex
 10
26.0562
 20
108.716
 30
0.0
 70
    32
  0
VERTEX
  5
620
330
613
100
AcDbEntity
  8
0
100
AcDbVertex
100
AcDb3dPolylineVertex
 10
26.094
 20
108.633
 30
0.0
 70
    32
  0
VERTEX
  5
621
330
613
100
AcDbEntity
  8
0
100
AcDbVertex
100
AcDb3dPolylineVertex
 10
26.1414
 20
108.5499999999999
 30
0.0
 70
    32
  0
VERTEX
  5
622
330
613
100
AcDbEntity
  8
0
100
AcDbVertex
100
AcDb3dPolylineVertex
 10
26.19839999999999
 20
108.4679999999999
 30
0.0
 70
    32
  0
VERTEX
  5
623
330
613
100
AcDbEntity
  8
0
100
AcDbVertex
100
AcDb3dPolylineVertex
 10
26.265
 20
108.386
 30
0.0
 70
    32
  0
VERTEX
  5
624
330
613
100
AcDbEntity
  8
0
100
AcDbVertex
100
AcDb3dPolylineVertex
 10
26.341
 20
108.304
 30
0.0
 70
    32
  0
VERTEX
  5
625
330
613
100
AcDbEntity
  8
0
100
AcDbVertex
100
AcDb3dPolylineVertex
 10
26.4264
 20
108.223
 30
0.0
 70
    32
  0
VERTEX
  5
626
330
613
100
AcDbEntity
  8
0
100
AcDbVertex
100
AcDb3dPolylineVertex
 10
26.5213
 20
108.1429999999999
 30
0.0
 70
    32
  0
VERTEX
  5
627
330
613
100
AcDbEntity
  8
0
100
AcDbVertex
100
AcDb3dPolylineVertex
 10
26.62539999999999
 20
108.0629999999999
 30
0.0
 70
    32
  0
VERTEX
  5
628
330
613
100
AcDbEntity
  8
0
100
AcDbVertex
100
AcDb3dPolylineVertex
 10
26.7387
 20
107.9839999999999
 30
0.0
 70
    32
  0
VERTEX
  5
629
330
613
100
AcDbEntity
  8
0
100
AcDbVertex
100
AcDb3dPolylineVertex
 10
26.8611
 20
107.906
 30
0.0
 70
    32
  0
VERTEX
  5
62A
330
613
100
AcDbEntity
  8
0
100
AcDbVertex
100
AcDb3dPolylineVertex
 10
26.9926
 20
107.8279999999999
 30
0.0
 70
    32
  0
VERTEX
  5
62B
330
613
100
AcDbEntity
  8
0
100
AcDbVertex
100
AcDb3dPolylineVertex
 10
27.1329
 20
107.752
 30
0.0
 70
    32
  0
VERTEX
  5
62C
330
613
100
AcDbEntity
  8
0
100
AcDbVertex
100
AcDb3dPolylineVertex
 10
27.2821
 20
107.677
 30
0.0
 70
    32
  0
VERTEX
  5
62D
330
613
100
AcDbEntity
  8
0
100
AcDbVertex
100
AcDb3dPolylineVertex
 10
27.44
 20
107.6019999999999
 30
0.0
 70
    32
  0
VERTEX
  5
62E
330
613
100
AcDbEntity
  8
0
100
AcDbVertex
100
AcDb3dPolylineVertex
 10
27.6065
 20
107.529
 30
0.0
 70
    32
  0
VERTEX
  5
62F
330
613
100
AcDbEntity
  8
0
100
AcDbVertex
100
AcDb3dPolylineVertex
 10
27.7814
 20
107.4559999999999
 30
0.0
 70
    32
  0
VERTEX
  5
630
330
613
100
AcDbEntity
  8
0
100
AcDbVertex
100
AcDb3dPolylineVertex
 10
27.9647
 20
107.3849999999999
 30
0.0
 70
    32
  0
VERTEX
  5
631
330
613
100
AcDbEntity
  8
0
100
AcDbVertex
100
AcDb3dPolylineVertex
 10
28.15609999999999
 20
107.316
 30
0.0
 70
    32
  0
VERTEX
  5
632
330
613
100
AcDbEntity
  8
0
100
AcDbVertex
100
AcDb3dPolylineVertex
 10
28.35549999999999
 20
107.247
 30
0.0
 70
    32
  0
VERTEX
  5
633
330
613
100
AcDbEntity
  8
0
100
AcDbVertex
100
AcDb3dPolylineVertex
 10
28.56279999999999
 20
107.18
 30
0.0
 70
    32
  0
VERTEX
  5
634
330
613
100
AcDbEntity
  8
0
100
AcDbVertex
100
AcDb3dPolylineVertex
 10
28.77779999999999
 20
107.1139999999999
 30
0.0
 70
    32
  0
VERTEX
  5
635
330
613
100
AcDbEntity
  8
0
100
AcDbVertex
100
AcDb3dPolylineVertex
 10
29.0003
 20
107.05
 30
0.0
 70
    32
  0
VERTEX
  5
636
330
613
100
AcDbEntity
  8
0
100
AcDbVertex
100
AcDb3dPolylineVertex
 10
29.2302
 20
106.9873999999999
 30
0.0
 70
    32
  0
VERTEX
  5
637
330
613
100
AcDbEntity
  8
0
100
AcDbVertex
100
AcDb3dPolylineVertex
 10
29.4673
 20
106.9263
 30
0.0
 70
    32
  0
VERTEX
  5
638
330
613
100
AcDbEntity
  8
0
100
AcDbVertex
100
AcDb3dPolylineVertex
 10
29.7114
 20
106.8667
 30
0.0
 70
    32
  0
VERTEX
  5
639
330
613
100
AcDbEntity
  8
0
100
AcDbVertex
100
AcDb3dPolylineVertex
 10
29.9623
 20
106.8088
 30
0.0
 70
    32
  0
VERTEX
  5
63A
330
613
100
AcDbEntity
  8
0
100
AcDbVertex
100
AcDb3dPolylineVertex
 10
30.2198
 20
106.7525999999999
 30
0.0
 70
    32
  0
VERTEX
  5
63B
330
613
100
AcDbEntity
  8
0
100
AcDbVertex
100
AcDb3dPolylineVertex
 10
30.4837
 20
106.6980999999999
 30
0.0
 70
    32
  0
VERTEX
  5
63C
330
613
100
AcDbEntity
  8
0
100
AcDbVertex
100
AcDb3dPolylineVertex
 10
30.7539
 20
106.6454999999999
 30
0.0
 70
    32
  0
VERTEX
  5
63D
330
613
100
AcDbEntity
  8
0
100
AcDbVertex
100
AcDb3dPolylineVertex
 10
31.0301
 20
106.5946
 30
0.0
 70
    32
  0
VERTEX
  5
63E
330
613
100
AcDbEntity
  8
0
100
AcDbVertex
100
AcDb3dPolylineVertex
 10
31.312
 20
106.5455999999999
 30
0.0
 70
    32
  0
VERTEX
  5
63F
330
613
100
AcDbEntity
  8
0
100
AcDbVertex
100
AcDb3dPolylineVertex
 10
31.59959999999999
 20
106.4985
 30
0.0
 70
    32
  0
VERTEX
  5
640
330
613
100
AcDbEntity
  8
0
100
AcDbVertex
100
AcDb3dPolylineVertex
 10
31.89249999999999
 20
106.4534
 30
0.0
 70
    32
  0
VERTEX
  5
641
330
613
100
AcDbEntity
  8
0
100
AcDbVertex
100
AcDb3dPolylineVertex
 10
32.1905
 20
106.4102
 30
0.0
 70
    32
  0
VERTEX
  5
642
330
613
100
AcDbEntity
  8
0
100
AcDbVertex
100
AcDb3dPolylineVertex
 10
32.4934
 20
106.3690999999999
 30
0.0
 70
    32
  0
VERTEX
  5
643
330
613
100
AcDbEntity
  8
0
100
AcDbVertex
100
AcDb3dPolylineVertex
 10
32.80089999999999
 20
106.3298999999999
 30
0.0
 70
    32
  0
VERTEX
  5
644
330
613
100
AcDbEntity
  8
0
100
AcDbVertex
100
AcDb3dPolylineVertex
 10
33.1129
 20
106.2929
 30
0.0
 70
    32
  0
VERTEX
  5
645
330
613
100
AcDbEntity
  8
0
100
AcDbVertex
100
AcDb3dPolylineVertex
 10
33.42909999999999
 20
106.2579
 30
0.0
 70
    32
  0
VERTEX
  5
646
330
613
100
AcDbEntity
  8
0
100
AcDbVertex
100
AcDb3dPolylineVertex
 10
33.7492
 20
106.2251
 30
0.0
 70
    32
  0
VERTEX
  5
647
330
613
100
AcDbEntity
  8
0
100
AcDbVertex
100
AcDb3dPolylineVertex
 10
34.073
 20
106.1943999999999
 30
0.0
 70
    32
  0
VERTEX
  5
648
330
613
100
AcDbEntity
  8
0
100
AcDbVertex
100
AcDb3dPolylineVertex
 10
34.4002
 20
106.166
 30
0.0
 70
    32
  0
VERTEX
  5
649
330
613
100
AcDbEntity
  8
0
100
AcDbVertex
100
AcDb3dPolylineVertex
 10
34.7306
 20
106.1397
 30
0.0
 70
    32
  0
VERTEX
  5
64A
330
613
100
AcDbEntity
  8
0
100
AcDbVertex
100
AcDb3dPolylineVertex
 10
35.06389999999999
 20
106.1155999999999
 30
0.0
 70
    32
  0
VERTEX
  5
64B
330
613
100
AcDbEntity
  8
0
100
AcDbVertex
100
AcDb3dPolylineVertex
 10
35.39979999999999
 20
106.0937
 30
0.0
 70
    32
  0
VERTEX
  5
64C
330
613
100
AcDbEntity
  8
0
100
AcDbVertex
100
AcDb3dPolylineVertex
 10
35.73819999999999
 20
106.0740999999999
 30
0.0
 70
    32
  0
VERTEX
  5
64D
330
613
100
AcDbEntity
  8
0
100
AcDbVertex
100
AcDb3dPolylineVertex
 10
36.0787
 20
106.0567999999999
 30
0.0
 70
    32
  0
VERTEX
  5
64E
330
613
100
AcDbEntity
  8
0
100
AcDbVertex
100
AcDb3dPolylineVertex
 10
36.4211
 20
106.0417999999999
 30
0.0
 70
    32
  0
VERTEX
  5
64F
330
613
100
AcDbEntity
  8
0
100
AcDbVertex
100
AcDb3dPolylineVertex
 10
36.76509999999999
 20
106.0289999999999
 30
0.0
 70
    32
  0
VERTEX
  5
650
330
613
100
AcDbEntity
  8
0
100
AcDbVertex
100
AcDb3dPolylineVertex
 10
37.1105
 20
106.0186
 30
0.0
 70
    32
  0
VERTEX
  5
651
330
613
100
AcDbEntity
  8
0
100
AcDbVertex
100
AcDb3dPolylineVertex
 10
37.45689999999999
 20
106.0104999999999
 30
0.0
 70
    32
  0
VERTEX
  5
652
330
613
100
AcDbEntity
  8
0
100
AcDbVertex
100
AcDb3dPolylineVertex
 10
37.8042
 20
106.0046999999999
 30
0.0
 70
    32
  0
VERTEX
  5
653
330
613
100
AcDbEntity
  8
0
100
AcDbVertex
100
AcDb3dPolylineVertex
 10
38.15189999999999
 20
106.0011999999999
 30
0.0
 70
    32
  0
VERTEX
  5
654
330
613
100
AcDbEntity
  8
0
100
AcDbVertex
100
AcDb3dPolylineVertex
 10
38.5
 20
106.0
 30
0.0
 70
    32
  0
VERTEX
  5
655
330
613
100
AcDbEntity
  8
0
100
AcDbVertex
100
AcDb3dPolylineVertex
 10
38.8481
 20
106.0011999999999
 30
0.0
 70
    32
  0
VERTEX
  5
656
330
613
100
AcDbEntity
  8
0
100
AcDbVertex
100
AcDb3dPolylineVertex
 10
39.19579999999999
 20
106.0046999999999
 30
0.0
 70
    32
  0
VERTEX
  5
657
330
613
100
AcDbEntity
  8
0
100
AcDbVertex
100
AcDb3dPolylineVertex
 10
39.5431
 20
106.0104999999999
 30
0.0
 70
    32
  0
VERTEX
  5
658
330
613
100
AcDbEntity
  8
0
100
AcDbVertex
100
AcDb3dPolylineVertex
 10
39.88949999999999
 20
106.0186
 30
0.0
 70
    32
  0
VERTEX
  5
659
330
613
100
AcDbEntity
  8
0
100
AcDbVertex
100
AcDb3dPolylineVertex
 10
40.2349
 20
106.0289999999999
 30
0.0
 70
    32
  0
VERTEX
  5
65A
330
613
100
AcDbEntity
  8
0
100
AcDbVertex
100
AcDb3dPolylineVertex
 10
40.57889999999999
 20
106.0417999999999
 30
0.0
 70
    32
  0
VERTEX
  5
65B
330
613
100
AcDbEntity
  8
0
100
AcDbVertex
100
AcDb3dPolylineVertex
 10
40.9213
 20
106.0567999999999
 30
0.0
 70
    32
  0
VERTEX
  5
65C
330
613
100
AcDbEntity
  8
0
100
AcDbVertex
100
AcDb3dPolylineVertex
 10
41.2618
 20
106.0740999999999
 30
0.0
 70
    32
  0
VERTEX
  5
65D
330
613
100
AcDbEntity
  8
0
100
AcDbVertex
100
AcDb3dPolylineVertex
 10
41.6002
 20
106.0937
 30
0.0
 70
    32
  0
VERTEX
  5
65E
330
613
100
AcDbEntity
  8
0
100
AcDbVertex
100
AcDb3dPolylineVertex
 10
41.9361
 20
106.1155999999999
 30
0.0
 70
    32
  0
VERTEX
  5
65F
330
613
100
AcDbEntity
  8
0
100
AcDbVertex
100
AcDb3dPolylineVertex
 10
42.26939999999999
 20
106.1397
 30
0.0
 70
    32
  0
VERTEX
  5
660
330
613
100
AcDbEntity
  8
0
100
AcDbVertex
100
AcDb3dPolylineVertex
 10
42.5998
 20
106.166
 30
0.0
 70
    32
  0
VERTEX
  5
661
330
613
100
AcDbEntity
  8
0
100
AcDbVertex
100
AcDb3dPolylineVertex
 10
42.92699999999999
 20
106.1943999999999
 30
0.0
 70
    32
  0
VERTEX
  5
662
330
613
100
AcDbEntity
  8
0
100
AcDbVertex
100
AcDb3dPolylineVertex
 10
43.25079999999999
 20
106.2251
 30
0.0
 70
    32
  0
VERTEX
  5
663
330
613
100
AcDbEntity
  8
0
100
AcDbVertex
100
AcDb3dPolylineVertex
 10
43.5709
 20
106.2579
 30
0.0
 70
    32
  0
VERTEX
  5
664
330
613
100
AcDbEntity
  8
0
100
AcDbVertex
100
AcDb3dPolylineVertex
 10
43.88709999999999
 20
106.2929
 30
0.0
 70
    32
  0
VERTEX
  5
665
330
613
100
AcDbEntity
  8
0
100
AcDbVertex
100
AcDb3dPolylineVertex
 10
44.1991
 20
106.3298999999999
 30
0.0
 70
    32
  0
VERTEX
  5
666
330
613
100
AcDbEntity
  8
0
100
AcDbVertex
100
AcDb3dPolylineVertex
 10
44.5066
 20
106.3690999999999
 30
0.0
 70
    32
  0
VERTEX
  5
667
330
613
100
AcDbEntity
  8
0
100
AcDbVertex
100
AcDb3dPolylineVertex
 10
44.80949999999999
 20
106.4102
 30
0.0
 70
    32
  0
VERTEX
  5
668
330
613
100
AcDbEntity
  8
0
100
AcDbVertex
100
AcDb3dPolylineVertex
 10
45.1075
 20
106.4534
 30
0.0
 70
    32
  0
VERTEX
  5
669
330
613
100
AcDbEntity
  8
0
100
AcDbVertex
100
AcDb3dPolylineVertex
 10
45.4004
 20
106.4985
 30
0.0
 70
    32
  0
VERTEX
  5
66A
330
613
100
AcDbEntity
  8
0
100
AcDbVertex
100
AcDb3dPolylineVertex
 10
45.688
 20
106.5455999999999
 30
0.0
 70
    32
  0
VERTEX
  5
66B
330
613
100
AcDbEntity
  8
0
100
AcDbVertex
100
AcDb3dPolylineVertex
 10
45.9699
 20
106.5946
 30
0.0
 70
    32
  0
VERTEX
  5
66C
330
613
100
AcDbEntity
  8
0
100
AcDbVertex
100
AcDb3dPolylineVertex
 10
46.24609999999999
 20
106.6454999999999
 30
0.0
 70
    32
  0
VERTEX
  5
66D
330
613
100
AcDbEntity
  8
0
100
AcDbVertex
100
AcDb3dPolylineVertex
 10
46.51629999999999
 20
106.6980999999999
 30
0.0
 70
    32
  0
VERTEX
  5
66E
330
613
100
AcDbEntity
  8
0
100
AcDbVertex
100
AcDb3dPolylineVertex
 10
46.7802
 20
106.7525999999999
 30
0.0
 70
    32
  0
VERTEX
  5
66F
330
613
100
AcDbEntity
  8
0
100
AcDbVertex
100
AcDb3dPolylineVertex
 10
47.0377
 20
106.8088
 30
0.0
 70
    32
  0
VERTEX
  5
670
330
613
100
AcDbEntity
  8
0
100
AcDbVertex
100
AcDb3dPolylineVertex
 10
47.2886
 20
106.8667
 30
0.0
 70
    32
  0
VERTEX
  5
671
330
613
100
AcDbEntity
  8
0
100
AcDbVertex
100
AcDb3dPolylineVertex
 10
47.53269999999999
 20
106.9263
 30
0.0
 70
    32
  0
VERTEX
  5
672
330
613
100
AcDbEntity
  8
0
100
AcDbVertex
100
AcDb3dPolylineVertex
 10
47.7698
 20
106.9873999999999
 30
0.0
 70
    32
  0
VERTEX
  5
673
330
613
100
AcDbEntity
  8
0
100
AcDbVertex
100
AcDb3dPolylineVertex
 10
47.9997
 20
107.05
 30
0.0
 70
    32
  0
VERTEX
  5
674
330
613
100
AcDbEntity
  8
0
100
AcDbVertex
100
AcDb3dPolylineVertex
 10
48.2222
 20
107.1139999999999
 30
0.0
 70
    32
  0
VERTEX
  5
675
330
613
100
AcDbEntity
  8
0
100
AcDbVertex
100
AcDb3dPolylineVertex
 10
48.4372
 20
107.18
 30
0.0
 70
    32
  0
VERTEX
  5
676
330
613
100
AcDbEntity
  8
0
100
AcDbVertex
100
AcDb3dPolylineVertex
 10
48.6445
 20
107.247
 30
0.0
 70
    32
  0
VERTEX
  5
677
330
613
100
AcDbEntity
  8
0
100
AcDbVertex
100
AcDb3dPolylineVertex
 10
48.84389999999999
 20
107.316
 30
0.0
 70
    32
  0
VERTEX
  5
678
330
613
100
AcDbEntity
  8
0
100
AcDbVertex
100
AcDb3dPolylineVertex
 10
49.03529999999999
 20
107.3849999999999
 30
0.0
 70
    32
  0
VERTEX
  5
679
330
613
100
AcDbEntity
  8
0
100
AcDbVertex
100
AcDb3dPolylineVertex
 10
49.2186
 20
107.4559999999999
 30
0.0
 70
    32
  0
VERTEX
  5
67A
330
613
100
AcDbEntity
  8
0
100
AcDbVertex
100
AcDb3dPolylineVertex
 10
49.39350000000001
 20
107.529
 30
0.0
 70
    32
  0
VERTEX
  5
67B
330
613
100
AcDbEntity
  8
0
100
AcDbVertex
100
AcDb3dPolylineVertex
 10
49.56
 20
107.6019999999999
 30
0.0
 70
    32
  0
VERTEX
  5
67C
330
613
100
AcDbEntity
  8
0
100
AcDbVertex
100
AcDb3dPolylineVertex
 10
49.7179
 20
107.677
 30
0.0
 70
    32
  0
VERTEX
  5
67D
330
613
100
AcDbEntity
  8
0
100
AcDbVertex
100
AcDb3dPolylineVertex
 10
49.8671
 20
107.752
 30
0.0
 70
    32
  0
VERTEX
  5
67E
330
613
100
AcDbEntity
  8
0
100
AcDbVertex
100
AcDb3dPolylineVertex
 10
50.0074
 20
107.8279999999999
 30
0.0
 70
    32
  0
VERTEX
  5
67F
330
613
100
AcDbEntity
  8
0
100
AcDbVertex
100
AcDb3dPolylineVertex
 10
50.13889999999999
 20
107.906
 30
0.0
 70
    32
  0
VERTEX
  5
680
330
613
100
AcDbEntity
  8
0
100
AcDbVertex
100
AcDb3dPolylineVertex
 10
50.2613
 20
107.9839999999999
 30
0.0
 70
    32
  0
VERTEX
  5
681
330
613
100
AcDbEntity
  8
0
100
AcDbVertex
100
AcDb3dPolylineVertex
 10
50.3746
 20
108.0629999999999
 30
0.0
 70
    32
  0
VERTEX
  5
682
330
613
100
AcDbEntity
  8
0
100
AcDbVertex
100
AcDb3dPolylineVertex
 10
50.4787
 20
108.1429999999999
 30
0.0
 70
    32
  0
VERTEX
  5
683
330
613
100
AcDbEntity
  8
0
100
AcDbVertex
100
AcDb3dPolylineVertex
 10
50.5736
 20
108.223
 30
0.0
 70
    32
  0
VERTEX
  5
684
330
613
100
AcDbEntity
  8
0
100
AcDbVertex
100
AcDb3dPolylineVertex
 10
50.659
 20
108.304
 30
0.0
 70
    32
  0
VERTEX
  5
685
330
613
100
AcDbEntity
  8
0
100
AcDbVertex
100
AcDb3dPolylineVertex
 10
50.735
 20
108.386
 30
0.0
 70
    32
  0
VERTEX
  5
686
330
613
100
AcDbEntity
  8
0
100
AcDbVertex
100
AcDb3dPolylineVertex
 10
50.8016
 20
108.4679999999999
 30
0.0
 70
    32
  0
VERTEX
  5
687
330
613
100
AcDbEntity
  8
0
100
AcDbVertex
100
AcDb3dPolylineVertex
 10
50.8586
 20
108.5499999999999
 30
0.0
 70
    32
  0
VERTEX
  5
688
330
613
100
AcDbEntity
  8
0
100
AcDbVertex
100
AcDb3dPolylineVertex
 10
50.906
 20
108.633
 30
0.0
 70
    32
  0
VERTEX
  5
689
330
613
100
AcDbEntity
  8
0
100
AcDbVertex
100
AcDb3dPolylineVertex
 10
50.94380000000001
 20
108.716
 30
0.0
 70
    32
  0
VERTEX
  5
68A
330
613
100
AcDbEntity
  8
0
100
AcDbVertex
100
AcDb3dPolylineVertex
 10
50.9719
 20
108.799
 30
0.0
 70
    32
  0
VERTEX
  5
68B
330
613
100
AcDbEntity
  8
0
100
AcDbVertex
100
AcDb3dPolylineVertex
 10
50.9904
 20
108.8829999999999
 30
0.0
 70
    32
  0
VERTEX
  5
68C
330
613
100
AcDbEntity
  8
0
100
AcDbVertex
100
AcDb3dPolylineVertex
 10
50.9992
 20
108.966
 30
0.0
 70
    32
  0
VERTEX
  5
68D
330
613
100
AcDbEntity
  8
0
100
AcDbVertex
100
AcDb3dPolylineVertex
 10
50.9983
 20
109.05
 30
0.0
 70
    32
  0
VERTEX
  5
68E
330
613
100
AcDbEntity
  8
0
100
AcDbVertex
100
AcDb3dPolylineVertex
 10
50.9877
 20
109.1329999999999
 30
0.0
 70
    32
  0
VERTEX
  5
68F
330
613
100
AcDbEntity
  8
0
100
AcDbVertex
100
AcDb3dPolylineVertex
 10
50.9674
 20
109.216
 30
0.0
 70
    32
  0
VERTEX
  5
690
330
613
100
AcDbEntity
  8
0
100
AcDbVertex
100
AcDb3dPolylineVertex
 10
50.9375
 20
109.2999999999999
 30
0.0
 70
    32
  0
VERTEX
  5
691
330
613
100
AcDbEntity
  8
0
100
AcDbVertex
100
AcDb3dPolylineVertex
 10
50.8979
 20
109.383
 30
0.0
 70
    32
  0
VERTEX
  5
692
330
613
100
AcDbEntity
  8
0
100
AcDbVertex
100
AcDb3dPolylineVertex
 10
50.8487
 20
109.465
 30
0.0
 70
    32
  0
VERTEX
  5
693
330
613
100
AcDbEntity
  8
0
100
AcDbVertex
100
AcDb3dPolylineVertex
 10
50.78990000000001
 20
109.548
 30
0.0
 70
    32
  0
VERTEX
  5
694
330
613
100
AcDbEntity
  8
0
100
AcDbVertex
100
AcDb3dPolylineVertex
 10
50.7216
 20
109.63
 30
0.0
 70
    32
  0
SEQEND
  5
695
330
613
100
AcDbEntity
  8
0
  0
ARC
  5
696
330
42B
100
AcDbEntity
  8
0
100
AcDbCircle
 10
38.5
 20
121.4374999999999
 30
0.0
 40
8.5625
100
AcDbArc
 50
50.03378699999999
 51
129.9662129999999
  0
LINE
  5
697
330
42B
100
AcDbEntity
  8
0
100
AcDbLine
 10
44.0
 20
128.0
 30
0.0
 11
47.81695
 21
111.0
 31
0.0
  0
LINE
  5
698
330
42B
100
AcDbEntity
  8
0
100
AcDbLine
 10
33.0
 20
128.0
 30
0.0
 11
29.18305
 21
111.0
 31
0.0
  0
LINE
  5
721
330
42B
100
AcDbEntity
  8
0
100
AcDbLine
 10
33.5
 20
60.0
 30
0.0
 11
33.5
 21
41.0
 31
0.0
  0
LINE
  5
722
330
42B
100
AcDbEntity
  8
0
100
AcDbLine
 10
33.5
 20
41.0
 30
0.0
 11
34.5
 21
40.0
 31
0.0
  0
LINE
  5
723
330
42B
100
AcDbEntity
  8
0
100
AcDbLine
 10
34.5
 20
40.0
 30
0.0
 11
38.5
 21
40.0
 31
0.0
  0
LINE
  5
724
330
42B
100
AcDbEntity
  8
0
100
AcDbLine
 10
33.5
 20
58.5
 30
0.0
 11
38.5
 21
58.5
 31
0.0
  0
LINE
  5
725
330
42B
100
AcDbEntity
  8
0
100
AcDbLine
 10
34.5
 20
58.5
 30
0.0
 11
34.5
 21
40.0
 31
0.0
  0
LINE
  5
726
330
42B
100
AcDbEntity
  8
0
100
AcDbLine
 10
33.5
 20
41.0
 30
0.0
 11
38.5
 21
41.0
 31
0.0
  0
LINE
  5
727
330
42B
100
AcDbEntity
  8
0
100
AcDbLine
 10
42.5
 20
58.5
 30
0.0
 11
42.5
 21
40.0
 31
0.0
  0
LINE
  5
728
330
42B
100
AcDbEntity
  8
0
100
AcDbLine
 10
43.5
 20
60.0
 30
0.0
 11
43.5
 21
41.0
 31
0.0
  0
LINE
  5
729
330
42B
100
AcDbEntity
  8
0
100
AcDbLine
 10
43.5
 20
41.0
 30
0.0
 11
38.5
 21
41.0
 31
0.0
  0
LINE
  5
72A
330
42B
100
AcDbEntity
  8
0
100
AcDbLine
 10
42.5
 20
40.0
 30
0.0
 11
38.5
 21
40.0
 31
0.0
  0
LINE
  5
72B
330
42B
100
AcDbEntity
  8
0
100
AcDbLine
 10
43.5
 20
41.0
 30
0.0
 11
42.5
 21
40.0
 31
0.0
  0
LINE
  5
72C
330
42B
100
AcDbEntity
  8
0
100
AcDbLine
 10
43.5
 20
58.5
 30
0.0
 11
38.5
 21
58.5
 31
0.0
  0
LINE
  5
72D
330
42B
100
AcDbEntity
  8
1
100
AcDbLine
 10
109.4999999999999
 20
36.0
 30
0.0
 11
109.4999999999999
 21
117.5
 31
0.0
  0
LINE
  5
72E
330
42B
100
AcDbEntity
  8
0
100
AcDbLine
 10
104.4999999999999
 20
60.0
 30
0.0
 11
104.4999999999999
 21
41.0
 31
0.0
  0
LINE
  5
72F
330
42B
100
AcDbEntity
  8
0
100
AcDbLine
 10
105.4999999999999
 20
58.5
 30
0.0
 11
105.4999999999999
 21
40.0
 31
0.0
  0
LINE
  5
730
330
42B
100
AcDbEntity
  8
0
100
AcDbLine
 10
113.5
 20
58.5
 30
0.0
 11
113.5
 21
40.0
 31
0.0
  0
LINE
  5
731
330
42B
100
AcDbEntity
  8
0
100
AcDbLine
 10
114.5
 20
60.0
 30
0.0
 11
114.5
 21
41.0
 31
0.0
  0
LINE
  5
732
330
42B
100
AcDbEntity
  8
0
100
AcDbLine
 10
105.4999999999999
 20
40.0
 30
0.0
 11
109.4999999999999
 21
40.0
 31
0.0
  0
LINE
  5
733
330
42B
100
AcDbEntity
  8
0
100
AcDbLine
 10
104.4999999999999
 20
41.0
 30
0.0
 11
109.4999999999999
 21
41.0
 31
0.0
  0
LINE
  5
734
330
42B
100
AcDbEntity
  8
0
100
AcDbLine
 10
104.4999999999999
 20
41.0
 30
0.0
 11
105.4999999999999
 21
40.0
 31
0.0
  0
LINE
  5
735
330
42B
100
AcDbEntity
  8
0
100
AcDbLine
 10
114.5
 20
41.0
 30
0.0
 11
109.4999999999999
 21
41.0
 31
0.0
  0
LINE
  5
736
330
42B
100
AcDbEntity
  8
0
100
AcDbLine
 10
113.5
 20
40.0
 30
0.0
 11
109.4999999999999
 21
40.0
 31
0.0
  0
LINE
  5
737
330
42B
100
AcDbEntity
  8
0
100
AcDbLine
 10
114.5
 20
41.0
 30
0.0
 11
113.5
 21
40.0
 31
0.0
  0
LINE
  5
738
330
42B
100
AcDbEntity
  8
0
100
AcDbLine
 10
109.4999999999999
 20
60.0
 30
0.0
 11
99.50000000000001
 21
60.0
 31
0.0
  0
LINE
  5
739
330
42B
100
AcDbEntity
  8
0
100
AcDbLine
 10
109.4999999999999
 20
60.0
 30
0.0
 11
119.5
 21
60.0
 31
0.0
  0
LINE
  5
73A
330
42B
100
AcDbEntity
  8
0
100
AcDbLine
 10
104.4999999999999
 20
58.5
 30
0.0
 11
109.4999999999999
 21
58.5
 31
0.0
  0
LINE
  5
73B
330
42B
100
AcDbEntity
  8
0
100
AcDbLine
 10
114.5
 20
58.5
 30
0.0
 11
109.4999999999999
 21
58.5
 31
0.0
  0
LINE
  5
73C
330
42B
100
AcDbEntity
  8
0
100
AcDbLine
 10
99.50000000000001
 20
60.0
 30
0.0
 11
99.50000000000001
 21
75.04999999999999
 31
0.0
  0
LINE
  5
73D
330
42B
100
AcDbEntity
  8
0
100
AcDbLine
 10
119.5
 20
60.0
 30
0.0
 11
119.5
 21
79.45
 31
0.0
  0
LINE
  5
73E
330
42B
100
AcDbEntity
  8
0
100
AcDbLine
 10
97.0
 20
75.743914
 30
0.0
 11
97.0
 21
104.452696
 31
0.0
  0
LINE
  5
73F
330
42B
100
AcDbEntity
  8
0
100
AcDbLine
 10
109.4999999999999
 20
105.0
 30
0.0
 11
115.0
 21
105.0
 31
0.0
  0
LINE
  5
740
330
42B
100
AcDbEntity
  8
0
100
AcDbLine
 10
116.0
 20
104.0
 30
0.0
 11
116.0
 21
103.92973
 31
0.0
  0
LINE
  5
741
330
42B
100
AcDbEntity
  8
0
100
AcDbLine
 10
109.4999999999999
 20
105.0
 30
0.0
 11
104.0
 21
105.0
 31
0.0
  0
LINE
  5
742
330
42B
100
AcDbEntity
  8
0
100
AcDbLine
 10
103.0
 20
104.0
 30
0.0
 11
103.0
 21
100.5567569999999
 31
0.0
  0
ARC
  5
743
330
42B
100
AcDbEntity
  8
0
100
AcDbCircle
 10
104.0
 20
104.0
 30
0.0
 40
1.0
100
AcDbArc
 50
90.0
 51
180.0
  0
ARC
  5
744
330
42B
100
AcDbEntity
  8
0
100
AcDbCircle
 10
115.0
 20
104.0
 30
0.0
 40
1.0
100
AcDbArc
 50
0.0
 51
90.0
  0
LINE
  5
745
330
42B
100
AcDbEntity
  8
0
100
AcDbLine
 10
98.497713
 20
106.3885959999999
 30
0.0
 11
186.9977129999999
 21
129.350758
 31
0.0
  0
LINE
  5
746
330
42B
100
AcDbEntity
  8
0
100
AcDbLine
 10
189.4999999999999
 20
127.414858
 30
0.0
 11
189.4999999999999
 21
116.584029
 31
0.0
  0
LINE
  5
747
330
42B
100
AcDbEntity
  8
0
100
AcDbLine
 10
187.958079
 20
114.637195
 30
0.0
 11
173.921655
 21
111.3345069999999
 31
0.0
  0
LINE
  5
748
330
42B
100
AcDbEntity
  8
0
100
AcDbLine
 10
171.7485899999999
 20
112.25235
 30
0.0
 11
171.0
 21
113.5
 31
0.0
  0
LINE
  5
749
330
42B
100
AcDbEntity
  8
0
100
AcDbLine
 10
171.0
 20
113.5
 30
0.0
 11
119.5
 21
94.50000000000001
 31
0.0
  0
LINE
  5
74A
330
42B
100
AcDbEntity
  8
0
100
AcDbLine
 10
119.5
 20
94.50000000000001
 30
0.0
 11
119.5
 21
111.837838
 31
0.0
  0
LINE
  5
74B
330
42B
100
AcDbEntity
  8
0
100
AcDbLine
 10
98.214862
 20
74.76727
 30
0.0
 11
121.214862
 21
79.82727
 31
0.0
  0
LINE
  5
74C
330
42B
100
AcDbEntity
  8
0
100
AcDbLine
 10
122.0
 20
80.80391400000001
 30
0.0
 11
122.0
 21
95.42233000000001
 31
0.0
  0
ARC
  5
74D
330
42B
100
AcDbEntity
  8
0
100
AcDbCircle
 10
187.5
 20
127.414858
 30
0.0
 40
2.0
100
AcDbArc
 50
0.0
 51
104.5452029999999
  0
ARC
  5
74E
330
42B
100
AcDbEntity
  8
0
100
AcDbCircle
 10
187.5
 20
116.584029
 30
0.0
 40
2.0
100
AcDbArc
 50
283.24052
 51
0.0
  0
ARC
  5
74F
330
42B
100
AcDbEntity
  8
0
100
AcDbCircle
 10
173.4635759999999
 20
113.281341
 30
0.0
 40
2.0
100
AcDbArc
 50
210.963757
 51
283.24052
  0
ARC
  5
750
330
42B
100
AcDbEntity
  8
0
100
AcDbCircle
 10
99.0
 20
104.452696
 30
0.0
 40
2.0
100
AcDbArc
 50
104.5452029999999
 51
180.0
  0
ARC
  5
751
330
42B
100
AcDbEntity
  8
0
100
AcDbCircle
 10
98.0
 20
75.743914
 30
0.0
 40
1.0
100
AcDbArc
 50
180.0
 51
282.407419
  0
ARC
  5
752
330
42B
100
AcDbEntity
  8
0
100
AcDbCircle
 10
121.0
 20
80.80391400000001
 30
0.0
 40
1.0
100
AcDbArc
 50
282.407419
 51
0.0
  0
ELLIPSE
  5
86D
330
42B
100
AcDbEntity
  8
0
100
AcDbEllipse
 10
38.501
 20
108.9814999999999
 30
0.0
 11
-6.499000000000002
 21
-0.0185000000000031
 31
0.0
210
0.0
220
0.0
230
1.0
 40
0.2292910566511593
 41
0.0
 42
6.283185307179586
  0
ENDSEC
  0
SECTION
  2
OBJECTS
  0
DICTIONARY
  5
419
330
0
100
AcDbDictionary
281
     1
  3
ACAD_GROUP
350
41A
  3
ACAD_LAYOUT
350
426
  3
ACAD_MLINESTYLE
350
423
  3
ACAD_PLOTSETTINGS
350
425
  3
ACAD_PLOTSTYLENAME
350
41B
  3
AcDbVariableDictionary
350
853
  3
AcmDictionary
350
80F
  3
AMG
350
754
  3
AMGSNAPSETTINGS
350
856
  3
DWGPROPS
350
812
  3
MAPISURF_MODULE
350
7E1
  0
DICTIONARY
  5
84D
330
42B
100
AcDbDictionary
280
     1
281
     1
  3
ACAD_INDEX
360
84E
  0
DICTIONARY
  5
41A
102
{ACAD_REACTORS
330
419
102
}
330
419
100
AcDbDictionary
281
     1
  0
DICTIONARY
  5
426
102
{ACAD_REACTORS
330
419
102
}
330
419
100
AcDbDictionary
281
     1
  3
Model
350
42E
  3
ﾚｲｱｳﾄ1
350
42A
  0
DICTIONARY
  5
423
102
{ACAD_REACTORS
330
419
102
}
330
419
100
AcDbDictionary
281
     1
  3
Standard
350
424
  0
DICTIONARY
  5
425
102
{ACAD_REACTORS
330
419
102
}
330
419
100
AcDbDictionary
281
     1
  0
ACDBDICTIONARYWDFLT
  5
41B
102
{ACAD_REACTORS
330
419
102
}
330
419
100
AcDbDictionary
281
     1
  3
Normal
350
41C
100
AcDbDictionaryWithDefault
340
41C
  0
DICTIONARY
  5
853
102
{ACAD_REACTORS
330
419
102
}
330
419
100
AcDbDictionary
281
     1
  3
DIMASSOC
350
855
  3
INDEXCTL
350
854
  0
DICTIONARY
  5
80F
102
{ACAD_REACTORS
330
419
102
}
330
419
100
AcDbDictionary
281
     1
  3
AcmBOMDATA
350
810
  3
AcmStdDictionary
350
81E
  0
DICTIONARY
  5
754
102
{ACAD_REACTORS
330
419
102
}
330
419
100
AcDbDictionary
281
     1
  3
AcMgSettings
350
755
  3
AMGLAYCFG
350
820
  0
DICTIONARY
  5
856
102
{ACAD_REACTORS
330
419
102
}
330
419
100
AcDbDictionary
281
     1
  3
DIMENSION
350
85B
  3
FEA
350
85A
  3
HATCH (1)
350
857
  3
HATCH (2)
350
858
  3
SIMPLE WELD
350
85C
  3
SYMBOLS
350
859
  0
XRECORD
  5
812
102
{ACAD_REACTORS
330
419
102
}
330
419
100
AcDbXrecord
280
     1
  1
DWGPROPS COOKIE
  2

  3

  4

  6

  7

  8

  9

300
AmdtFileType=84
301
=
302
=
303
=
304
=
305
=
306
=
307
=
308
=
309
=
 40
0.0349267939814815
 41
2452125.683722997
 42
2452125.718645995
  1

 90
        1
  0
DICTIONARY
  5
84E
102
{ACAD_REACTORS
330
84D
102
}
330
84D
100
AcDbDictionary
281
     1
  3
*A1
350
84F
  0
LAYOUT
  5
42E
102
{ACAD_REACTORS
330
426
102
}
330
426
100
AcDbPlotSettings
  1

  2
EPSON PM-3700C
  4

  6

 40
0.0
 41
0.0
 42
0.0
 43
0.0
 44
0.0
 45
0.0
 46
0.0
 47
0.0
 48
0.0
 49
0.0
140
0.0
141
0.0
142
1.0
143
1.0
 70
  1712
 72
     0
 73
     0
 74
     0
  7

 75
     0
147
1.0
148
0.0
149
0.0
100
AcDbLayout
  1
Model
 70
     1
 71
     0
 10
0.0
 20
0.0
 11
12.0
 21
9.0
 12
0.0
 22
0.0
 32
0.0
 14
0.0
 24
0.0
 34
0.0
 15
0.0
 25
0.0
 35
0.0
146
0.0
 13
0.0
 23
0.0
 33
0.0
 16
1.0
 26
0.0
 36
0.0
 17
0.0
 27
1.0
 37
0.0
 76
     0
330
42B
  0
LAYOUT
  5
42A
102
{ACAD_REACTORS
330
426
102
}
330
426
100
AcDbPlotSettings
  1

  2
EPSON PM-3700C
  4

  6

 40
0.0
 41
0.0
 42
0.0
 43
0.0
 44
0.0
 45
0.0
 46
0.0
 47
0.0
 48
0.0
 49
0.0
140
0.0
141
0.0
142
1.0
143
1.0
 70
   688
 72
     0
 73
     0
 74
     5
  7

 75
    16
147
1.0
148
0.0
149
0.0
100
AcDbLayout
  1
ﾚｲｱｳﾄ1
 70
     1
 71
     1
 10
0.0
 20
0.0
 11
420.0
 21
297.0
 12
0.0
 22
0.0
 32
0.0
 14
1.000000000000000E+20
 24
1.000000000000000E+20
 34
1.000000000000000E+20
 15
-1.000000000000000E+20
 25
-1.000000000000000E+20
 35
-1.000000000000000E+20
146
0.0
 13
0.0
 23
0.0
 33
0.0
 16
1.0
 26
0.0
 36
0.0
 17
0.0
 27
1.0
 37
0.0
 76
     0
330
427
  0
MLINESTYLE
  5
424
102
{ACAD_REACTORS
330
423
102
}
330
423
100
AcDbMlineStyle
  2
STANDARD
 70
     0
  3

 62
   256
 51
90.0
 52
90.0
 71
     2
 49
0.5
 62
   256
  6
BYLAYER
 49
-0.5
 62
   256
  6
BYLAYER
  0
ACDBPLACEHOLDER
  5
41C
102
{ACAD_REACTORS
330
41B
102
}
330
41B
  0
DICTIONARYVAR
  5
855
102
{ACAD_REACTORS
330
853
102
}
330
853
100
DictionaryVariables
280
     0
  1
1
  0
DICTIONARYVAR
  5
854
102
{ACAD_REACTORS
330
853
102
}
330
853
100
DictionaryVariables
280
     0
  1
1
  0
ACMDATADICTIONARY
  5
810
102
{ACAD_REACTORS
330
80F
102
}
330
80F
100
AcDbDictionary
281
     1
  3
*A1
350
811
100
AcmDataDictionary
  0
DICTIONARY
  5
81E
102
{ACAD_REACTORS
330
80F
102
}
330
80F
100
AcDbDictionary
281
     1
  3
ANSI
350
81F
  0
DICTIONARY
  5
755
102
{ACAD_REACTORS
330
754
102
}
330
754
100
AcDbDictionary
281
     1
  3
DWGSETTINGS
350
756
  3
TRANSSETTINGS
350
75A
  0
ACAMGFILTERDAT
  5
85B
102
{ACAD_REACTORS
330
856
102
}
330
856
100
AcAmgFilterDat
 70
    15
  1
DIMENSION,AMDT_*_DIM
  2
*
  3
*
  4
*
  5
*
290
     1
  0
ACAMGFILTERDAT
  5
85A
102
{ACAD_REACTORS
330
856
102
}
330
856
100
AcAmgFilterDat
 70
    15
  1
*
  2
AM_FEA-AM_*
  3
*
  4
*
  5
*
290
     1
  0
ACAMGFILTERDAT
  5
857
102
{ACAD_REACTORS
330
856
102
}
330
856
100
AcAmgFilterDat
 70
    15
  1
HATCH
  2
*
  3
*
  4
*
  5
*
290
     1
  0
ACAMGFILTERDAT
  5
858
102
{ACAD_REACTORS
330
856
102
}
330
856
100
AcAmgFilterDat
 70
    15
  1
LINE
  2
8,8N,*-8,*-8N,AM_8,AM_8N,*-AM_8,*-AM_8N
  3
*
  4
*
  5
INSERT,STDPART2D
290
     1
  0
ACAMGFILTERDAT
  5
85C
102
{ACAD_REACTORS
330
856
102
}
330
856
100
AcAmgFilterDat
 70
    15
  1
ARC
  2
AM_5
  3
*
  4
2
  5
INSERT
290
     0
  0
ACAMGFILTERDAT
  5
859
102
{ACAD_REACTORS
330
856
102
}
330
856
100
AcAmgFilterDat
 70
    15
  1
ACMFCFRAME,ACMDATUMTARGET,ACMDATUMID,ACMWELDSYM,ACMSURFSYM,ACMFEATID,ACMPARTREF,ACMBALLOON,AMDTEDGESYM,AMGSCREWCALCTABLE
  2
*
  3
*
  4
*
  5
*
290
     1
  0
LAYER_INDEX
  5
84F
102
{ACAD_REACTORS
330
84E
102
}
330
84E
100
AcDbIndex
 40
2454700.60538971
100
AcDbLayerIndex
  8
0
360
850
 90
       61
  8
1
360
851
 90
        2
  8
Defpoints
360
86B
 90
        0
  0
ACMDATAENTRYBLOCK
  5
811
102
{ACAD_REACTORS
330
810
102
}
330
810
100
AcmDataEntry
100
AcmDataEntryBlock
  0
IDBUFFER
  5
850
330
0
100
AcDbIdBuffer
330
86D
330
58A
330
58B
330
58C
330
58D
330
58E
330
611
330
612
330
613
330
696
330
697
330
698
330
752
330
751
330
750
330
74F
330
74E
330
74D
330
721
330
722
330
723
330
724
330
725
330
726
330
727
330
728
330
729
330
72A
330
72B
330
72C
330
72E
330
72F
330
730
330
731
330
732
330
733
330
734
330
735
330
736
330
737
330
738
330
739
330
73A
330
73B
330
73C
330
73D
330
73E
330
73F
330
740
330
741
330
742
330
743
330
744
330
745
330
746
330
747
330
748
330
749
330
74A
330
74B
330
74C
  0
IDBUFFER
  5
851
330
0
100
AcDbIdBuffer
330
589
330
72D
  0
IDBUFFER
  5
86B
330
0
100
AcDbIdBuffer
  0
ENDSEC
  0
EOF
