  0
SECTION
  2
HEADER
  9
$ACADVER
  1
AC1015
  9
$ACADMAINTVER
 70
    13
  9
$DWGCODEPAGE
  3
ANSI_932
  9
$INSBASE
 10
0.0
 20
0.0
 30
0.0
  9
$EXTMIN
 10
26.0
 20
54.5
 30
0.0
  9
$EXTMAX
 10
189.97495439485
 20
130.0
 30
0.0
  9
$LIMMIN
 10
0.0
 20
0.0
  9
$LIMMAX
 10
200.0
 20
150.0
  9
$ORTHOMODE
 70
     1
  9
$REGENMODE
 70
     1
  9
$FILLMODE
 70
     1
  9
$QTEXTMODE
 70
     0
  9
$MIRRTEXT
 70
     1
  9
$LTSCALE
 40
1.0
  9
$ATTMODE
 70
     1
  9
$TEXTSIZE
 40
2.5
  9
$TRACEWID
 40
1.0
  9
$TEXTSTYLE
  7
STANDARD
  9
$CLAYER
  8
0
  9
$CELTYPE
  6
ByLayer
  9
$CECOLOR
 62
   256
  9
$CELTSCALE
 40
1.0
  9
$DISPSILH
 70
     0
  9
$DIMSCALE
 40
1.0
  9
$DIMASZ
 40
2.5
  9
$DIMEXO
 40
0.625
  9
$DIMDLI
 40
3.75
  9
$DIMRND
 40
0.0
  9
$DIMDLE
 40
0.0
  9
$DIMEXE
 40
1.25
  9
$DIMTP
 40
0.0
  9
$DIMTM
 40
0.0
  9
$DIMTXT
 40
2.5
  9
$DIMCEN
 40
2.5
  9
$DIMTSZ
 40
0.0
  9
$DIMTOL
 70
     0
  9
$DIMLIM
 70
     0
  9
$DIMTIH
 70
     0
  9
$DIMTOH
 70
     0
  9
$DIMSE1
 70
     0
  9
$DIMSE2
 70
     0
  9
$DIMTAD
 70
     1
  9
$DIMZIN
 70
     8
  9
$DIMBLK
  1

  9
$DIMASO
 70
     1
  9
$DIMSHO
 70
     1
  9
$DIMPOST
  1

  9
$DIMAPOST
  1

  9
$DIMALT
 70
     0
  9
$DIMALTD
 70
     4
  9
$DIMALTF
 40
0.0394
  9
$DIMLFAC
 40
1.0
  9
$DIMTOFL
 70
     1
  9
$DIMTVP
 40
0.0
  9
$DIMTIX
 70
     0
  9
$DIMSOXD
 70
     0
  9
$DIMSAH
 70
     0
  9
$DIMBLK1
  1

  9
$DIMBLK2
  1

  9
$DIMSTYLE
  2
STANDARD
  9
$DIMCLRD
 70
     0
  9
$DIMCLRE
 70
     0
  9
$DIMCLRT
 70
     0
  9
$DIMTFAC
 40
1.0
  9
$DIMGAP
 40
0.625
  9
$DIMJUST
 70
     0
  9
$DIMSD1
 70
     0
  9
$DIMSD2
 70
     0
  9
$DIMTOLJ
 70
     1
  9
$DIMTZIN
 70
     0
  9
$DIMALTZ
 70
     0
  9
$DIMALTTZ
 70
     0
  9
$DIMUPT
 70
     0
  9
$DIMDEC
 70
     4
  9
$DIMTDEC
 70
     4
  9
$DIMALTU
 70
     2
  9
$DIMALTTD
 70
     2
  9
$DIMTXSTY
  7
STANDARD
  9
$DIMAUNIT
 70
     0
  9
$DIMADEC
 70
     0
  9
$DIMALTRND
 40
0.0
  9
$DIMAZIN
 70
     0
  9
$DIMDSEP
 70
    46
  9
$DIMATFIT
 70
     3
  9
$DIMFRAC
 70
     0
  9
$DIMLDRBLK
  1

  9
$DIMLUNIT
 70
     2
  9
$DIMLWD
 70
    -2
  9
$DIMLWE
 70
    -2
  9
$DIMTMOVE
 70
     0
  9
$LUNITS
 70
     2
  9
$LUPREC
 70
     4
  9
$SKETCHINC
 40
1.0
  9
$FILLETRAD
 40
1.0
  9
$AUNITS
 70
     0
  9
$AUPREC
 70
     0
  9
$MENU
  1
.
  9
$ELEVATION
 40
0.0
  9
$PELEVATION
 40
0.0
  9
$THICKNESS
 40
0.0
  9
$LIMCHECK
 70
     0
  9
$CHAMFERA
 40
10.0
  9
$CHAMFERB
 40
10.0
  9
$CHAMFERC
 40
0.0
  9
$CHAMFERD
 40
0.0
  9
$SKPOLY
 70
     0
  9
$TDCREATE
 40
2452125.683722997
  9
$TDUCREATE
 40
2452125.308722997
  9
$TDUPDATE
 40
2454700.438144340
  9
$TDUUPDATE
 40
2454700.063144340
  9
$TDINDWG
 40
0.0382448727
  9
$TDUSRTIMER
 40
0.0382448727
  9
$USRTIMER
 70
     1
  9
$ANGBASE
 50
0.0
  9
$ANGDIR
 70
     0
  9
$PDMODE
 70
     0
  9
$PDSIZE
 40
0.0
  9
$PLINEWID
 40
0.0
  9
$SPLFRAME
 70
     0
  9
$SPLINETYPE
 70
     6
  9
$SPLINESEGS
 70
     8
  9
$HANDSEED
  5
8A3
  9
$SURFTAB1
 70
     6
  9
$SURFTAB2
 70
     6
  9
$SURFTYPE
 70
     6
  9
$SURFU
 70
     6
  9
$SURFV
 70
     6
  9
$UCSBASE
  2

  9
$UCSNAME
  2

  9
$UCSORG
 10
0.0
 20
0.0
 30
0.0
  9
$UCSXDIR
 10
1.0
 20
0.0
 30
0.0
  9
$UCSYDIR
 10
0.0
 20
1.0
 30
0.0
  9
$UCSORTHOREF
  2

  9
$UCSORTHOVIEW
 70
     0
  9
$UCSORGTOP
 10
0.0
 20
0.0
 30
0.0
  9
$UCSORGBOTTOM
 10
0.0
 20
0.0
 30
0.0
  9
$UCSORGLEFT
 10
0.0
 20
0.0
 30
0.0
  9
$UCSORGRIGHT
 10
0.0
 20
0.0
 30
0.0
  9
$UCSORGFRONT
 10
0.0
 20
0.0
 30
0.0
  9
$UCSORGBACK
 10
0.0
 20
0.0
 30
0.0
  9
$PUCSBASE
  2

  9
$PUCSNAME
  2

  9
$PUCSORG
 10
0.0
 20
0.0
 30
0.0
  9
$PUCSXDIR
 10
1.0
 20
0.0
 30
0.0
  9
$PUCSYDIR
 10
0.0
 20
1.0
 30
0.0
  9
$PUCSORTHOREF
  2

  9
$PUCSORTHOVIEW
 70
     0
  9
$PUCSORGTOP
 10
0.0
 20
0.0
 30
0.0
  9
$PUCSORGBOTTOM
 10
0.0
 20
0.0
 30
0.0
  9
$PUCSORGLEFT
 10
0.0
 20
0.0
 30
0.0
  9
$PUCSORGRIGHT
 10
0.0
 20
0.0
 30
0.0
  9
$PUCSORGFRONT
 10
0.0
 20
0.0
 30
0.0
  9
$PUCSORGBACK
 10
0.0
 20
0.0
 30
0.0
  9
$USERI1
 70
     0
  9
$USERI2
 70
     0
  9
$USERI3
 70
     0
  9
$USERI4
 70
     0
  9
$USERI5
 70
     0
  9
$USERR1
 40
0.0
  9
$USERR2
 40
0.0
  9
$USERR3
 40
0.0
  9
$USERR4
 40
0.0
  9
$USERR5
 40
0.0
  9
$WORLDVIEW
 70
     1
  9
$SHADEDGE
 70
     3
  9
$SHADEDIF
 70
    70
  9
$TILEMODE
 70
     1
  9
$MAXACTVP
 70
    48
  9
$PINSBASE
 10
0.0
 20
0.0
 30
0.0
  9
$PLIMCHECK
 70
     0
  9
$PEXTMIN
 10
1.000000000000000E+20
 20
1.000000000000000E+20
 30
1.000000000000000E+20
  9
$PEXTMAX
 10
-1.000000000000000E+20
 20
-1.000000000000000E+20
 30
-1.000000000000000E+20
  9
$PLIMMIN
 10
0.0
 20
0.0
  9
$PLIMMAX
 10
420.0
 20
297.0
  9
$UNITMODE
 70
     0
  9
$VISRETAIN
 70
     1
  9
$PLINEGEN
 70
     0
  9
$PSLTSCALE
 70
     1
  9
$TREEDEPTH
 70
  3020
  9
$CMLSTYLE
  2
Standard
  9
$CMLJUST
 70
     0
  9
$CMLSCALE
 40
1.0
  9
$PROXYGRAPHICS
 70
     1
  9
$MEASUREMENT
 70
     0
  9
$CELWEIGHT
370
    -1
  9
$ENDCAPS
280
     0
  9
$JOINSTYLE
280
     0
  9
$LWDISPLAY
290
     0
  9
$INSUNITS
 70
     0
  9
$HYPERLINKBASE
  1

  9
$STYLESHEET
  1

  9
$XEDIT
290
     1
  9
$CEPSNTYPE
380
     0
  9
$PSTYLEMODE
290
     1
  9
$FINGERPRINTGUID
  2
{673DAC7E-6D63-473F-AEEC-425CB42EB443}
  9
$VERSIONGUID
  2
{EFA6A9A8-1344-47CF-A190-BAD4CB190630}
  9
$EXTNAMES
290
     1
  9
$PSVPSCALE
 40
0.0
  9
$OLESTARTUP
290
     0
  0
ENDSEC
  0
SECTION
  2
CLASSES
  0
CLASS
  1
ACDBDICTIONARYWDFLT
  2
AcDbDictionaryWithDefault
  3
AutoCAD 2000
 90
        0
280
     0
281
     0
  0
CLASS
  1
ACDBPLACEHOLDER
  2
AcDbPlaceHolder
  3
AutoCAD 2000
 90
        0
280
     0
281
     0
  0
CLASS
  1
LAYOUT
  2
AcDbLayout
  3
AutoCAD 2000
 90
        0
280
     0
281
     0
  0
CLASS
  1
AMGSETTINGSOBJ
  2
AmgSettingsObj
  3
"AcadM|Product Description: AutoCAD Mechanical 2000|Company: Autodesk"
 90
        0
280
     0
281
     0
  0
CLASS
  1
ACME_DOCUMENT
  2
AcMeDbDoc
  3
AcMeServices
 90
        0
280
     0
281
     0
  0
CLASS
  1
ACMESCOPE
  2
AcMeScope
  3
AcMeServices
 90
        0
280
     0
281
     0
  0
CLASS
  1
ACMECOMMANDHISTORY
  2
AcMeCommandHistory
  3
AcMeServices
 90
        0
280
     0
281
     0
  0
CLASS
  1
ACIMSYSVARMAN
  2
AcImSysVarManager
  3
AcMeServices
 90
        0
280
     0
281
     0
  0
CLASS
  1
ACIMREALSYSVAR
  2
AcImRealSysVar
  3
AcMeServices
 90
        0
280
     0
281
     0
  0
CLASS
  1
ACIMINTSYSVAR
  2
AcImIntSysVar
  3
AcMeServices
 90
        0
280
     0
281
     0
  0
CLASS
  1
ACMEDRAWINGMAN
  2
AcMeDrawingMan
  3
AcMeServices
 90
        0
280
     0
281
     0
  0
CLASS
  1
ACMEVIEW
  2
AcMeView
  3
AcMeServices
 90
        0
280
     0
281
     0
  0
CLASS
  1
ACDBENTITYCACHE
  2
AcMeEntityCache
  3
AcMeServices
 90
        0
280
     0
281
     0
  0
CLASS
  1
GSMANAGER
  2
AcMeGSManager
  3
AcMeServices
 90
        0
280
     0
281
     0
  0
CLASS
  1
AMDTINTERNALREACTOR
  2
AmdtInternalReactor
  3
AcMeServices
 90
        0
280
     0
281
     0
  0
CLASS
  1
ACMESTATEMGR
  2
AcMeStateMgr
  3
AcMeServices
 90
        0
280
     0
281
     0
  0
CLASS
  1
ACGREFMASTER
  2
AcGrefMaster
  3
AcAttribServices
 90
        0
280
     0
281
     0
  0
CLASS
  1
AM_DRAWING_MGR
  2
AcDmDwgMgr
  3
AcMechDwgViewMgmt
 90
        0
280
     0
281
     0
  0
CLASS
  1
AM_DWG_DOCUMENT
  2
AcDmDwgDocument
  3
AcMechDwgViewMgmt
 90
        0
280
     0
281
     0
  0
CLASS
  1
AM_DWG_SHEET
  2
AcDmSheet
  3
AcMechDwgViewMgmt
 90
        0
280
     0
281
     0
  0
CLASS
  1
AM_VIEWDIMPARMAP
  2
AcDmViewDimParMap
  3
AcMechDwgViewMgmt
 90
        0
280
     0
281
     0
  0
CLASS
  1
AM_DWGMGR_NAME
  2
AcDmDwgMgrName
  3
AcMechDwgViewMgmt
 90
        0
280
     0
281
     0
  0
CLASS
  1
ACME_DATABASE
  2
AcMeDbDatabase
  3
AcMeServices
 90
        0
280
     0
281
     0
  0
CLASS
  1
ACRFINSADJUSTERMGR
  2
AcRfInsAdjusterMgr
  3
AcMeServices
 90
        0
280
     0
281
     0
  0
CLASS
  1
ACGREFACADMASTER
  2
AcGrefacadMaster
  3
AcGrefServices
 90
        0
280
     0
281
     0
  0
CLASS
  1
AMDTMENUSTATEMGR
  2
AmdtMenuStateMgr
  3
McadcomServices
 90
        0
280
     0
281
     0
  0
CLASS
  1
AMDTMCOMMENUSTATE
  2
AmdtMcomMenuState
  3
McadcomServices
 90
        0
280
     0
281
     0
  0
CLASS
  1
AMIMASTER
  2
AmiMaster
  3
AmiServices
 90
        0
280
     0
281
     0
  0
CLASS
  1
ASAPP
  2
AcAsAppObject
  3
AutoSurfServices
 90
        0
280
     0
281
     0
  0
CLASS
  1
IM_STATIC_MAN
  2
AcImStaticVarManager
  3
AcMeServices
 90
        0
280
     0
281
     0
  0
CLASS
  1
ACIMSTRSYSVAR
  2
AcImStrSysVar
  3
AcMeServices
 90
        0
280
     0
281
     0
  0
CLASS
  1
ACIMDBLSTATICVAR
  2
AcImDblStaticVar
  3
AcMeServices
 90
        0
280
     0
281
     0
  0
CLASS
  1
ACIMSTRSTATICVAR
  2
AcImStrStaticVar
  3
AcMeServices
 90
        0
280
     0
281
     0
  0
CLASS
  1
ACIMINTSTATICVAR
  2
AcImIntStaticVar
  3
AcMeServices
 90
        0
280
     0
281
     0
  0
CLASS
  1
ACASGREFMASTER
  2
AcAsGrefMaster
  3
AutoSurfResolverServices
 90
        0
280
     0
281
     0
  0
CLASS
  1
ACADGREFMODULE
  2
AcAdGrefModule
  3
AdGrefServices
 90
        0
280
     0
281
     0
  0
CLASS
  1
AMDTMAPISURFMOUDULE
  2
AmdtMApiSurfModule
  3
MApiSurfServices
 90
        0
280
     0
281
     0
  0
CLASS
  1
MAPIAMMOUDLE
  2
MApiAmModule
  3
MApiAmServices
 90
        0
280
     0
281
     0
  0
CLASS
  1
AMDTADMENUSTATE
  2
AmdtAdMenuState
  3
DesignerServices
 90
        0
280
     0
281
     0
  0
CLASS
  1
ADAPPL
  2
AcAdAppl
  3
DesignerServices
 90
        0
280
     0
281
     0
  0
CLASS
  1
DEPMGR
  2
AcAdDepMgr
  3
DesignerServices
 90
        0
280
     0
281
     0
  0
CLASS
  1
PARAMMGR
  2
AcAdParamMgr
  3
DesignerServices
 90
        0
280
     0
281
     0
  0
CLASS
  1
PARAMSCOPE
  2
AcAdParamScope
  3
DesignerServices
 90
        0
280
     0
281
     0
  0
CLASS
  1
NAMEDAPPL
  2
AcAdNamedAppl
  3
DesignerServices
 90
        0
280
     0
281
     0
  0
CLASS
  1
AMDTDMMENUSTATE
  2
AmdtDmMenuState
  3
AcMechDwgViewMgmt
 90
        0
280
     0
281
     0
  0
CLASS
  1
MAPIADMODULE
  2
MApiAdModule
  3
MApiAdServices
 90
        0
280
     0
281
     0
  0
CLASS
  1
AMDTAMMENUSTATE
  2
AmdtAmMenuState
  3
DesignerAssemblies
 90
        0
280
     0
281
     0
  0
CLASS
  1
ACAMPROJECT
  2
AcAmProject
  3
DesignerAssemblies
 90
        0
280
     0
281
     0
  0
CLASS
  1
ACAMGRCOMPDEF
  2
AcAmGrCompDef
  3
DesignerAssemblies
 90
        0
280
     0
281
     0
  0
CLASS
  1
ACCMCONTEXT
  2
AcCmContext
  3
DesignerAssemblies
 90
        0
280
     0
281
     0
  0
CLASS
  1
ACAMCOMPDEF
  2
AcAmCompDef
  3
DesignerAssemblies
 90
        0
280
     0
281
     0
  0
CLASS
  1
ACAMCOMPDEFMGR
  2
AcAmCompDefMgr
  3
DesignerAssemblies
 90
        0
280
     0
281
     0
  0
CLASS
  1
AMCONTEXTMGR
  2
AcAmContextMgr
  3
DesignerAssemblies
 90
        0
280
     0
281
     0
  0
CLASS
  1
ACAMCONTEXTMODELER
  2
AcAmContextModeler
  3
DesignerAssemblies
 90
        0
280
     0
281
     0
  0
CLASS
  1
ACMDATADICTIONARY
  2
AcmDataDictionary
  3
"AcmSymBB|Product Description: AutoCAD Mechanical 2000|Company: Autodesk"
 90
        0
280
     0
281
     0
  0
CLASS
  1
ACMDATAENTRYBLOCK
  2
AcmDataEntryBlock
  3
"AcmSymBB|Product Description: AutoCAD Mechanical 2000|Company: Autodesk"
 90
        0
280
     0
281
     0
  0
CLASS
  1
CATALOGSTATE
  2
AcAmCatalogState
  3
DesignerAssemblies
 90
        0
280
     0
281
     0
  0
CLASS
  1
ACAMGRCOMPDEFSET
  2
AcAmGrCompDefSet
  3
DesignerAssemblies
 90
        0
280
     0
281
     0
  0
CLASS
  1
AMDTBROWSERDBTAB
  2
AmdtBrowserDbTab
  3
McadcomServices
 90
        0
280
     0
281
     0
  0
CLASS
  1
CBROWSERAPPOBJECT
  2
CBrowserAppObject
  3
McadcomServices
 90
        0
280
     0
281
     0
  0
CLASS
  1
DM_PLACEHOLDER
  2
AcDmSelsetPlaceholder
  3
AcMechDwgViewMgmt
 90
        0
280
     0
281
     0
  0
CLASS
  1
ACMSTANDARDANSI
  2
AcmStandardANSI
  3
"Amdt_StdImp|Product Description: AutoCAD Mechanical 2000|Company: Autodesk"
 90
        0
280
     0
281
     0
  0
CLASS
  1
AMGOBJPROPCFG
  2
AmgObjPropCfg
  3
"AmgLay|Product Description: AutoCAD Mechanical 2000|Company: Autodesk"
 90
        1
280
     0
281
     0
  0
CLASS
  1
ACMSURFSTANDARDANSI
  2
AcmSurfTextStdANSI
  3
"Amdt_StdImp|Product Description: AutoCAD Mechanical 2000|Company: Autodesk"
 90
        0
280
     0
281
     0
  0
CLASS
  1
ACMFCFSTANDARDANSI
  2
AcmFCFStdANSI
  3
"Amdt_StdImp|Product Description: AutoCAD Mechanical 2000|Company: Autodesk"
 90
        0
280
     0
281
     0
  0
CLASS
  1
ACMWELDSTANDARDANSI
  2
AcmWeldingStdANSI
  3
"Amdt_StdImp|Product Description: AutoCAD Mechanical 2000|Company: Autodesk"
 90
        0
280
     0
281
     0
  0
CLASS
  1
ACMIDSTANDARDANSI
  2
AcmIdStdANSI
  3
"Amdt_StdImp|Product Description: AutoCAD Mechanical 2000|Company: Autodesk"
 90
        0
280
     0
281
     0
  0
CLASS
  1
ACMDATUMSTANDARDANSI
  2
AcmDatumStdANSI
  3
"Amdt_StdImp|Product Description: AutoCAD Mechanical 2000|Company: Autodesk"
 90
        0
280
     0
281
     0
  0
CLASS
  1
ACMBOMSTANDARDANSI
  2
AcmBOMStdANSI
  3
"Amdt_StdImp|Product Description: AutoCAD Mechanical 2000|Company: Autodesk"
 90
        0
280
     0
281
     0
  0
CLASS
  1
ACMDETAILSTANDARDANSI
  2
AmdtDetailSymStdANSI
  3
"Amdt_StdImp|Product Description: AutoCAD Mechanical 2000|Company: Autodesk"
 90
        0
280
     0
281
     0
  0
CLASS
  1
ACMSECTIONSTANDARDANSI
  2
AmdtSectionSymStdANSI
  3
"Amdt_StdImp|Product Description: AutoCAD Mechanical 2000|Company: Autodesk"
 90
        0
280
     0
281
     0
  0
CLASS
  1
ACMCENTERLINESTANDARDANSI
  2
AmdtCenterLineStdANSI
  3
"Amdt_StdImp|Product Description: AutoCAD Mechanical 2000|Company: Autodesk"
 90
        0
280
     0
281
     0
  0
CLASS
  1
ACMTHREADLINESTANDARDANSI
  2
AmdtThreadLineStdANSI
  3
"Amdt_StdImp|Product Description: AutoCAD Mechanical 2000|Company: Autodesk"
 90
        0
280
     0
281
     0
  0
CLASS
  1
ACMNOTESTANDARDANSI
  2
AmdtNoteStdANSI
  3
"Amdt_StdImp|Product Description: AutoCAD Mechanical 2000|Company: Autodesk"
 90
        0
280
     0
281
     0
  0
CLASS
  1
ACAMGLAYSTD
  2
AcAmgLayStd
  3
"AcAmgLayStd|Product Description: AutoCAD Mechanical 2000|Company: Autodesk"
 90
        0
280
     0
281
     0
  0
CLASS
  1
ACAMGDIMSTD
  2
AcAmgDimStd
  3
"AcAmgDimStd|Product Description: AutoCAD Mechanical 2000|Company: Autodesk"
 90
        0
280
     0
281
     0
  0
CLASS
  1
ACAMGHOLECHARTSTDANSI
  2
AcAmgHoleChartStdANSI
  3
ACMSYMBB_MODULE_NAME
 90
        0
280
     0
281
     0
  0
CLASS
  1
ACAMGTITLESTD
  2
AcAmgTitleStd
  3
"TITLEAPP"
 90
        0
280
     0
281
     0
  0
CLASS
  1
LAYER_INDEX
  2
AcDbLayerIndex
  3
AutoCAD 2000
 90
        0
280
     0
281
     0
  0
CLASS
  1
IDBUFFER
  2
AcDbIdBuffer
  3
AutoCAD 2000
 90
        0
280
     0
281
     0
  0
CLASS
  1
DICTIONARYVAR
  2
AcDbDictionaryVar
  3
AutoCAD 2000
 90
        0
280
     0
281
     0
  0
CLASS
  1
ACAMGFILTERDAT
  2
AcAmgFilterDat
  3
"AcadM|Product Description: AutoCAD Mechanical 2000|Company: Autodesk"
 90
        0
280
     0
281
     0
  0
ENDSEC
  0
SECTION
  2
TABLES
  0
TABLE
  2
VPORT
  5
449
330
0
100
AcDbSymbolTable
 70
     5
  0
VPORT
  5
8A2
330
449
100
AcDbSymbolTableRecord
100
AcDbViewportTableRecord
  2
*Active
 70
     0
 10
0.0
 20
0.0
 11
1.0
 21
1.0
 12
0.0
 22
0.0
 13
0.0
 23
0.0
 14
0.5
 24
0.5
 15
1.0
 25
1.0
 16
0.0
 26
0.0
 36
1.0
 17
113.7736169056603
 27
75.0
 37
0.0
 40
150.0
 41
1.516981132075471
 42
50.0
 43
0.0
 44
0.0
 50
0.0
 51
0.0
 71
     0
 72
   100
 73
     1
 74
     1
 75
     0
 76
     0
 77
     0
 78
     0
281
     0
 65
     0
110
0.0
120
0.0
130
0.0
111
1.0
121
0.0
131
0.0
112
0.0
122
1.0
132
0.0
 79
     0
146
0.0
  0
ENDTAB
  0
TABLE
  2
LTYPE
  5
446
330
0
100
AcDbSymbolTable
 70
    18
  0
LTYPE
  5
454
330
446
100
AcDbSymbolTableRecord
100
AcDbLinetypeTableRecord
  2
ByBlock
 70
     0
  3

 72
    65
 73
     0
 40
0.0
  0
LTYPE
  5
455
330
446
100
AcDbSymbolTableRecord
100
AcDbLinetypeTableRecord
  2
ByLayer
 70
     0
  3

 72
    65
 73
     0
 40
0.0
  0
LTYPE
  5
456
330
446
100
AcDbSymbolTableRecord
100
AcDbLinetypeTableRecord
  2
CONTINUOUS
 70
     0
  3
Solid line
 72
    65
 73
     0
 40
0.0
  0
LTYPE
  5
465
330
446
100
AcDbSymbolTableRecord
100
AcDbLinetypeTableRecord
  2
CENTER
 70
     0
  3
____ _ ____ _ ____ _ ____ _ ____ _ ____ _ ____
 72
    65
 73
     4
 40
2.0
 49
1.25
 74
     0
 49
-0.25
 74
     0
 49
0.25
 74
     0
 49
-0.25
 74
     0
  0
LTYPE
  5
466
330
446
100
AcDbSymbolTableRecord
100
AcDbLinetypeTableRecord
  2
HIDDEN2
 70
     0
  3
Hidden (.5x) _ _ _ _ _ _ _ _ _ _ _ _ _ _ _ _ _
 72
    65
 73
     2
 40
4.7625
 49
3.174999999999999
 74
     0
 49
-1.587499999999999
 74
     0
  0
LTYPE
  5
7AF
330
446
100
AcDbSymbolTableRecord
100
AcDbLinetypeTableRecord
  2
HIDDEN
 70
     0
  3
Hidden __ __ __ __ __ __ __ __ __ __ __ __ __ _
 72
    65
 73
     2
 40
0.375
 49
0.25
 74
     0
 49
-0.125
 74
     0
  0
LTYPE
  5
7B0
330
446
100
AcDbSymbolTableRecord
100
AcDbLinetypeTableRecord
  2
PHANTOM2
 70
     0
  3
Phantom (.5x) ___ _ _ ___ _ _ ___ _ _ ___ _ _
 72
    65
 73
     6
 40
1.25
 49
0.625
 74
     0
 49
-0.125
 74
     0
 49
0.125
 74
     0
 49
-0.125
 74
     0
 49
0.125
 74
     0
 49
-0.125
 74
     0
  0
LTYPE
  5
812
330
446
100
AcDbSymbolTableRecord
100
AcDbLinetypeTableRecord
  2
ASULTYPE
 70
     0
  3
実線
 72
    65
 73
     2
 40
3.0
 49
2.5
 74
     0
 49
0.5
 74
     0
  0
LTYPE
  5
813
330
446
100
AcDbSymbolTableRecord
100
AcDbLinetypeTableRecord
  2
ASVLTYPE
 70
     0
  3
__ __ __ __ __ __ __ __ __ __ __ __ __ __ __ __ __ __ __ __ __
 72
    65
 73
     2
 40
0.75
 49
0.5
 74
     0
 49
-0.25
 74
     0
  0
LTYPE
  5
857
330
446
100
AcDbSymbolTableRecord
100
AcDbLinetypeTableRecord
  2
AM_ISO02W050
 70
     0
  3
__ __ __ __ __ __ __ __ __ __ __ __ __ __ __
 72
    65
 73
     2
 40
7.5
 49
6.0
 74
     0
 49
-1.5
 74
     0
  0
LTYPE
  5
858
330
446
100
AcDbSymbolTableRecord
100
AcDbLinetypeTableRecord
  2
AM_ISO08W050
 70
     0
  3
____ . ____ . ____ . ____ . ____ . ____ . ____
 72
    65
 73
     4
 40
18.0
 49
12.0
 74
     0
 49
-1.5
 74
     0
 49
3.0
 74
     0
 49
-1.5
 74
     0
  0
LTYPE
  5
859
330
446
100
AcDbSymbolTableRecord
100
AcDbLinetypeTableRecord
  2
AM_ISO09W050
 70
     0
  3
_____ . . _____ . . _____ . . ____ .. ____
 72
    65
 73
     6
 40
22.5
 49
12.0
 74
     0
 49
-1.5
 74
     0
 49
3.0
 74
     0
 49
-1.5
 74
     0
 49
3.0
 74
     0
 49
-1.5
 74
     0
  0
LTYPE
  5
85A
330
446
100
AcDbSymbolTableRecord
100
AcDbLinetypeTableRecord
  2
Amconstr
 70
     0
  3
_______________________
 72
    65
 73
     2
 40
9999.0
 49
9999.0
 74
     0
 49
0.0
 74
     0
  0
LTYPE
  5
85B
330
446
100
AcDbSymbolTableRecord
100
AcDbLinetypeTableRecord
  2
AM_ISO08W050x2
 70
     0
  3
__ . __ . __ . __ . __ . __
 72
    65
 73
     4
 40
9.0
 49
6.0
 74
     0
 49
-0.75
 74
     0
 49
1.5
 74
     0
 49
-0.75
 74
     0
  0
LTYPE
  5
85C
330
446
100
AcDbSymbolTableRecord
100
AcDbLinetypeTableRecord
  2
AM_ISO02W050x2
 70
     0
  3
 _ _ _ _ _ _ _ _ _ _ _ _
 72
    65
 73
     2
 40
3.75
 49
3.0
 74
     0
 49
-0.75
 74
     0
  0
LTYPE
  5
85D
330
446
100
AcDbSymbolTableRecord
100
AcDbLinetypeTableRecord
  2
Amzigzag
 70
     0
  3
/\/-/\/-/\/-/\/-/\/-/\/
 72
    65
 73
     2
 40
11.00009999999999
 49
0.0001
 74
     4
 75
   135
340
469
 46
0.04
 50
0.0
 44
0.0
 45
0.0
 49
-11.0
 74
     0
  0
LTYPE
  5
85E
330
446
100
AcDbSymbolTableRecord
100
AcDbLinetypeTableRecord
  2
CENTER2
 70
     0
  3
Center (.5x) ___ _ ___ _ ___ _ ___ _ ___ _ ___
 72
    65
 73
     4
 40
1.125
 49
0.75
 74
     0
 49
-0.125
 74
     0
 49
0.125
 74
     0
 49
-0.125
 74
     0
  0
LTYPE
  5
85F
330
446
100
AcDbSymbolTableRecord
100
AcDbLinetypeTableRecord
  2
Amzigzag2
 70
     0
  3
/\/-/\/-/\/-/\/-/\/-/\/
 72
    65
 73
     2
 40
0.4401
 49
0.0001
 74
     4
 75
   135
340
469
 46
0.0016
 50
0.0
 44
0.0
 45
0.0
 49
-0.4400000000000001
 74
     0
  0
LTYPE
  5
86D
330
446
100
AcDbSymbolTableRecord
100
AcDbLinetypeTableRecord
  2
ACANSTGB
 70
     0
  3
__ . . __ . .
 72
    65
 73
     6
 40
0.35433070866
 49
0.15748031496
 74
     0
 49
-0.03937007874
 74
     0
 49
0.03937007874
 74
     0
 49
-0.03937007874
 74
     0
 49
0.03937007874
 74
     0
 49
-0.03937007874
 74
     0
  0
LTYPE
  5
86E
330
446
100
AcDbSymbolTableRecord
100
AcDbLinetypeTableRecord
  2
ACANSTGL
 70
     0
  3
_ _ _ _ _
 72
    65
 73
     2
 40
0.11811023622
 49
0.07874015748
 74
     0
 49
-0.03937007874
 74
     0
  0
ENDTAB
  0
TABLE
  2
LAYER
  5
443
330
0
100
AcDbSymbolTable
 70
     4
  0
LAYER
  5
451
330
443
100
AcDbSymbolTableRecord
100
AcDbLayerTableRecord
  2
0
 70
     0
 62
     7
  6
CONTINUOUS
370
    -3
390
450
  0
LAYER
  5
463
330
443
100
AcDbSymbolTableRecord
100
AcDbLayerTableRecord
  2
2
 70
     0
 62
     2
  6
HIDDEN2
370
    -3
390
450
  0
LAYER
  5
467
330
443
100
AcDbSymbolTableRecord
100
AcDbLayerTableRecord
  2
1
 70
     0
 62
     1
  6
CENTER
370
    -3
390
450
  0
LAYER
  5
892
330
443
100
AcDbSymbolTableRecord
100
AcDbLayerTableRecord
  2
Defpoints
 70
     0
 62
     7
  6
CONTINUOUS
290
     0
370
    -3
390
450
  0
ENDTAB
  0
TABLE
  2
STYLE
  5
444
330
0
100
AcDbSymbolTable
 70
     5
  0
STYLE
  5
452
330
444
100
AcDbSymbolTableRecord
100
AcDbTextStyleTableRecord
  2
STANDARD
 70
     0
 40
0.0
 41
1.0
 50
0.0
 71
     0
 42
2.5
  3
txt
  4

  0
STYLE
  5
468
330
444
100
AcDbSymbolTableRecord
100
AcDbTextStyleTableRecord
  2
BIGFONT
 70
     0
 40
10.0
 41
0.8
 50
0.0
 71
     0
 42
10.0
  3
txt.shx
  4
bigfont
  0
STYLE
  5
469
330
444
100
AcDbSymbolTableRecord
100
AcDbTextStyleTableRecord
  2

 70
     1
 40
0.0
 41
1.0
 50
0.0
 71
     0
 42
2.5
  3
ltypeshp.shx
  4

  0
STYLE
  5
860
330
444
100
AcDbSymbolTableRecord
100
AcDbTextStyleTableRecord
  2
ACANSTS
 70
     0
 40
1.0
 41
1.0
 50
0.0
 71
     0
 42
2.5
  3
romans.shx
  4
extfont.shx
  0
STYLE
  5
86C
330
444
100
AcDbSymbolTableRecord
100
AcDbTextStyleTableRecord
  2
ACANSGDT
 70
     0
 40
0.0
 41
1.0
 50
0.0
 71
     0
 42
2.5
  3
amgdtans.shx
  4

  0
ENDTAB
  0
TABLE
  2
VIEW
  5
447
330
0
100
AcDbSymbolTable
 70
     0
  0
ENDTAB
  0
TABLE
  2
UCS
  5
448
330
0
100
AcDbSymbolTable
 70
     0
  0
ENDTAB
  0
TABLE
  2
APPID
  5
44A
330
0
100
AcDbSymbolTable
 70
    13
  0
APPID
  5
453
330
44A
100
AcDbSymbolTableRecord
100
AcDbRegAppTableRecord
  2
ACAD
 70
     0
  0
APPID
  5
78D
330
44A
100
AcDbSymbolTableRecord
100
AcDbRegAppTableRecord
  2
GENIUS_GENDIM_13
 70
     0
  0
APPID
  5
78E
330
44A
100
AcDbSymbolTableRecord
100
AcDbRegAppTableRecord
  2
GENIUS_GENDTOL_13
 70
     0
  0
APPID
  5
78F
330
44A
100
AcDbSymbolTableRecord
100
AcDbRegAppTableRecord
  2
GENIUS_GE3DTOL_13
 70
     0
  0
APPID
  5
792
330
44A
100
AcDbSymbolTableRecord
100
AcDbRegAppTableRecord
  2
MCAD_NO_VIS
 70
     0
  0
APPID
  5
793
330
44A
100
AcDbSymbolTableRecord
100
AcDbRegAppTableRecord
  2
ACAD_TEMP_GRAPHIC
 70
     0
  0
APPID
  5
7C5
330
44A
100
AcDbSymbolTableRecord
100
AcDbRegAppTableRecord
  2
AD_DRAW
 70
     0
  0
APPID
  5
7C8
330
44A
100
AcDbSymbolTableRecord
100
AcDbRegAppTableRecord
  2
ACATTRIBSERVICES
 70
     0
  0
APPID
  5
814
330
44A
100
AcDbSymbolTableRecord
100
AcDbRegAppTableRecord
  2
ASURF_PCURVE_APPNAME
 70
     0
  0
APPID
  5
819
330
44A
100
AcDbSymbolTableRecord
100
AcDbRegAppTableRecord
  2
AMG_3D2D_5.0
 70
     0
  0
APPID
  5
844
330
44A
100
AcDbSymbolTableRecord
100
AcDbRegAppTableRecord
  2
DESIGNERASSEMBLIES
 70
     0
  0
APPID
  5
84C
330
44A
100
AcDbSymbolTableRecord
100
AcDbRegAppTableRecord
  2
ACADM_DIM_EDIT
 70
     0
  0
APPID
  5
84D
330
44A
100
AcDbSymbolTableRecord
100
AcDbRegAppTableRecord
  2
AMDT_DM_ADJ
 70
     0
  0
ENDTAB
  0
TABLE
  2
DIMSTYLE
  5
44B
330
0
100
AcDbSymbolTable
 70
     7
100
AcDbDimStyleTable
 71
     1
340
46A
  0
DIMSTYLE
105
46A
330
44B
100
AcDbSymbolTableRecord
100
AcDbDimStyleTableRecord
  2
STANDARD
 70
     0
274
     4
279
     2
284
     8
285
     8
286
     8
340
452
  0
DIMSTYLE
105
873
330
44B
100
AcDbSymbolTableRecord
100
AcDbDimStyleTableRecord
  2
AM_ANSI
 70
     0
  4
mm
 41
0.1
 42
0.05
 43
0.5
 44
0.1
 47
0.1
 48
0.1
 78
     7
 79
     2
140
0.12
141
0.0
146
0.71
147
0.06
176
   256
177
   256
178
     2
274
     4
284
     7
340
452
371
    -1
372
    -1
  0
DIMSTYLE
105
874
330
44B
100
AcDbSymbolTableRecord
100
AcDbDimStyleTableRecord
  2
AM_ANSI$3
 70
     0
  4
mm
 41
0.1
 42
0.05
 43
0.5
 44
0.1
 47
0.1
 48
0.1
 78
     7
 79
     2
140
0.12
141
0.0
146
0.71
147
0.06
176
   256
177
   256
178
     2
274
     4
284
     7
288
     1
289
     0
340
452
371
    -1
372
    -1
  0
DIMSTYLE
105
875
330
44B
100
AcDbSymbolTableRecord
100
AcDbDimStyleTableRecord
  2
AM_ANSI$4
 70
     0
  4
mm
 41
0.1
 42
0.05
 43
0.5
 44
0.1
 47
0.1
 48
0.1
 78
     7
 79
     2
140
0.12
141
0.0
146
0.71
147
0.06
176
   256
177
   256
178
     2
274
     4
284
     7
288
     1
289
     0
340
452
371
    -1
372
    -1
  0
DIMSTYLE
105
876
330
44B
100
AcDbSymbolTableRecord
100
AcDbDimStyleTableRecord
  2
AM_ANSI$7
 70
     0
  4
mm
 41
0.1
 42
0.05
 43
0.5
 44
0.1
 47
0.1
 48
0.1
 78
     7
 79
     2
140
0.24
141
0.0
146
0.71
147
0.06
176
   256
177
   256
178
     2
274
     4
284
     7
340
452
371
    -1
372
    -1
  0
DIMSTYLE
105
877
330
44B
100
AcDbSymbolTableRecord
100
AcDbDimStyleTableRecord
  2
AM_ANSI$SF
 70
     0
  4
mm
 41
0.1
 42
0.05
 43
0.5
 44
0.1
 47
0.1
 48
0.1
 75
     1
 76
     1
 78
     7
 79
     2
140
0.12
141
0.0
146
0.71
147
0.06
176
   256
177
   256
178
     2
274
     4
284
     7
340
452
371
    -1
372
    -1
  0
DIMSTYLE
105
87C
330
44B
100
AcDbSymbolTableRecord
100
AcDbDimStyleTableRecord
  2
AM_ANSI$SH
 70
     0
  4
mm
 41
0.1
 42
0.05
 43
0.5
 44
0.1
 47
0.1
 48
0.1
 75
     1
 76
     1
 78
     7
 79
     2
140
0.12
141
0.0
146
0.71
147
0.06
173
     1
176
   256
177
   256
178
     2
274
     4
284
     7
340
452
343
878
371
    -1
372
    -1
  0
ENDTAB
  0
TABLE
  2
BLOCK_RECORD
  5
442
330
0
100
AcDbSymbolTable
 70
     6
  0
BLOCK_RECORD
  5
45F
102
{ACAD_XDICTIONARY
360
880
102
}
330
442
100
AcDbSymbolTableRecord
100
AcDbBlockTableRecord
  2
*Model_Space
340
462
  0
BLOCK_RECORD
  5
45B
330
442
100
AcDbSymbolTableRecord
100
AcDbBlockTableRecord
  2
*Paper_Space
340
45E
  0
BLOCK_RECORD
  5
46E
330
442
100
AcDbSymbolTableRecord
100
AcDbBlockTableRecord
  2
$MODEL_SPACE
340
0
  0
BLOCK_RECORD
  5
471
330
442
100
AcDbSymbolTableRecord
100
AcDbBlockTableRecord
  2
$PAPER_SPACE
340
0
  0
BLOCK_RECORD
  5
474
330
442
100
AcDbSymbolTableRecord
100
AcDbBlockTableRecord
  2
A$C0C13436D
340
0
  0
BLOCK_RECORD
  5
83B
330
442
100
AcDbSymbolTableRecord
100
AcDbBlockTableRecord
  2
*U3
340
0
  0
BLOCK_RECORD
  5
878
330
442
100
AcDbSymbolTableRecord
100
AcDbBlockTableRecord
  2
GENAXEH
340
0
  0
BLOCK_RECORD
  5
893
330
442
100
AcDbSymbolTableRecord
100
AcDbBlockTableRecord
  2
*D5
340
0
  0
ENDTAB
  0
ENDSEC
  0
SECTION
  2
BLOCKS
  0
BLOCK
  5
460
330
45F
100
AcDbEntity
  8
0
100
AcDbBlockBegin
  2
*Model_Space
 70
     0
 10
0.0
 20
0.0
 30
0.0
  3
*Model_Space
  1

  0
ENDBLK
  5
461
330
45F
100
AcDbEntity
  8
0
100
AcDbBlockEnd
  0
BLOCK
  5
45C
330
45B
100
AcDbEntity
 67
     1
  8
0
100
AcDbBlockBegin
  2
*Paper_Space
 70
     0
 10
0.0
 20
0.0
 30
0.0
  3
*Paper_Space
  1

  0
ENDBLK
  5
45D
330
45B
100
AcDbEntity
 67
     1
  8
0
100
AcDbBlockEnd
  0
BLOCK
  5
46F
330
46E
100
AcDbEntity
  8
0
100
AcDbBlockBegin
  2
$MODEL_SPACE
 70
     0
 10
0.0
 20
0.0
 30
0.0
  3
$MODEL_SPACE
  1

  0
ENDBLK
  5
470
330
46E
100
AcDbEntity
  8
0
100
AcDbBlockEnd
  0
BLOCK
  5
472
330
471
100
AcDbEntity
  8
0
100
AcDbBlockBegin
  2
$PAPER_SPACE
 70
     0
 10
0.0
 20
0.0
 30
0.0
  3
$PAPER_SPACE
  1

  0
ENDBLK
  5
473
330
471
100
AcDbEntity
  8
0
100
AcDbBlockEnd
  0
BLOCK
  5
475
330
474
100
AcDbEntity
  8
0
100
AcDbBlockBegin
  2
A$C0C13436D
 70
     0
 10
0.0
 20
0.0
 30
0.0
  3
A$C0C13436D
  1

  0
ARC
  5
476
330
474
100
AcDbEntity
  8
0
100
AcDbCircle
 10
55.0
 20
38.004234
 30
0.0
 40
1.0
100
AcDbArc
 50
180.0
 51
285.0428009999999
  0
LINE
  5
477
330
474
100
AcDbEntity
  8
0
100
AcDbLine
 10
54.73933399999999
 20
55.69962
 30
0.0
 11
102.7393339999999
 21
68.65961999999999
 31
0.0
  0
LINE
  5
478
330
474
100
AcDbEntity
  8
1
100
AcDbLine
 10
8.0
 20
70.5
 30
0.0
 11
8.0
 21
0.0
 31
0.0
  0
LINE
  5
479
330
474
100
AcDbEntity
  8
0
100
AcDbLine
 10
14.0
 20
33.5
 30
0.0
 11
14.0
 21
37.26708099999999
 31
0.0
  0
LINE
  5
47A
330
474
100
AcDbEntity
  8
0
100
AcDbLine
 10
2.0
 20
33.5
 30
0.0
 11
2.0
 21
37.26708099999999
 31
0.0
  0
LINE
  5
47B
330
474
100
AcDbEntity
  8
0
100
AcDbLine
 10
5.0
 20
33.5
 30
0.0
 11
5.0
 21
4.0
 31
0.0
  0
LINE
  5
47C
330
474
100
AcDbEntity
  8
0
100
AcDbLine
 10
5.5
 20
3.5
 30
0.0
 11
5.5
 21
32.5
 31
0.0
  0
LINE
  5
47D
330
474
100
AcDbEntity
  8
0
100
AcDbLine
 10
10.5
 20
3.5
 30
0.0
 11
10.5
 21
32.5
 31
0.0
  0
LINE
  5
47E
330
474
100
AcDbEntity
  8
0
100
AcDbLine
 10
11.0
 20
33.5
 30
0.0
 11
11.0
 21
4.0
 31
0.0
  0
LINE
  5
47F
330
474
100
AcDbEntity
  8
0
100
AcDbLine
 10
10.5
 20
3.5
 30
0.0
 11
8.0
 21
3.5
 31
0.0
  0
LINE
  5
480
330
474
100
AcDbEntity
  8
0
100
AcDbLine
 10
11.0
 20
4.0
 30
0.0
 11
8.0
 21
4.0
 31
0.0
  0
LINE
  5
481
330
474
100
AcDbEntity
  8
0
100
AcDbLine
 10
5.5
 20
3.5
 30
0.0
 11
8.0
 21
3.5
 31
0.0
  0
LINE
  5
482
330
474
100
AcDbEntity
  8
0
100
AcDbLine
 10
5.0
 20
4.0
 30
0.0
 11
8.0
 21
4.0
 31
0.0
  0
LINE
  5
483
330
474
100
AcDbEntity
  8
0
100
AcDbLine
 10
5.0
 20
4.0
 30
0.0
 11
5.5
 21
3.5
 31
0.0
  0
LINE
  5
484
330
474
100
AcDbEntity
  8
0
100
AcDbLine
 10
11.0
 20
4.0
 30
0.0
 11
10.5
 21
3.5
 31
0.0
  0
LINE
  5
485
330
474
100
AcDbEntity
  8
0
100
AcDbLine
 10
11.0
 20
32.5
 30
0.0
 11
8.0
 21
32.5
 31
0.0
  0
LINE
  5
486
330
474
100
AcDbEntity
  8
0
100
AcDbLine
 10
8.0
 20
33.5
 30
0.0
 11
14.0
 21
33.5
 31
0.0
  0
LINE
  5
487
330
474
100
AcDbEntity
  8
0
100
AcDbLine
 10
8.0
 20
33.5
 30
0.0
 11
2.0
 21
33.5
 31
0.0
  0
LINE
  5
488
330
474
100
AcDbEntity
  8
0
100
AcDbLine
 10
5.0
 20
32.5
 30
0.0
 11
8.0
 21
32.5
 31
0.0
  0
LINE
  5
489
330
474
100
AcDbEntity
  8
0
100
AcDbLine
 10
16.0
 20
38.5
 30
0.0
 11
16.0
 21
57.5
 31
0.0
  0
ARC
  5
48A
330
474
100
AcDbEntity
  8
0
100
AcDbCircle
 10
8.0
 20
65.0
 30
0.0
 40
8.5
100
AcDbArc
 50
241.9275129999999
 51
298.072487
  0
POLYLINE
  5
48B
330
474
100
AcDbEntity
  8
0
100
AcDb3dPolyline
 66
     1
 10
0.0
 20
0.0
 30
0.0
 70
     8
  0
VERTEX
  5
48C
330
48B
100
AcDbEntity
  8
0
100
AcDbVertex
100
AcDb3dPolylineVertex
 10
0.267585
 20
58.0129
 30
0.0
 70
    32
  0
VERTEX
  5
48D
330
48B
100
AcDbEntity
  8
0
100
AcDbVertex
100
AcDb3dPolylineVertex
 10
0.212081
 20
57.9575
 30
0.0
 70
    32
  0
VERTEX
  5
48E
330
48B
100
AcDbEntity
  8
0
100
AcDbVertex
100
AcDb3dPolylineVertex
 10
0.162945
 20
57.9016
 30
0.0
 70
    32
  0
VERTEX
  5
48F
330
48B
100
AcDbEntity
  8
0
100
AcDbVertex
100
AcDb3dPolylineVertex
 10
0.120218
 20
57.84539999999999
 30
0.0
 70
    32
  0
VERTEX
  5
490
330
48B
100
AcDbEntity
  8
0
100
AcDbVertex
100
AcDb3dPolylineVertex
 10
0.0839342
 20
57.789
 30
0.0
 70
    32
  0
VERTEX
  5
491
330
48B
100
AcDbEntity
  8
0
100
AcDbVertex
100
AcDb3dPolylineVertex
 10
0.0541232
 20
57.7323
 30
0.0
 70
    32
  0
VERTEX
  5
492
330
48B
100
AcDbEntity
  8
0
100
AcDbVertex
100
AcDb3dPolylineVertex
 10
0.0308095
 20
57.6754
 30
0.0
 70
    32
  0
VERTEX
  5
493
330
48B
100
AcDbEntity
  8
0
100
AcDbVertex
100
AcDb3dPolylineVertex
 10
0.0140121
 20
57.61829999999999
 30
0.0
 70
    32
  0
VERTEX
  5
494
330
48B
100
AcDbEntity
  8
0
100
AcDbVertex
100
AcDb3dPolylineVertex
 10
0.00374481
 20
57.5612
 30
0.0
 70
    32
  0
VERTEX
  5
495
330
48B
100
AcDbEntity
  8
0
100
AcDbVertex
100
AcDb3dPolylineVertex
 10
0.0000160367
 20
57.50399999999999
 30
0.0
 70
    32
  0
VERTEX
  5
496
330
48B
100
AcDbEntity
  8
0
100
AcDbVertex
100
AcDb3dPolylineVertex
 10
0.00282881
 20
57.4468
 30
0.0
 70
    32
  0
VERTEX
  5
497
330
48B
100
AcDbEntity
  8
0
100
AcDbVertex
100
AcDb3dPolylineVertex
 10
0.0121808
 20
57.3897
 30
0.0
 70
    32
  0
VERTEX
  5
498
330
48B
100
AcDbEntity
  8
0
100
AcDbVertex
100
AcDb3dPolylineVertex
 10
0.0280644
 20
57.3326
 30
0.0
 70
    32
  0
VERTEX
  5
499
330
48B
100
AcDbEntity
  8
0
100
AcDbVertex
100
AcDb3dPolylineVertex
 10
0.0504667
 20
57.2757
 30
0.0
 70
    32
  0
VERTEX
  5
49A
330
48B
100
AcDbEntity
  8
0
100
AcDbVertex
100
AcDb3dPolylineVertex
 10
0.0793692
 20
57.219
 30
0.0
 70
    32
  0
VERTEX
  5
49B
330
48B
100
AcDbEntity
  8
0
100
AcDbVertex
100
AcDb3dPolylineVertex
 10
0.114748
 20
57.1625
 30
0.0
 70
    32
  0
VERTEX
  5
49C
330
48B
100
AcDbEntity
  8
0
100
AcDbVertex
100
AcDb3dPolylineVertex
 10
0.156575
 20
57.1062
 30
0.0
 70
    32
  0
VERTEX
  5
49D
330
48B
100
AcDbEntity
  8
0
100
AcDbVertex
100
AcDb3dPolylineVertex
 10
0.204816
 20
57.0503
 30
0.0
 70
    32
  0
VERTEX
  5
49E
330
48B
100
AcDbEntity
  8
0
100
AcDbVertex
100
AcDb3dPolylineVertex
 10
0.25943
 20
56.9948
 30
0.0
 70
    32
  0
VERTEX
  5
49F
330
48B
100
AcDbEntity
  8
0
100
AcDbVertex
100
AcDb3dPolylineVertex
 10
0.320374
 20
56.9397
 30
0.0
 70
    32
  0
VERTEX
  5
4A0
330
48B
100
AcDbEntity
  8
0
100
AcDbVertex
100
AcDb3dPolylineVertex
 10
0.387598
 20
56.885
 30
0.0
 70
    32
  0
VERTEX
  5
4A1
330
48B
100
AcDbEntity
  8
0
100
AcDbVertex
100
AcDb3dPolylineVertex
 10
0.461046
 20
56.83089999999999
 30
0.0
 70
    32
  0
VERTEX
  5
4A2
330
48B
100
AcDbEntity
  8
0
100
AcDbVertex
100
AcDb3dPolylineVertex
 10
0.540659
 20
56.7772
 30
0.0
 70
    32
  0
VERTEX
  5
4A3
330
48B
100
AcDbEntity
  8
0
100
AcDbVertex
100
AcDb3dPolylineVertex
 10
0.626371
 20
56.7242
 30
0.0
 70
    32
  0
VERTEX
  5
4A4
330
48B
100
AcDbEntity
  8
0
100
AcDbVertex
100
AcDb3dPolylineVertex
 10
0.718112
 20
56.6718
 30
0.0
 70
    32
  0
VERTEX
  5
4A5
330
48B
100
AcDbEntity
  8
0
100
AcDbVertex
100
AcDb3dPolylineVertex
 10
0.8158079999999999
 20
56.6201
 30
0.0
 70
    32
  0
VERTEX
  5
4A6
330
48B
100
AcDbEntity
  8
0
100
AcDbVertex
100
AcDb3dPolylineVertex
 10
0.9193789999999999
 20
56.56909999999999
 30
0.0
 70
    32
  0
VERTEX
  5
4A7
330
48B
100
AcDbEntity
  8
0
100
AcDbVertex
100
AcDb3dPolylineVertex
 10
1.028739999999999
 20
56.5189
 30
0.0
 70
    32
  0
VERTEX
  5
4A8
330
48B
100
AcDbEntity
  8
0
100
AcDbVertex
100
AcDb3dPolylineVertex
 10
1.143799999999999
 20
56.4695
 30
0.0
 70
    32
  0
VERTEX
  5
4A9
330
48B
100
AcDbEntity
  8
0
100
AcDbVertex
100
AcDb3dPolylineVertex
 10
1.264469999999999
 20
56.4209
 30
0.0
 70
    32
  0
VERTEX
  5
4AA
330
48B
100
AcDbEntity
  8
0
100
AcDbVertex
100
AcDb3dPolylineVertex
 10
1.390639999999999
 20
56.37319999999999
 30
0.0
 70
    32
  0
VERTEX
  5
4AB
330
48B
100
AcDbEntity
  8
0
100
AcDbVertex
100
AcDb3dPolylineVertex
 10
1.52222
 20
56.3264
 30
0.0
 70
    32
  0
VERTEX
  5
4AC
330
48B
100
AcDbEntity
  8
0
100
AcDbVertex
100
AcDb3dPolylineVertex
 10
1.6591
 20
56.2806
 30
0.0
 70
    32
  0
VERTEX
  5
4AD
330
48B
100
AcDbEntity
  8
0
100
AcDbVertex
100
AcDb3dPolylineVertex
 10
1.801159999999999
 20
56.2357
 30
0.0
 70
    32
  0
VERTEX
  5
4AE
330
48B
100
AcDbEntity
  8
0
100
AcDbVertex
100
AcDb3dPolylineVertex
 10
1.94829
 20
56.19189999999999
 30
0.0
 70
    32
  0
VERTEX
  5
4AF
330
48B
100
AcDbEntity
  8
0
100
AcDbVertex
100
AcDb3dPolylineVertex
 10
2.100359999999999
 20
56.1492
 30
0.0
 70
    32
  0
VERTEX
  5
4B0
330
48B
100
AcDbEntity
  8
0
100
AcDbVertex
100
AcDb3dPolylineVertex
 10
2.25727
 20
56.10759999999999
 30
0.0
 70
    32
  0
VERTEX
  5
4B1
330
48B
100
AcDbEntity
  8
0
100
AcDbVertex
100
AcDb3dPolylineVertex
 10
2.41886
 20
56.0671
 30
0.0
 70
    32
  0
VERTEX
  5
4B2
330
48B
100
AcDbEntity
  8
0
100
AcDbVertex
100
AcDb3dPolylineVertex
 10
2.58502
 20
56.0278
 30
0.0
 70
    32
  0
VERTEX
  5
4B3
330
48B
100
AcDbEntity
  8
0
100
AcDbVertex
100
AcDb3dPolylineVertex
 10
2.755609999999999
 20
55.9897
 30
0.0
 70
    32
  0
VERTEX
  5
4B4
330
48B
100
AcDbEntity
  8
0
100
AcDbVertex
100
AcDb3dPolylineVertex
 10
2.93049
 20
55.9528
 30
0.0
 70
    32
  0
VERTEX
  5
4B5
330
48B
100
AcDbEntity
  8
0
100
AcDbVertex
100
AcDb3dPolylineVertex
 10
3.109509999999999
 20
55.9172
 30
0.0
 70
    32
  0
VERTEX
  5
4B6
330
48B
100
AcDbEntity
  8
0
100
AcDbVertex
100
AcDb3dPolylineVertex
 10
3.29254
 20
55.8829
 30
0.0
 70
    32
  0
VERTEX
  5
4B7
330
48B
100
AcDbEntity
  8
0
100
AcDbVertex
100
AcDb3dPolylineVertex
 10
3.479409999999999
 20
55.8499
 30
0.0
 70
    32
  0
VERTEX
  5
4B8
330
48B
100
AcDbEntity
  8
0
100
AcDbVertex
100
AcDb3dPolylineVertex
 10
3.669969999999999
 20
55.8183
 30
0.0
 70
    32
  0
VERTEX
  5
4B9
330
48B
100
AcDbEntity
  8
0
100
AcDbVertex
100
AcDb3dPolylineVertex
 10
3.86408
 20
55.788
 30
0.0
 70
    32
  0
VERTEX
  5
4BA
330
48B
100
AcDbEntity
  8
0
100
AcDbVertex
100
AcDb3dPolylineVertex
 10
4.061569999999999
 20
55.75919999999999
 30
0.0
 70
    32
  0
VERTEX
  5
4BB
330
48B
100
AcDbEntity
  8
0
100
AcDbVertex
100
AcDb3dPolylineVertex
 10
4.26228
 20
55.7317
 30
0.0
 70
    32
  0
VERTEX
  5
4BC
330
48B
100
AcDbEntity
  8
0
100
AcDbVertex
100
AcDb3dPolylineVertex
 10
4.46605
 20
55.7057
 30
0.0
 70
    32
  0
VERTEX
  5
4BD
330
48B
100
AcDbEntity
  8
0
100
AcDbVertex
100
AcDb3dPolylineVertex
 10
4.672709999999999
 20
55.6812
 30
0.0
 70
    32
  0
VERTEX
  5
4BE
330
48B
100
AcDbEntity
  8
0
100
AcDbVertex
100
AcDb3dPolylineVertex
 10
4.88208
 20
55.65809999999999
 30
0.0
 70
    32
  0
VERTEX
  5
4BF
330
48B
100
AcDbEntity
  8
0
100
AcDbVertex
100
AcDb3dPolylineVertex
 10
5.094009999999999
 20
55.6366
 30
0.0
 70
    32
  0
VERTEX
  5
4C0
330
48B
100
AcDbEntity
  8
0
100
AcDbVertex
100
AcDb3dPolylineVertex
 10
5.308309999999999
 20
55.61659999999999
 30
0.0
 70
    32
  0
VERTEX
  5
4C1
330
48B
100
AcDbEntity
  8
0
100
AcDbVertex
100
AcDb3dPolylineVertex
 10
5.52482
 20
55.5981
 30
0.0
 70
    32
  0
VERTEX
  5
4C2
330
48B
100
AcDbEntity
  8
0
100
AcDbVertex
100
AcDb3dPolylineVertex
 10
5.74335
 20
55.5812
 30
0.0
 70
    32
  0
VERTEX
  5
4C3
330
48B
100
AcDbEntity
  8
0
100
AcDbVertex
100
AcDb3dPolylineVertex
 10
5.963719999999999
 20
55.56589999999999
 30
0.0
 70
    32
  0
VERTEX
  5
4C4
330
48B
100
AcDbEntity
  8
0
100
AcDbVertex
100
AcDb3dPolylineVertex
 10
6.18576
 20
55.5521
 30
0.0
 70
    32
  0
VERTEX
  5
4C5
330
48B
100
AcDbEntity
  8
0
100
AcDbVertex
100
AcDb3dPolylineVertex
 10
6.409279999999999
 20
55.5399
 30
0.0
 70
    32
  0
VERTEX
  5
4C6
330
48B
100
AcDbEntity
  8
0
100
AcDbVertex
100
AcDb3dPolylineVertex
 10
6.6341
 20
55.5294
 30
0.0
 70
    32
  0
VERTEX
  5
4C7
330
48B
100
AcDbEntity
  8
0
100
AcDbVertex
100
AcDb3dPolylineVertex
 10
6.860039999999999
 20
55.5204
 30
0.0
 70
    32
  0
VERTEX
  5
4C8
330
48B
100
AcDbEntity
  8
0
100
AcDbVertex
100
AcDb3dPolylineVertex
 10
7.08691
 20
55.5131
 30
0.0
 70
    32
  0
VERTEX
  5
4C9
330
48B
100
AcDbEntity
  8
0
100
AcDbVertex
100
AcDb3dPolylineVertex
 10
7.31453
 20
55.5074
 30
0.0
 70
    32
  0
VERTEX
  5
4CA
330
48B
100
AcDbEntity
  8
0
100
AcDbVertex
100
AcDb3dPolylineVertex
 10
7.54271
 20
55.5033
 30
0.0
 70
    32
  0
VERTEX
  5
4CB
330
48B
100
AcDbEntity
  8
0
100
AcDbVertex
100
AcDb3dPolylineVertex
 10
7.77126
 20
55.5008
 30
0.0
 70
    32
  0
VERTEX
  5
4CC
330
48B
100
AcDbEntity
  8
0
100
AcDbVertex
100
AcDb3dPolylineVertex
 10
8.0
 20
55.5
 30
0.0
 70
    32
  0
VERTEX
  5
4CD
330
48B
100
AcDbEntity
  8
0
100
AcDbVertex
100
AcDb3dPolylineVertex
 10
8.22874
 20
55.5008
 30
0.0
 70
    32
  0
VERTEX
  5
4CE
330
48B
100
AcDbEntity
  8
0
100
AcDbVertex
100
AcDb3dPolylineVertex
 10
8.457289999999998
 20
55.5033
 30
0.0
 70
    32
  0
VERTEX
  5
4CF
330
48B
100
AcDbEntity
  8
0
100
AcDbVertex
100
AcDb3dPolylineVertex
 10
8.68547
 20
55.5074
 30
0.0
 70
    32
  0
VERTEX
  5
4D0
330
48B
100
AcDbEntity
  8
0
100
AcDbVertex
100
AcDb3dPolylineVertex
 10
8.913089999999998
 20
55.5131
 30
0.0
 70
    32
  0
VERTEX
  5
4D1
330
48B
100
AcDbEntity
  8
0
100
AcDbVertex
100
AcDb3dPolylineVertex
 10
9.13996
 20
55.5204
 30
0.0
 70
    32
  0
VERTEX
  5
4D2
330
48B
100
AcDbEntity
  8
0
100
AcDbVertex
100
AcDb3dPolylineVertex
 10
9.365899999999999
 20
55.5294
 30
0.0
 70
    32
  0
VERTEX
  5
4D3
330
48B
100
AcDbEntity
  8
0
100
AcDbVertex
100
AcDb3dPolylineVertex
 10
9.590719999999999
 20
55.5399
 30
0.0
 70
    32
  0
VERTEX
  5
4D4
330
48B
100
AcDbEntity
  8
0
100
AcDbVertex
100
AcDb3dPolylineVertex
 10
9.814239999999999
 20
55.5521
 30
0.0
 70
    32
  0
VERTEX
  5
4D5
330
48B
100
AcDbEntity
  8
0
100
AcDbVertex
100
AcDb3dPolylineVertex
 10
10.0363
 20
55.56589999999999
 30
0.0
 70
    32
  0
VERTEX
  5
4D6
330
48B
100
AcDbEntity
  8
0
100
AcDbVertex
100
AcDb3dPolylineVertex
 10
10.2567
 20
55.5812
 30
0.0
 70
    32
  0
VERTEX
  5
4D7
330
48B
100
AcDbEntity
  8
0
100
AcDbVertex
100
AcDb3dPolylineVertex
 10
10.4752
 20
55.5981
 30
0.0
 70
    32
  0
VERTEX
  5
4D8
330
48B
100
AcDbEntity
  8
0
100
AcDbVertex
100
AcDb3dPolylineVertex
 10
10.6917
 20
55.61659999999999
 30
0.0
 70
    32
  0
VERTEX
  5
4D9
330
48B
100
AcDbEntity
  8
0
100
AcDbVertex
100
AcDb3dPolylineVertex
 10
10.906
 20
55.6366
 30
0.0
 70
    32
  0
VERTEX
  5
4DA
330
48B
100
AcDbEntity
  8
0
100
AcDbVertex
100
AcDb3dPolylineVertex
 10
11.1179
 20
55.65809999999999
 30
0.0
 70
    32
  0
VERTEX
  5
4DB
330
48B
100
AcDbEntity
  8
0
100
AcDbVertex
100
AcDb3dPolylineVertex
 10
11.3273
 20
55.6812
 30
0.0
 70
    32
  0
VERTEX
  5
4DC
330
48B
100
AcDbEntity
  8
0
100
AcDbVertex
100
AcDb3dPolylineVertex
 10
11.53389999999999
 20
55.7057
 30
0.0
 70
    32
  0
VERTEX
  5
4DD
330
48B
100
AcDbEntity
  8
0
100
AcDbVertex
100
AcDb3dPolylineVertex
 10
11.73769999999999
 20
55.7317
 30
0.0
 70
    32
  0
VERTEX
  5
4DE
330
48B
100
AcDbEntity
  8
0
100
AcDbVertex
100
AcDb3dPolylineVertex
 10
11.9384
 20
55.75919999999999
 30
0.0
 70
    32
  0
VERTEX
  5
4DF
330
48B
100
AcDbEntity
  8
0
100
AcDbVertex
100
AcDb3dPolylineVertex
 10
12.13589999999999
 20
55.788
 30
0.0
 70
    32
  0
VERTEX
  5
4E0
330
48B
100
AcDbEntity
  8
0
100
AcDbVertex
100
AcDb3dPolylineVertex
 10
12.33
 20
55.8183
 30
0.0
 70
    32
  0
VERTEX
  5
4E1
330
48B
100
AcDbEntity
  8
0
100
AcDbVertex
100
AcDb3dPolylineVertex
 10
12.5206
 20
55.8499
 30
0.0
 70
    32
  0
VERTEX
  5
4E2
330
48B
100
AcDbEntity
  8
0
100
AcDbVertex
100
AcDb3dPolylineVertex
 10
12.7075
 20
55.8829
 30
0.0
 70
    32
  0
VERTEX
  5
4E3
330
48B
100
AcDbEntity
  8
0
100
AcDbVertex
100
AcDb3dPolylineVertex
 10
12.8905
 20
55.9172
 30
0.0
 70
    32
  0
VERTEX
  5
4E4
330
48B
100
AcDbEntity
  8
0
100
AcDbVertex
100
AcDb3dPolylineVertex
 10
13.0695
 20
55.9528
 30
0.0
 70
    32
  0
VERTEX
  5
4E5
330
48B
100
AcDbEntity
  8
0
100
AcDbVertex
100
AcDb3dPolylineVertex
 10
13.2444
 20
55.9897
 30
0.0
 70
    32
  0
VERTEX
  5
4E6
330
48B
100
AcDbEntity
  8
0
100
AcDbVertex
100
AcDb3dPolylineVertex
 10
13.41499999999999
 20
56.0278
 30
0.0
 70
    32
  0
VERTEX
  5
4E7
330
48B
100
AcDbEntity
  8
0
100
AcDbVertex
100
AcDb3dPolylineVertex
 10
13.58109999999999
 20
56.0671
 30
0.0
 70
    32
  0
VERTEX
  5
4E8
330
48B
100
AcDbEntity
  8
0
100
AcDbVertex
100
AcDb3dPolylineVertex
 10
13.7427
 20
56.10759999999999
 30
0.0
 70
    32
  0
VERTEX
  5
4E9
330
48B
100
AcDbEntity
  8
0
100
AcDbVertex
100
AcDb3dPolylineVertex
 10
13.8996
 20
56.1492
 30
0.0
 70
    32
  0
VERTEX
  5
4EA
330
48B
100
AcDbEntity
  8
0
100
AcDbVertex
100
AcDb3dPolylineVertex
 10
14.0517
 20
56.19189999999999
 30
0.0
 70
    32
  0
VERTEX
  5
4EB
330
48B
100
AcDbEntity
  8
0
100
AcDbVertex
100
AcDb3dPolylineVertex
 10
14.1988
 20
56.2357
 30
0.0
 70
    32
  0
VERTEX
  5
4EC
330
48B
100
AcDbEntity
  8
0
100
AcDbVertex
100
AcDb3dPolylineVertex
 10
14.3409
 20
56.2806
 30
0.0
 70
    32
  0
VERTEX
  5
4ED
330
48B
100
AcDbEntity
  8
0
100
AcDbVertex
100
AcDb3dPolylineVertex
 10
14.4778
 20
56.3264
 30
0.0
 70
    32
  0
VERTEX
  5
4EE
330
48B
100
AcDbEntity
  8
0
100
AcDbVertex
100
AcDb3dPolylineVertex
 10
14.6094
 20
56.37319999999999
 30
0.0
 70
    32
  0
VERTEX
  5
4EF
330
48B
100
AcDbEntity
  8
0
100
AcDbVertex
100
AcDb3dPolylineVertex
 10
14.7355
 20
56.4209
 30
0.0
 70
    32
  0
VERTEX
  5
4F0
330
48B
100
AcDbEntity
  8
0
100
AcDbVertex
100
AcDb3dPolylineVertex
 10
14.85619999999999
 20
56.4695
 30
0.0
 70
    32
  0
VERTEX
  5
4F1
330
48B
100
AcDbEntity
  8
0
100
AcDbVertex
100
AcDb3dPolylineVertex
 10
14.9713
 20
56.5189
 30
0.0
 70
    32
  0
VERTEX
  5
4F2
330
48B
100
AcDbEntity
  8
0
100
AcDbVertex
100
AcDb3dPolylineVertex
 10
15.0806
 20
56.56909999999999
 30
0.0
 70
    32
  0
VERTEX
  5
4F3
330
48B
100
AcDbEntity
  8
0
100
AcDbVertex
100
AcDb3dPolylineVertex
 10
15.1842
 20
56.6201
 30
0.0
 70
    32
  0
VERTEX
  5
4F4
330
48B
100
AcDbEntity
  8
0
100
AcDbVertex
100
AcDb3dPolylineVertex
 10
15.2819
 20
56.6718
 30
0.0
 70
    32
  0
VERTEX
  5
4F5
330
48B
100
AcDbEntity
  8
0
100
AcDbVertex
100
AcDb3dPolylineVertex
 10
15.3736
 20
56.7242
 30
0.0
 70
    32
  0
VERTEX
  5
4F6
330
48B
100
AcDbEntity
  8
0
100
AcDbVertex
100
AcDb3dPolylineVertex
 10
15.4593
 20
56.7772
 30
0.0
 70
    32
  0
VERTEX
  5
4F7
330
48B
100
AcDbEntity
  8
0
100
AcDbVertex
100
AcDb3dPolylineVertex
 10
15.539
 20
56.83089999999999
 30
0.0
 70
    32
  0
VERTEX
  5
4F8
330
48B
100
AcDbEntity
  8
0
100
AcDbVertex
100
AcDb3dPolylineVertex
 10
15.61239999999999
 20
56.885
 30
0.0
 70
    32
  0
VERTEX
  5
4F9
330
48B
100
AcDbEntity
  8
0
100
AcDbVertex
100
AcDb3dPolylineVertex
 10
15.6796
 20
56.9397
 30
0.0
 70
    32
  0
VERTEX
  5
4FA
330
48B
100
AcDbEntity
  8
0
100
AcDbVertex
100
AcDb3dPolylineVertex
 10
15.7406
 20
56.9948
 30
0.0
 70
    32
  0
VERTEX
  5
4FB
330
48B
100
AcDbEntity
  8
0
100
AcDbVertex
100
AcDb3dPolylineVertex
 10
15.7952
 20
57.0503
 30
0.0
 70
    32
  0
VERTEX
  5
4FC
330
48B
100
AcDbEntity
  8
0
100
AcDbVertex
100
AcDb3dPolylineVertex
 10
15.8434
 20
57.1062
 30
0.0
 70
    32
  0
VERTEX
  5
4FD
330
48B
100
AcDbEntity
  8
0
100
AcDbVertex
100
AcDb3dPolylineVertex
 10
15.8853
 20
57.1625
 30
0.0
 70
    32
  0
VERTEX
  5
4FE
330
48B
100
AcDbEntity
  8
0
100
AcDbVertex
100
AcDb3dPolylineVertex
 10
15.9206
 20
57.219
 30
0.0
 70
    32
  0
VERTEX
  5
4FF
330
48B
100
AcDbEntity
  8
0
100
AcDbVertex
100
AcDb3dPolylineVertex
 10
15.9495
 20
57.2757
 30
0.0
 70
    32
  0
VERTEX
  5
500
330
48B
100
AcDbEntity
  8
0
100
AcDbVertex
100
AcDb3dPolylineVertex
 10
15.9719
 20
57.3326
 30
0.0
 70
    32
  0
VERTEX
  5
501
330
48B
100
AcDbEntity
  8
0
100
AcDbVertex
100
AcDb3dPolylineVertex
 10
15.9878
 20
57.3897
 30
0.0
 70
    32
  0
VERTEX
  5
502
330
48B
100
AcDbEntity
  8
0
100
AcDbVertex
100
AcDb3dPolylineVertex
 10
15.9972
 20
57.4468
 30
0.0
 70
    32
  0
VERTEX
  5
503
330
48B
100
AcDbEntity
  8
0
100
AcDbVertex
100
AcDb3dPolylineVertex
 10
16.0
 20
57.50399999999999
 30
0.0
 70
    32
  0
VERTEX
  5
504
330
48B
100
AcDbEntity
  8
0
100
AcDbVertex
100
AcDb3dPolylineVertex
 10
15.9963
 20
57.5612
 30
0.0
 70
    32
  0
VERTEX
  5
505
330
48B
100
AcDbEntity
  8
0
100
AcDbVertex
100
AcDb3dPolylineVertex
 10
15.986
 20
57.61829999999999
 30
0.0
 70
    32
  0
VERTEX
  5
506
330
48B
100
AcDbEntity
  8
0
100
AcDbVertex
100
AcDb3dPolylineVertex
 10
15.9692
 20
57.6754
 30
0.0
 70
    32
  0
VERTEX
  5
507
330
48B
100
AcDbEntity
  8
0
100
AcDbVertex
100
AcDb3dPolylineVertex
 10
15.9459
 20
57.7323
 30
0.0
 70
    32
  0
VERTEX
  5
508
330
48B
100
AcDbEntity
  8
0
100
AcDbVertex
100
AcDb3dPolylineVertex
 10
15.9161
 20
57.789
 30
0.0
 70
    32
  0
VERTEX
  5
509
330
48B
100
AcDbEntity
  8
0
100
AcDbVertex
100
AcDb3dPolylineVertex
 10
15.87979999999999
 20
57.84539999999999
 30
0.0
 70
    32
  0
VERTEX
  5
50A
330
48B
100
AcDbEntity
  8
0
100
AcDbVertex
100
AcDb3dPolylineVertex
 10
15.83709999999999
 20
57.9016
 30
0.0
 70
    32
  0
VERTEX
  5
50B
330
48B
100
AcDbEntity
  8
0
100
AcDbVertex
100
AcDb3dPolylineVertex
 10
15.7879
 20
57.9575
 30
0.0
 70
    32
  0
VERTEX
  5
50C
330
48B
100
AcDbEntity
  8
0
100
AcDbVertex
100
AcDb3dPolylineVertex
 10
15.7324
 20
58.0129
 30
0.0
 70
    32
  0
SEQEND
  5
50D
330
48B
100
AcDbEntity
  8
0
  0
LINE
  5
50E
330
474
100
AcDbEntity
  8
0
100
AcDbLine
 10
0.0
 20
38.5
 30
0.0
 11
0.0
 21
57.5
 31
0.0
  0
POLYLINE
  5
50F
330
474
100
AcDbEntity
  8
0
100
AcDb3dPolyline
 66
     1
 10
0.0
 20
0.0
 30
0.0
 70
     8
  0
VERTEX
  5
510
330
50F
100
AcDbEntity
  8
0
100
AcDbVertex
100
AcDb3dPolylineVertex
 10
0.0
 20
38.5
 30
0.0
 70
    32
  0
VERTEX
  5
511
330
50F
100
AcDbEntity
  8
0
100
AcDbVertex
100
AcDb3dPolylineVertex
 10
0.00240945
 20
38.4543
 30
0.0
 70
    32
  0
VERTEX
  5
512
330
50F
100
AcDbEntity
  8
0
100
AcDbVertex
100
AcDb3dPolylineVertex
 10
0.00963635
 20
38.40849999999999
 30
0.0
 70
    32
  0
VERTEX
  5
513
330
50F
100
AcDbEntity
  8
0
100
AcDbVertex
100
AcDb3dPolylineVertex
 10
0.0216763
 20
38.3629
 30
0.0
 70
    32
  0
VERTEX
  5
514
330
50F
100
AcDbEntity
  8
0
100
AcDbVertex
100
AcDb3dPolylineVertex
 10
0.0385222
 20
38.3173
 30
0.0
 70
    32
  0
VERTEX
  5
515
330
50F
100
AcDbEntity
  8
0
100
AcDbVertex
100
AcDb3dPolylineVertex
 10
0.0601637
 20
38.2718
 30
0.0
 70
    32
  0
VERTEX
  5
516
330
50F
100
AcDbEntity
  8
0
100
AcDbVertex
100
AcDb3dPolylineVertex
 10
0.0865879
 20
38.2265
 30
0.0
 70
    32
  0
VERTEX
  5
517
330
50F
100
AcDbEntity
  8
0
100
AcDbVertex
100
AcDb3dPolylineVertex
 10
0.117779
 20
38.1813
 30
0.0
 70
    32
  0
VERTEX
  5
518
330
50F
100
AcDbEntity
  8
0
100
AcDbVertex
100
AcDb3dPolylineVertex
 10
0.153718
 20
38.1364
 30
0.0
 70
    32
  0
VERTEX
  5
519
330
50F
100
AcDbEntity
  8
0
100
AcDbVertex
100
AcDb3dPolylineVertex
 10
0.194383
 20
38.0916
 30
0.0
 70
    32
  0
VERTEX
  5
51A
330
50F
100
AcDbEntity
  8
0
100
AcDbVertex
100
AcDb3dPolylineVertex
 10
0.23975
 20
38.0471
 30
0.0
 70
    32
  0
VERTEX
  5
51B
330
50F
100
AcDbEntity
  8
0
100
AcDbVertex
100
AcDb3dPolylineVertex
 10
0.2897909999999999
 20
38.0028
 30
0.0
 70
    32
  0
VERTEX
  5
51C
330
50F
100
AcDbEntity
  8
0
100
AcDbVertex
100
AcDb3dPolylineVertex
 10
0.344477
 20
37.95889999999999
 30
0.0
 70
    32
  0
VERTEX
  5
51D
330
50F
100
AcDbEntity
  8
0
100
AcDbVertex
100
AcDb3dPolylineVertex
 10
0.403775
 20
37.9153
 30
0.0
 70
    32
  0
VERTEX
  5
51E
330
50F
100
AcDbEntity
  8
0
100
AcDbVertex
100
AcDb3dPolylineVertex
 10
0.4676470000000001
 20
37.872
 30
0.0
 70
    32
  0
VERTEX
  5
51F
330
50F
100
AcDbEntity
  8
0
100
AcDbVertex
100
AcDb3dPolylineVertex
 10
0.5360580000000001
 20
37.8292
 30
0.0
 70
    32
  0
VERTEX
  5
520
330
50F
100
AcDbEntity
  8
0
100
AcDbVertex
100
AcDb3dPolylineVertex
 10
0.6089640000000001
 20
37.7867
 30
0.0
 70
    32
  0
VERTEX
  5
521
330
50F
100
AcDbEntity
  8
0
100
AcDbVertex
100
AcDb3dPolylineVertex
 10
0.686322
 20
37.74459999999999
 30
0.0
 70
    32
  0
VERTEX
  5
522
330
50F
100
AcDbEntity
  8
0
100
AcDbVertex
100
AcDb3dPolylineVertex
 10
0.768086
 20
37.703
 30
0.0
 70
    32
  0
VERTEX
  5
523
330
50F
100
AcDbEntity
  8
0
100
AcDbVertex
100
AcDb3dPolylineVertex
 10
0.8542059999999999
 20
37.6619
 30
0.0
 70
    32
  0
VERTEX
  5
524
330
50F
100
AcDbEntity
  8
0
100
AcDbVertex
100
AcDb3dPolylineVertex
 10
0.9446299999999999
 20
37.62129999999999
 30
0.0
 70
    32
  0
VERTEX
  5
525
330
50F
100
AcDbEntity
  8
0
100
AcDbVertex
100
AcDb3dPolylineVertex
 10
1.039299999999999
 20
37.5812
 30
0.0
 70
    32
  0
VERTEX
  5
526
330
50F
100
AcDbEntity
  8
0
100
AcDbVertex
100
AcDb3dPolylineVertex
 10
1.13817
 20
37.5417
 30
0.0
 70
    32
  0
VERTEX
  5
527
330
50F
100
AcDbEntity
  8
0
100
AcDbVertex
100
AcDb3dPolylineVertex
 10
1.24117
 20
37.5028
 30
0.0
 70
    32
  0
VERTEX
  5
528
330
50F
100
AcDbEntity
  8
0
100
AcDbVertex
100
AcDb3dPolylineVertex
 10
1.348239999999999
 20
37.46439999999999
 30
0.0
 70
    32
  0
VERTEX
  5
529
330
50F
100
AcDbEntity
  8
0
100
AcDbVertex
100
AcDb3dPolylineVertex
 10
1.45932
 20
37.42669999999999
 30
0.0
 70
    32
  0
VERTEX
  5
52A
330
50F
100
AcDbEntity
  8
0
100
AcDbVertex
100
AcDb3dPolylineVertex
 10
1.57434
 20
37.3896
 30
0.0
 70
    32
  0
VERTEX
  5
52B
330
50F
100
AcDbEntity
  8
0
100
AcDbVertex
100
AcDb3dPolylineVertex
 10
1.693229999999999
 20
37.3532
 30
0.0
 70
    32
  0
VERTEX
  5
52C
330
50F
100
AcDbEntity
  8
0
100
AcDbVertex
100
AcDb3dPolylineVertex
 10
1.81592
 20
37.3175
 30
0.0
 70
    32
  0
VERTEX
  5
52D
330
50F
100
AcDbEntity
  8
0
100
AcDbVertex
100
AcDb3dPolylineVertex
 10
1.942329999999999
 20
37.2825
 30
0.0
 70
    32
  0
VERTEX
  5
52E
330
50F
100
AcDbEntity
  8
0
100
AcDbVertex
100
AcDb3dPolylineVertex
 10
2.072389999999999
 20
37.24819999999999
 30
0.0
 70
    32
  0
VERTEX
  5
52F
330
50F
100
AcDbEntity
  8
0
100
AcDbVertex
100
AcDb3dPolylineVertex
 10
2.20602
 20
37.2147
 30
0.0
 70
    32
  0
VERTEX
  5
530
330
50F
100
AcDbEntity
  8
0
100
AcDbVertex
100
AcDb3dPolylineVertex
 10
2.34315
 20
37.182
 30
0.0
 70
    32
  0
VERTEX
  5
531
330
50F
100
AcDbEntity
  8
0
100
AcDbVertex
100
AcDb3dPolylineVertex
 10
2.48368
 20
37.14999999999999
 30
0.0
 70
    32
  0
VERTEX
  5
532
330
50F
100
AcDbEntity
  8
0
100
AcDbVertex
100
AcDb3dPolylineVertex
 10
2.62753
 20
37.11889999999999
 30
0.0
 70
    32
  0
VERTEX
  5
533
330
50F
100
AcDbEntity
  8
0
100
AcDbVertex
100
AcDb3dPolylineVertex
 10
2.77462
 20
37.0886
 30
0.0
 70
    32
  0
VERTEX
  5
534
330
50F
100
AcDbEntity
  8
0
100
AcDbVertex
100
AcDb3dPolylineVertex
 10
2.92485
 20
37.0591
 30
0.0
 70
    32
  0
VERTEX
  5
535
330
50F
100
AcDbEntity
  8
0
100
AcDbVertex
100
AcDb3dPolylineVertex
 10
3.078149999999999
 20
37.0305
 30
0.0
 70
    32
  0
VERTEX
  5
536
330
50F
100
AcDbEntity
  8
0
100
AcDbVertex
100
AcDb3dPolylineVertex
 10
3.23441
 20
37.0028
 30
0.0
 70
    32
  0
VERTEX
  5
537
330
50F
100
AcDbEntity
  8
0
100
AcDbVertex
100
AcDb3dPolylineVertex
 10
3.39353
 20
36.97599999999999
 30
0.0
 70
    32
  0
VERTEX
  5
538
330
50F
100
AcDbEntity
  8
0
100
AcDbVertex
100
AcDb3dPolylineVertex
 10
3.555439999999999
 20
36.95009999999999
 30
0.0
 70
    32
  0
VERTEX
  5
539
330
50F
100
AcDbEntity
  8
0
100
AcDbVertex
100
AcDb3dPolylineVertex
 10
3.720019999999999
 20
36.9252
 30
0.0
 70
    32
  0
VERTEX
  5
53A
330
50F
100
AcDbEntity
  8
0
100
AcDbVertex
100
AcDb3dPolylineVertex
 10
3.88718
 20
36.9012
 30
0.0
 70
    32
  0
VERTEX
  5
53B
330
50F
100
AcDbEntity
  8
0
100
AcDbVertex
100
AcDb3dPolylineVertex
 10
4.056809999999999
 20
36.8782
 30
0.0
 70
    32
  0
VERTEX
  5
53C
330
50F
100
AcDbEntity
  8
0
100
AcDbVertex
100
AcDb3dPolylineVertex
 10
4.22883
 20
36.8561
 30
0.0
 70
    32
  0
VERTEX
  5
53D
330
50F
100
AcDbEntity
  8
0
100
AcDbVertex
100
AcDb3dPolylineVertex
 10
4.403109999999999
 20
36.835
 30
0.0
 70
    32
  0
VERTEX
  5
53E
330
50F
100
AcDbEntity
  8
0
100
AcDbVertex
100
AcDb3dPolylineVertex
 10
4.579559999999999
 20
36.81499999999999
 30
0.0
 70
    32
  0
VERTEX
  5
53F
330
50F
100
AcDbEntity
  8
0
100
AcDbVertex
100
AcDb3dPolylineVertex
 10
4.75807
 20
36.7959
 30
0.0
 70
    32
  0
VERTEX
  5
540
330
50F
100
AcDbEntity
  8
0
100
AcDbVertex
100
AcDb3dPolylineVertex
 10
4.93853
 20
36.7779
 30
0.0
 70
    32
  0
VERTEX
  5
541
330
50F
100
AcDbEntity
  8
0
100
AcDbVertex
100
AcDb3dPolylineVertex
 10
5.12084
 20
36.7609
 30
0.0
 70
    32
  0
VERTEX
  5
542
330
50F
100
AcDbEntity
  8
0
100
AcDbVertex
100
AcDb3dPolylineVertex
 10
5.30488
 20
36.745
 30
0.0
 70
    32
  0
VERTEX
  5
543
330
50F
100
AcDbEntity
  8
0
100
AcDbVertex
100
AcDb3dPolylineVertex
 10
5.490549999999999
 20
36.7301
 30
0.0
 70
    32
  0
VERTEX
  5
544
330
50F
100
AcDbEntity
  8
0
100
AcDbVertex
100
AcDb3dPolylineVertex
 10
5.677719999999999
 20
36.71629999999999
 30
0.0
 70
    32
  0
VERTEX
  5
545
330
50F
100
AcDbEntity
  8
0
100
AcDbVertex
100
AcDb3dPolylineVertex
 10
5.866299999999999
 20
36.7035
 30
0.0
 70
    32
  0
VERTEX
  5
546
330
50F
100
AcDbEntity
  8
0
100
AcDbVertex
100
AcDb3dPolylineVertex
 10
6.05616
 20
36.69189999999999
 30
0.0
 70
    32
  0
VERTEX
  5
547
330
50F
100
AcDbEntity
  8
0
100
AcDbVertex
100
AcDb3dPolylineVertex
 10
6.247189999999999
 20
36.6813
 30
0.0
 70
    32
  0
VERTEX
  5
548
330
50F
100
AcDbEntity
  8
0
100
AcDbVertex
100
AcDb3dPolylineVertex
 10
6.43928
 20
36.6718
 30
0.0
 70
    32
  0
VERTEX
  5
549
330
50F
100
AcDbEntity
  8
0
100
AcDbVertex
100
AcDb3dPolylineVertex
 10
6.632299999999999
 20
36.6634
 30
0.0
 70
    32
  0
VERTEX
  5
54A
330
50F
100
AcDbEntity
  8
0
100
AcDbVertex
100
AcDb3dPolylineVertex
 10
6.82616
 20
36.6562
 30
0.0
 70
    32
  0
VERTEX
  5
54B
330
50F
100
AcDbEntity
  8
0
100
AcDbVertex
100
AcDb3dPolylineVertex
 10
7.02071
 20
36.65
 30
0.0
 70
    32
  0
VERTEX
  5
54C
330
50F
100
AcDbEntity
  8
0
100
AcDbVertex
100
AcDb3dPolylineVertex
 10
7.21586
 20
36.645
 30
0.0
 70
    32
  0
VERTEX
  5
54D
330
50F
100
AcDbEntity
  8
0
100
AcDbVertex
100
AcDb3dPolylineVertex
 10
7.41148
 20
36.6411
 30
0.0
 70
    32
  0
VERTEX
  5
54E
330
50F
100
AcDbEntity
  8
0
100
AcDbVertex
100
AcDb3dPolylineVertex
 10
7.60746
 20
36.63819999999999
 30
0.0
 70
    32
  0
VERTEX
  5
54F
330
50F
100
AcDbEntity
  8
0
100
AcDbVertex
100
AcDb3dPolylineVertex
 10
7.803669999999999
 20
36.6366
 30
0.0
 70
    32
  0
VERTEX
  5
550
330
50F
100
AcDbEntity
  8
0
100
AcDbVertex
100
AcDb3dPolylineVertex
 10
8.0
 20
36.636
 30
0.0
 70
    32
  0
VERTEX
  5
551
330
50F
100
AcDbEntity
  8
0
100
AcDbVertex
100
AcDb3dPolylineVertex
 10
8.196329999999999
 20
36.6366
 30
0.0
 70
    32
  0
VERTEX
  5
552
330
50F
100
AcDbEntity
  8
0
100
AcDbVertex
100
AcDb3dPolylineVertex
 10
8.392539999999998
 20
36.63819999999999
 30
0.0
 70
    32
  0
VERTEX
  5
553
330
50F
100
AcDbEntity
  8
0
100
AcDbVertex
100
AcDb3dPolylineVertex
 10
8.588519999999999
 20
36.6411
 30
0.0
 70
    32
  0
VERTEX
  5
554
330
50F
100
AcDbEntity
  8
0
100
AcDbVertex
100
AcDb3dPolylineVertex
 10
8.784139999999998
 20
36.645
 30
0.0
 70
    32
  0
VERTEX
  5
555
330
50F
100
AcDbEntity
  8
0
100
AcDbVertex
100
AcDb3dPolylineVertex
 10
8.979289999999998
 20
36.65
 30
0.0
 70
    32
  0
VERTEX
  5
556
330
50F
100
AcDbEntity
  8
0
100
AcDbVertex
100
AcDb3dPolylineVertex
 10
9.17384
 20
36.6562
 30
0.0
 70
    32
  0
VERTEX
  5
557
330
50F
100
AcDbEntity
  8
0
100
AcDbVertex
100
AcDb3dPolylineVertex
 10
9.367699999999999
 20
36.6634
 30
0.0
 70
    32
  0
VERTEX
  5
558
330
50F
100
AcDbEntity
  8
0
100
AcDbVertex
100
AcDb3dPolylineVertex
 10
9.560719999999999
 20
36.6718
 30
0.0
 70
    32
  0
VERTEX
  5
559
330
50F
100
AcDbEntity
  8
0
100
AcDbVertex
100
AcDb3dPolylineVertex
 10
9.75281
 20
36.6813
 30
0.0
 70
    32
  0
VERTEX
  5
55A
330
50F
100
AcDbEntity
  8
0
100
AcDbVertex
100
AcDb3dPolylineVertex
 10
9.943839999999999
 20
36.69189999999999
 30
0.0
 70
    32
  0
VERTEX
  5
55B
330
50F
100
AcDbEntity
  8
0
100
AcDbVertex
100
AcDb3dPolylineVertex
 10
10.13369999999999
 20
36.7035
 30
0.0
 70
    32
  0
VERTEX
  5
55C
330
50F
100
AcDbEntity
  8
0
100
AcDbVertex
100
AcDb3dPolylineVertex
 10
10.32229999999999
 20
36.71629999999999
 30
0.0
 70
    32
  0
VERTEX
  5
55D
330
50F
100
AcDbEntity
  8
0
100
AcDbVertex
100
AcDb3dPolylineVertex
 10
10.5095
 20
36.7301
 30
0.0
 70
    32
  0
VERTEX
  5
55E
330
50F
100
AcDbEntity
  8
0
100
AcDbVertex
100
AcDb3dPolylineVertex
 10
10.69509999999999
 20
36.745
 30
0.0
 70
    32
  0
VERTEX
  5
55F
330
50F
100
AcDbEntity
  8
0
100
AcDbVertex
100
AcDb3dPolylineVertex
 10
10.8792
 20
36.7609
 30
0.0
 70
    32
  0
VERTEX
  5
560
330
50F
100
AcDbEntity
  8
0
100
AcDbVertex
100
AcDb3dPolylineVertex
 10
11.0615
 20
36.7779
 30
0.0
 70
    32
  0
VERTEX
  5
561
330
50F
100
AcDbEntity
  8
0
100
AcDbVertex
100
AcDb3dPolylineVertex
 10
11.2419
 20
36.7959
 30
0.0
 70
    32
  0
VERTEX
  5
562
330
50F
100
AcDbEntity
  8
0
100
AcDbVertex
100
AcDb3dPolylineVertex
 10
11.4204
 20
36.81499999999999
 30
0.0
 70
    32
  0
VERTEX
  5
563
330
50F
100
AcDbEntity
  8
0
100
AcDbVertex
100
AcDb3dPolylineVertex
 10
11.5969
 20
36.835
 30
0.0
 70
    32
  0
VERTEX
  5
564
330
50F
100
AcDbEntity
  8
0
100
AcDbVertex
100
AcDb3dPolylineVertex
 10
11.7712
 20
36.8561
 30
0.0
 70
    32
  0
VERTEX
  5
565
330
50F
100
AcDbEntity
  8
0
100
AcDbVertex
100
AcDb3dPolylineVertex
 10
11.9432
 20
36.8782
 30
0.0
 70
    32
  0
VERTEX
  5
566
330
50F
100
AcDbEntity
  8
0
100
AcDbVertex
100
AcDb3dPolylineVertex
 10
12.1128
 20
36.9012
 30
0.0
 70
    32
  0
VERTEX
  5
567
330
50F
100
AcDbEntity
  8
0
100
AcDbVertex
100
AcDb3dPolylineVertex
 10
12.27999999999999
 20
36.9252
 30
0.0
 70
    32
  0
VERTEX
  5
568
330
50F
100
AcDbEntity
  8
0
100
AcDbVertex
100
AcDb3dPolylineVertex
 10
12.4446
 20
36.95009999999999
 30
0.0
 70
    32
  0
VERTEX
  5
569
330
50F
100
AcDbEntity
  8
0
100
AcDbVertex
100
AcDb3dPolylineVertex
 10
12.6065
 20
36.97599999999999
 30
0.0
 70
    32
  0
VERTEX
  5
56A
330
50F
100
AcDbEntity
  8
0
100
AcDbVertex
100
AcDb3dPolylineVertex
 10
12.76559999999999
 20
37.0028
 30
0.0
 70
    32
  0
VERTEX
  5
56B
330
50F
100
AcDbEntity
  8
0
100
AcDbVertex
100
AcDb3dPolylineVertex
 10
12.9219
 20
37.0305
 30
0.0
 70
    32
  0
VERTEX
  5
56C
330
50F
100
AcDbEntity
  8
0
100
AcDbVertex
100
AcDb3dPolylineVertex
 10
13.0751
 20
37.0591
 30
0.0
 70
    32
  0
VERTEX
  5
56D
330
50F
100
AcDbEntity
  8
0
100
AcDbVertex
100
AcDb3dPolylineVertex
 10
13.2254
 20
37.0886
 30
0.0
 70
    32
  0
VERTEX
  5
56E
330
50F
100
AcDbEntity
  8
0
100
AcDbVertex
100
AcDb3dPolylineVertex
 10
13.3725
 20
37.11889999999999
 30
0.0
 70
    32
  0
VERTEX
  5
56F
330
50F
100
AcDbEntity
  8
0
100
AcDbVertex
100
AcDb3dPolylineVertex
 10
13.5163
 20
37.14999999999999
 30
0.0
 70
    32
  0
VERTEX
  5
570
330
50F
100
AcDbEntity
  8
0
100
AcDbVertex
100
AcDb3dPolylineVertex
 10
13.6569
 20
37.182
 30
0.0
 70
    32
  0
VERTEX
  5
571
330
50F
100
AcDbEntity
  8
0
100
AcDbVertex
100
AcDb3dPolylineVertex
 10
13.794
 20
37.2147
 30
0.0
 70
    32
  0
VERTEX
  5
572
330
50F
100
AcDbEntity
  8
0
100
AcDbVertex
100
AcDb3dPolylineVertex
 10
13.92759999999999
 20
37.24819999999999
 30
0.0
 70
    32
  0
VERTEX
  5
573
330
50F
100
AcDbEntity
  8
0
100
AcDbVertex
100
AcDb3dPolylineVertex
 10
14.0577
 20
37.2825
 30
0.0
 70
    32
  0
VERTEX
  5
574
330
50F
100
AcDbEntity
  8
0
100
AcDbVertex
100
AcDb3dPolylineVertex
 10
14.1841
 20
37.3175
 30
0.0
 70
    32
  0
VERTEX
  5
575
330
50F
100
AcDbEntity
  8
0
100
AcDbVertex
100
AcDb3dPolylineVertex
 10
14.3068
 20
37.3532
 30
0.0
 70
    32
  0
VERTEX
  5
576
330
50F
100
AcDbEntity
  8
0
100
AcDbVertex
100
AcDb3dPolylineVertex
 10
14.4257
 20
37.3896
 30
0.0
 70
    32
  0
VERTEX
  5
577
330
50F
100
AcDbEntity
  8
0
100
AcDbVertex
100
AcDb3dPolylineVertex
 10
14.54069999999999
 20
37.42669999999999
 30
0.0
 70
    32
  0
VERTEX
  5
578
330
50F
100
AcDbEntity
  8
0
100
AcDbVertex
100
AcDb3dPolylineVertex
 10
14.6518
 20
37.46439999999999
 30
0.0
 70
    32
  0
VERTEX
  5
579
330
50F
100
AcDbEntity
  8
0
100
AcDbVertex
100
AcDb3dPolylineVertex
 10
14.7588
 20
37.5028
 30
0.0
 70
    32
  0
VERTEX
  5
57A
330
50F
100
AcDbEntity
  8
0
100
AcDbVertex
100
AcDb3dPolylineVertex
 10
14.8618
 20
37.5417
 30
0.0
 70
    32
  0
VERTEX
  5
57B
330
50F
100
AcDbEntity
  8
0
100
AcDbVertex
100
AcDb3dPolylineVertex
 10
14.9607
 20
37.5812
 30
0.0
 70
    32
  0
VERTEX
  5
57C
330
50F
100
AcDbEntity
  8
0
100
AcDbVertex
100
AcDb3dPolylineVertex
 10
15.0554
 20
37.62129999999999
 30
0.0
 70
    32
  0
VERTEX
  5
57D
330
50F
100
AcDbEntity
  8
0
100
AcDbVertex
100
AcDb3dPolylineVertex
 10
15.1458
 20
37.6619
 30
0.0
 70
    32
  0
VERTEX
  5
57E
330
50F
100
AcDbEntity
  8
0
100
AcDbVertex
100
AcDb3dPolylineVertex
 10
15.2319
 20
37.703
 30
0.0
 70
    32
  0
VERTEX
  5
57F
330
50F
100
AcDbEntity
  8
0
100
AcDbVertex
100
AcDb3dPolylineVertex
 10
15.3137
 20
37.74459999999999
 30
0.0
 70
    32
  0
VERTEX
  5
580
330
50F
100
AcDbEntity
  8
0
100
AcDbVertex
100
AcDb3dPolylineVertex
 10
15.391
 20
37.7867
 30
0.0
 70
    32
  0
VERTEX
  5
581
330
50F
100
AcDbEntity
  8
0
100
AcDbVertex
100
AcDb3dPolylineVertex
 10
15.4639
 20
37.8292
 30
0.0
 70
    32
  0
VERTEX
  5
582
330
50F
100
AcDbEntity
  8
0
100
AcDbVertex
100
AcDb3dPolylineVertex
 10
15.5324
 20
37.872
 30
0.0
 70
    32
  0
VERTEX
  5
583
330
50F
100
AcDbEntity
  8
0
100
AcDbVertex
100
AcDb3dPolylineVertex
 10
15.59619999999999
 20
37.9153
 30
0.0
 70
    32
  0
VERTEX
  5
584
330
50F
100
AcDbEntity
  8
0
100
AcDbVertex
100
AcDb3dPolylineVertex
 10
15.65549999999999
 20
37.95889999999999
 30
0.0
 70
    32
  0
VERTEX
  5
585
330
50F
100
AcDbEntity
  8
0
100
AcDbVertex
100
AcDb3dPolylineVertex
 10
15.7102
 20
38.0028
 30
0.0
 70
    32
  0
VERTEX
  5
586
330
50F
100
AcDbEntity
  8
0
100
AcDbVertex
100
AcDb3dPolylineVertex
 10
15.7603
 20
38.0471
 30
0.0
 70
    32
  0
VERTEX
  5
587
330
50F
100
AcDbEntity
  8
0
100
AcDbVertex
100
AcDb3dPolylineVertex
 10
15.8056
 20
38.0916
 30
0.0
 70
    32
  0
VERTEX
  5
588
330
50F
100
AcDbEntity
  8
0
100
AcDbVertex
100
AcDb3dPolylineVertex
 10
15.84629999999999
 20
38.1364
 30
0.0
 70
    32
  0
VERTEX
  5
589
330
50F
100
AcDbEntity
  8
0
100
AcDbVertex
100
AcDb3dPolylineVertex
 10
15.88219999999999
 20
38.1813
 30
0.0
 70
    32
  0
VERTEX
  5
58A
330
50F
100
AcDbEntity
  8
0
100
AcDbVertex
100
AcDb3dPolylineVertex
 10
15.91339999999999
 20
38.2265
 30
0.0
 70
    32
  0
VERTEX
  5
58B
330
50F
100
AcDbEntity
  8
0
100
AcDbVertex
100
AcDb3dPolylineVertex
 10
15.9398
 20
38.2718
 30
0.0
 70
    32
  0
VERTEX
  5
58C
330
50F
100
AcDbEntity
  8
0
100
AcDbVertex
100
AcDb3dPolylineVertex
 10
15.96149999999999
 20
38.3173
 30
0.0
 70
    32
  0
VERTEX
  5
58D
330
50F
100
AcDbEntity
  8
0
100
AcDbVertex
100
AcDb3dPolylineVertex
 10
15.9783
 20
38.3629
 30
0.0
 70
    32
  0
VERTEX
  5
58E
330
50F
100
AcDbEntity
  8
0
100
AcDbVertex
100
AcDb3dPolylineVertex
 10
15.9904
 20
38.40849999999999
 30
0.0
 70
    32
  0
VERTEX
  5
58F
330
50F
100
AcDbEntity
  8
0
100
AcDbVertex
100
AcDb3dPolylineVertex
 10
15.9976
 20
38.4543
 30
0.0
 70
    32
  0
VERTEX
  5
590
330
50F
100
AcDbEntity
  8
0
100
AcDbVertex
100
AcDb3dPolylineVertex
 10
16.0
 20
38.5
 30
0.0
 70
    32
  0
SEQEND
  5
591
330
50F
100
AcDbEntity
  8
0
  0
LINE
  5
592
330
474
100
AcDbEntity
  8
0
100
AcDbLine
 10
2.029365
 20
56.16884599999999
 30
0.0
 11
2.0
 21
56.0
 31
0.0
  0
LINE
  5
593
330
474
100
AcDbEntity
  8
0
100
AcDbLine
 10
13.970635
 20
56.16884599999999
 30
0.0
 11
14.0
 21
56.0
 31
0.0
  0
LINE
  5
594
330
474
100
AcDbEntity
  8
0
100
AcDbLine
 10
8.0
 20
60.0
 30
0.0
 11
11.5
 21
60.0
 31
0.0
  0
ARC
  5
595
330
474
100
AcDbEntity
  8
0
100
AcDbCircle
 10
8.0
 20
62.916667
 30
0.0
 40
6.083333
100
AcDbArc
 50
48.88791
 51
131.1120899999999
  0
LINE
  5
596
330
474
100
AcDbEntity
  8
0
100
AcDbLine
 10
4.0
 20
67.5
 30
0.0
 11
2.514031999999999
 21
58.95568199999999
 31
0.0
  0
ARC
  5
597
330
474
100
AcDbEntity
  8
0
100
AcDbCircle
 10
4.5
 20
59.5
 30
0.0
 40
0.5
100
AcDbArc
 50
90.0
 51
180.0
  0
LINE
  5
598
330
474
100
AcDbEntity
  8
0
100
AcDbLine
 10
4.0
 20
59.5
 30
0.0
 11
4.0
 21
57.5
 31
0.0
  0
LINE
  5
599
330
474
100
AcDbEntity
  8
0
100
AcDbLine
 10
8.0
 20
60.0
 30
0.0
 11
4.5
 21
60.0
 31
0.0
  0
LINE
  5
59A
330
474
100
AcDbEntity
  8
0
100
AcDbLine
 10
12.0
 20
67.5
 30
0.0
 11
13.485968
 21
58.95568199999999
 31
0.0
  0
ARC
  5
59B
330
474
100
AcDbEntity
  8
0
100
AcDbCircle
 10
11.5
 20
59.5
 30
0.0
 40
0.5
100
AcDbArc
 50
0.0
 51
90.0
  0
LINE
  5
59C
330
474
100
AcDbEntity
  8
0
100
AcDbLine
 10
12.0
 20
59.5
 30
0.0
 11
12.0
 21
57.5
 31
0.0
  0
LINE
  5
59D
330
474
100
AcDbEntity
  8
0
100
AcDbLine
 10
54.0
 20
54.734191
 30
0.0
 11
54.0
 21
38.004234
 31
0.0
  0
ARC
  5
59E
330
474
100
AcDbEntity
  8
0
100
AcDbCircle
 10
55.0
 20
54.734191
 30
0.0
 40
1.0
100
AcDbArc
 50
105.1095749999999
 51
180.0
  0
LINE
  5
59F
330
474
100
AcDbEntity
  8
1
100
AcDbLine
 10
62.0
 20
63.0
 30
0.0
 11
62.0
 21
0.0
 31
0.0
  0
LINE
  5
5A0
330
474
100
AcDbEntity
  8
0
100
AcDbLine
 10
68.0
 20
33.5
 30
0.0
 11
68.0
 21
40.46249999999999
 31
0.0
  0
LINE
  5
5A1
330
474
100
AcDbEntity
  8
0
100
AcDbLine
 10
56.0
 20
33.5
 30
0.0
 11
56.0
 21
37.23749999999999
 31
0.0
  0
LINE
  5
5A2
330
474
100
AcDbEntity
  8
0
100
AcDbLine
 10
59.0
 20
33.5
 30
0.0
 11
59.0
 21
4.0
 31
0.0
  0
LINE
  5
5A3
330
474
100
AcDbEntity
  8
0
100
AcDbLine
 10
59.5
 20
3.5
 30
0.0
 11
59.5
 21
32.5
 31
0.0
  0
LINE
  5
5A4
330
474
100
AcDbEntity
  8
0
100
AcDbLine
 10
64.5
 20
3.5
 30
0.0
 11
64.5
 21
32.5
 31
0.0
  0
LINE
  5
5A5
330
474
100
AcDbEntity
  8
0
100
AcDbLine
 10
65.0
 20
33.5
 30
0.0
 11
65.0
 21
4.0
 31
0.0
  0
LINE
  5
5A6
330
474
100
AcDbEntity
  8
0
100
AcDbLine
 10
64.5
 20
3.5
 30
0.0
 11
62.0
 21
3.5
 31
0.0
  0
LINE
  5
5A7
330
474
100
AcDbEntity
  8
0
100
AcDbLine
 10
65.0
 20
4.0
 30
0.0
 11
62.0
 21
4.0
 31
0.0
  0
LINE
  5
5A8
330
474
100
AcDbEntity
  8
0
100
AcDbLine
 10
59.5
 20
3.5
 30
0.0
 11
62.0
 21
3.5
 31
0.0
  0
LINE
  5
5A9
330
474
100
AcDbEntity
  8
0
100
AcDbLine
 10
59.0
 20
4.0
 30
0.0
 11
62.0
 21
4.0
 31
0.0
  0
LINE
  5
5AA
330
474
100
AcDbEntity
  8
0
100
AcDbLine
 10
59.0
 20
4.0
 30
0.0
 11
59.5
 21
3.5
 31
0.0
  0
LINE
  5
5AB
330
474
100
AcDbEntity
  8
0
100
AcDbLine
 10
65.0
 20
4.0
 30
0.0
 11
64.5
 21
3.5
 31
0.0
  0
LINE
  5
5AC
330
474
100
AcDbEntity
  8
0
100
AcDbLine
 10
65.0
 20
32.5
 30
0.0
 11
62.0
 21
32.5
 31
0.0
  0
LINE
  5
5AD
330
474
100
AcDbEntity
  8
0
100
AcDbLine
 10
62.0
 20
33.5
 30
0.0
 11
68.0
 21
33.5
 31
0.0
  0
LINE
  5
5AE
330
474
100
AcDbEntity
  8
0
100
AcDbLine
 10
62.0
 20
33.5
 30
0.0
 11
56.0
 21
33.5
 31
0.0
  0
LINE
  5
5AF
330
474
100
AcDbEntity
  8
0
100
AcDbLine
 10
59.0
 20
32.5
 30
0.0
 11
62.0
 21
32.5
 31
0.0
  0
LINE
  5
5B0
330
474
100
AcDbEntity
  8
0
100
AcDbLine
 10
91.5
 20
57.0
 30
0.0
 11
68.0
 21
50.0
 31
0.0
  0
LINE
  5
5B1
330
474
100
AcDbEntity
  8
0
100
AcDbLine
 10
68.0
 20
50.0
 30
0.0
 11
68.0
 21
59.28
 31
0.0
  0
LINE
  5
5B2
330
474
100
AcDbEntity
  8
0
100
AcDbLine
 10
58.0
 20
56.58
 30
0.0
 11
58.0
 21
59.5
 31
0.0
  0
LINE
  5
5B3
330
474
100
AcDbEntity
  8
0
100
AcDbLine
 10
70.0
 20
41.766734
 30
0.0
 11
70.0
 21
50.595745
 31
0.0
  0
LINE
  5
5B4
330
474
100
AcDbEntity
  8
0
100
AcDbLine
 10
69.25954
 20
40.801001
 30
0.0
 11
55.25954
 21
37.038501
 31
0.0
  0
ARC
  5
5B5
330
474
100
AcDbEntity
  8
0
100
AcDbCircle
 10
69.0
 20
41.766734
 30
0.0
 40
1.0
100
AcDbArc
 50
285.0428009999999
 51
0.0
  0
LINE
  5
5B6
330
474
100
AcDbEntity
  8
0
100
AcDbLine
 10
58.5
 20
60.0
 30
0.0
 11
65.5
 21
60.0
 31
0.0
  0
ARC
  5
5B7
330
474
100
AcDbEntity
  8
0
100
AcDbCircle
 10
58.5
 20
59.5
 30
0.0
 40
0.5
100
AcDbArc
 50
90.0
 51
180.0
  0
ARC
  5
5B8
330
474
100
AcDbEntity
  8
0
100
AcDbCircle
 10
65.5
 20
59.5
 30
0.0
 40
0.5
100
AcDbArc
 50
0.0
 51
90.0
  0
LINE
  5
5B9
330
474
100
AcDbEntity
  8
0
100
AcDbLine
 10
66.0
 20
59.5
 30
0.0
 11
66.0
 21
58.74
 31
0.0
  0
LINE
  5
5BA
330
474
100
AcDbEntity
  8
0
100
AcDbLine
 10
103.2524219999999
 20
58.80498000000001
 30
0.0
 11
93.05439399999999
 21
56.144624
 31
0.0
  0
ARC
  5
5BB
330
474
100
AcDbEntity
  8
0
100
AcDbCircle
 10
92.80197199999999
 20
57.112242
 30
0.0
 40
1.0
100
AcDbArc
 50
225.0
 51
284.620874
  0
LINE
  5
5BC
330
474
100
AcDbEntity
  8
0
100
AcDbLine
 10
92.094865
 20
56.40513499999999
 30
0.0
 11
91.5
 21
57.0
 31
0.0
  0
ARC
  5
5BD
330
474
100
AcDbEntity
  8
0
100
AcDbCircle
 10
103.0
 20
67.694191
 30
0.0
 40
1.0
100
AcDbArc
 50
0.0
 51
105.1095749999999
  0
LINE
  5
5BE
330
474
100
AcDbEntity
  8
0
100
AcDbLine
 10
104.0
 20
67.694191
 30
0.0
 11
104.0
 21
59.772597
 31
0.0
  0
ARC
  5
5BF
330
474
100
AcDbEntity
  8
0
100
AcDbCircle
 10
103.0
 20
59.772597
 30
0.0
 40
1.0
100
AcDbArc
 50
284.620874
 51
0.0
  0
ENDBLK
  5
5C0
330
474
100
AcDbEntity
  8
0
100
AcDbBlockEnd
  0
BLOCK
  5
83C
330
83B
100
AcDbEntity
  8
0
100
AcDbBlockBegin
  2
*U3
 70
     1
 10
0.0
 20
0.0
 30
0.0
  3
*U3
  1

  0
ENDBLK
  5
83D
330
83B
100
AcDbEntity
  8
0
100
AcDbBlockEnd
  0
BLOCK
  5
87A
330
878
100
AcDbEntity
  8
0
100
AcDbBlockBegin
  2
GENAXEH
 70
     0
 10
0.0
 20
0.0
 30
0.0
  3
GENAXEH
  1

  0
LINE
  5
879
330
878
100
AcDbEntity
  8
0
100
AcDbLine
 10
-1.0
 20
0.0
 30
0.0
 11
1.0
 21
0.0
 31
0.0
  0
ENDBLK
  5
87B
330
878
100
AcDbEntity
  8
0
100
AcDbBlockEnd
  0
BLOCK
  5
89D
330
893
100
AcDbEntity
  8
0
100
AcDbBlockBegin
  2
*D5
 70
     1
 10
0.0
 20
0.0
 30
0.0
  3
*D5
  1

  0
LINE
  5
894
330
893
100
AcDbEntity
  8
0
 62
     0
370
    -2
100
AcDbLine
 10
39.125
 20
123.0
 30
0.0
 11
72.25000000000001
 21
123.0
 31
0.0
  0
LINE
  5
895
330
893
100
AcDbEntity
  8
0
 62
     0
370
    -2
100
AcDbLine
 10
49.125
 20
60.0
 30
0.0
 11
72.25
 21
60.0
 31
0.0
  0
LINE
  5
896
330
893
100
AcDbEntity
  8
0
 62
     0
370
    -2
100
AcDbLine
 10
71.00000000000001
 20
120.5
 30
0.0
 11
71.0
 21
62.5
 31
0.0
  0
SOLID
  5
897
330
893
100
AcDbEntity
  8
0
 62
     0
100
AcDbTrace
 10
70.58333333333334
 20
120.5
 30
0.0
 11
71.41666666666669
 21
120.5
 31
0.0
 12
71.00000000000001
 22
123.0
 32
0.0
 13
71.00000000000001
 23
123.0
 33
0.0
  0
SOLID
  5
898
330
893
100
AcDbEntity
  8
0
 62
     0
100
AcDbTrace
 10
70.58333333333333
 20
62.5
 30
0.0
 11
71.41666666666667
 21
62.5
 31
0.0
 12
71.0
 22
60.0
 32
0.0
 13
71.0
 23
60.0
 33
0.0
  0
MTEXT
  5
899
330
893
100
AcDbEntity
  8
0
 62
     0
100
AcDbMText
 10
69.12499999999998
 20
91.50000000000002
 30
0.0
 40
2.5
 41
0.0
 71
     5
 72
     1
  1
\A1;63
 11
0.0000000000000001
 21
1.0
 31
0.0
 73
     1
 44
1.0
  0
POINT
  5
89A
330
893
100
AcDbEntity
  8
Defpoints
 62
     0
100
AcDbPoint
 10
38.5
 20
123.0
 30
0.0
  0
POINT
  5
89B
330
893
100
AcDbEntity
  8
Defpoints
 62
     0
100
AcDbPoint
 10
48.5
 20
60.0
 30
0.0
  0
POINT
  5
89C
330
893
100
AcDbEntity
  8
Defpoints
 62
     0
100
AcDbPoint
 10
71.0
 20
60.0
 30
0.0
  0
ENDBLK
  5
89E
330
893
100
AcDbEntity
  8
0
100
AcDbBlockEnd
  0
ENDSEC
  0
SECTION
  2
ENTITIES
  0
LINE
  5
5C1
330
45F
100
AcDbEntity
  8
1
100
AcDbLine
 10
38.5
 20
54.5
 30
0.0
 11
38.5
 21
125.5
 31
0.0
  0
LINE
  5
5C2
330
45F
100
AcDbEntity
  8
0
100
AcDbLine
 10
38.5
 20
60.0
 30
0.0
 11
28.5
 21
60.0
 31
0.0
  0
LINE
  5
5C3
330
45F
100
AcDbEntity
  8
0
100
AcDbLine
 10
28.5
 20
60.0
 30
0.0
 11
28.5
 21
75.7
 31
0.0
  0
LINE
  5
5C4
330
45F
100
AcDbEntity
  8
0
100
AcDbLine
 10
48.5
 20
60.0
 30
0.0
 11
48.5
 21
75.7
 31
0.0
  0
LINE
  5
5C5
330
45F
100
AcDbEntity
  8
0
100
AcDbLine
 10
38.5
 20
60.0
 30
0.0
 11
48.5
 21
60.0
 31
0.0
  0
POLYLINE
  5
5C6
330
45F
100
AcDbEntity
  8
0
100
AcDb3dPolyline
 66
     1
 10
0.0
 20
0.0
 30
0.0
 70
     8
  0
VERTEX
  5
5C7
330
5C6
100
AcDbEntity
  8
0
100
AcDbVertex
100
AcDb3dPolylineVertex
 10
26.0
 20
77.5
 30
0.0
 70
    32
  0
VERTEX
  5
5C8
330
5C6
100
AcDbEntity
  8
0
100
AcDbVertex
100
AcDb3dPolylineVertex
 10
26.00379999999999
 20
77.4264
 30
0.0
 70
    32
  0
VERTEX
  5
5C9
330
5C6
100
AcDbEntity
  8
0
100
AcDbVertex
100
AcDb3dPolylineVertex
 10
26.0151
 20
77.3528
 30
0.0
 70
    32
  0
VERTEX
  5
5CA
330
5C6
100
AcDbEntity
  8
0
100
AcDbVertex
100
AcDb3dPolylineVertex
 10
26.0339
 20
77.2793
 30
0.0
 70
    32
  0
VERTEX
  5
5CB
330
5C6
100
AcDbEntity
  8
0
100
AcDbVertex
100
AcDb3dPolylineVertex
 10
26.0602
 20
77.2059
 30
0.0
 70
    32
  0
VERTEX
  5
5CC
330
5C6
100
AcDbEntity
  8
0
100
AcDbVertex
100
AcDb3dPolylineVertex
 10
26.094
 20
77.13280000000001
 30
0.0
 70
    32
  0
VERTEX
  5
5CD
330
5C6
100
AcDbEntity
  8
0
100
AcDbVertex
100
AcDb3dPolylineVertex
 10
26.1353
 20
77.0598
 30
0.0
 70
    32
  0
VERTEX
  5
5CE
330
5C6
100
AcDbEntity
  8
0
100
AcDbVertex
100
AcDb3dPolylineVertex
 10
26.184
 20
76.9871
 30
0.0
 70
    32
  0
VERTEX
  5
5CF
330
5C6
100
AcDbEntity
  8
0
100
AcDbVertex
100
AcDb3dPolylineVertex
 10
26.2402
 20
76.91469999999999
 30
0.0
 70
    32
  0
VERTEX
  5
5D0
330
5C6
100
AcDbEntity
  8
0
100
AcDbVertex
100
AcDb3dPolylineVertex
 10
26.3037
 20
76.84269999999999
 30
0.0
 70
    32
  0
VERTEX
  5
5D1
330
5C6
100
AcDbEntity
  8
0
100
AcDbVertex
100
AcDb3dPolylineVertex
 10
26.3746
 20
76.7711
 30
0.0
 70
    32
  0
VERTEX
  5
5D2
330
5C6
100
AcDbEntity
  8
0
100
AcDbVertex
100
AcDb3dPolylineVertex
 10
26.4528
 20
76.6999
 30
0.0
 70
    32
  0
VERTEX
  5
5D3
330
5C6
100
AcDbEntity
  8
0
100
AcDbVertex
100
AcDb3dPolylineVertex
 10
26.5382
 20
76.6291
 30
0.0
 70
    32
  0
VERTEX
  5
5D4
330
5C6
100
AcDbEntity
  8
0
100
AcDbVertex
100
AcDb3dPolylineVertex
 10
26.6309
 20
76.55899999999999
 30
0.0
 70
    32
  0
VERTEX
  5
5D5
330
5C6
100
AcDbEntity
  8
0
100
AcDbVertex
100
AcDb3dPolylineVertex
 10
26.7307
 20
76.4893
 30
0.0
 70
    32
  0
VERTEX
  5
5D6
330
5C6
100
AcDbEntity
  8
0
100
AcDbVertex
100
AcDb3dPolylineVertex
 10
26.83759999999999
 20
76.4203
 30
0.0
 70
    32
  0
VERTEX
  5
5D7
330
5C6
100
AcDbEntity
  8
0
100
AcDbVertex
100
AcDb3dPolylineVertex
 10
26.95149999999999
 20
76.3519
 30
0.0
 70
    32
  0
VERTEX
  5
5D8
330
5C6
100
AcDbEntity
  8
0
100
AcDbVertex
100
AcDb3dPolylineVertex
 10
27.0724
 20
76.2843
 30
0.0
 70
    32
  0
VERTEX
  5
5D9
330
5C6
100
AcDbEntity
  8
0
100
AcDbVertex
100
AcDb3dPolylineVertex
 10
27.2001
 20
76.21729999999999
 30
0.0
 70
    32
  0
VERTEX
  5
5DA
330
5C6
100
AcDbEntity
  8
0
100
AcDbVertex
100
AcDb3dPolylineVertex
 10
27.3347
 20
76.1512
 30
0.0
 70
    32
  0
VERTEX
  5
5DB
330
5C6
100
AcDbEntity
  8
0
100
AcDbVertex
100
AcDb3dPolylineVertex
 10
27.476
 20
76.0858
 30
0.0
 70
    32
  0
VERTEX
  5
5DC
330
5C6
100
AcDbEntity
  8
0
100
AcDbVertex
100
AcDb3dPolylineVertex
 10
27.62389999999999
 20
76.02129999999999
 30
0.0
 70
    32
  0
VERTEX
  5
5DD
330
5C6
100
AcDbEntity
  8
0
100
AcDbVertex
100
AcDb3dPolylineVertex
 10
27.7784
 20
75.9577
 30
0.0
 70
    32
  0
VERTEX
  5
5DE
330
5C6
100
AcDbEntity
  8
0
100
AcDbVertex
100
AcDb3dPolylineVertex
 10
27.9393
 20
75.895
 30
0.0
 70
    32
  0
VERTEX
  5
5DF
330
5C6
100
AcDbEntity
  8
0
100
AcDbVertex
100
AcDb3dPolylineVertex
 10
28.1066
 20
75.8333
 30
0.0
 70
    32
  0
VERTEX
  5
5E0
330
5C6
100
AcDbEntity
  8
0
100
AcDbVertex
100
AcDb3dPolylineVertex
 10
28.2802
 20
75.77259999999999
 30
0.0
 70
    32
  0
VERTEX
  5
5E1
330
5C6
100
AcDbEntity
  8
0
100
AcDbVertex
100
AcDb3dPolylineVertex
 10
28.4599
 20
75.71290000000001
 30
0.0
 70
    32
  0
VERTEX
  5
5E2
330
5C6
100
AcDbEntity
  8
0
100
AcDbVertex
100
AcDb3dPolylineVertex
 10
28.6457
 20
75.6543
 30
0.0
 70
    32
  0
VERTEX
  5
5E3
330
5C6
100
AcDbEntity
  8
0
100
AcDbVertex
100
AcDb3dPolylineVertex
 10
28.83739999999999
 20
75.5968
 30
0.0
 70
    32
  0
VERTEX
  5
5E4
330
5C6
100
AcDbEntity
  8
0
100
AcDbVertex
100
AcDb3dPolylineVertex
 10
29.0349
 20
75.5405
 30
0.0
 70
    32
  0
VERTEX
  5
5E5
330
5C6
100
AcDbEntity
  8
0
100
AcDbVertex
100
AcDb3dPolylineVertex
 10
29.23809999999999
 20
75.48529999999999
 30
0.0
 70
    32
  0
VERTEX
  5
5E6
330
5C6
100
AcDbEntity
  8
0
100
AcDbVertex
100
AcDb3dPolylineVertex
 10
29.44689999999999
 20
75.4314
 30
0.0
 70
    32
  0
VERTEX
  5
5E7
330
5C6
100
AcDbEntity
  8
0
100
AcDbVertex
100
AcDb3dPolylineVertex
 10
29.6612
 20
75.37869999999999
 30
0.0
 70
    32
  0
VERTEX
  5
5E8
330
5C6
100
AcDbEntity
  8
0
100
AcDbVertex
100
AcDb3dPolylineVertex
 10
29.8807
 20
75.32729999999999
 30
0.0
 70
    32
  0
VERTEX
  5
5E9
330
5C6
100
AcDbEntity
  8
0
100
AcDbVertex
100
AcDb3dPolylineVertex
 10
30.1055
 20
75.2771
 30
0.0
 70
    32
  0
VERTEX
  5
5EA
330
5C6
100
AcDbEntity
  8
0
100
AcDbVertex
100
AcDb3dPolylineVertex
 10
30.3353
 20
75.22839999999999
 30
0.0
 70
    32
  0
VERTEX
  5
5EB
330
5C6
100
AcDbEntity
  8
0
100
AcDbVertex
100
AcDb3dPolylineVertex
 10
30.5701
 20
75.181
 30
0.0
 70
    32
  0
VERTEX
  5
5EC
330
5C6
100
AcDbEntity
  8
0
100
AcDbVertex
100
AcDb3dPolylineVertex
 10
30.8096
 20
75.135
 30
0.0
 70
    32
  0
VERTEX
  5
5ED
330
5C6
100
AcDbEntity
  8
0
100
AcDbVertex
100
AcDb3dPolylineVertex
 10
31.0538
 20
75.0904
 30
0.0
 70
    32
  0
VERTEX
  5
5EE
330
5C6
100
AcDbEntity
  8
0
100
AcDbVertex
100
AcDb3dPolylineVertex
 10
31.3024
 20
75.0472
 30
0.0
 70
    32
  0
VERTEX
  5
5EF
330
5C6
100
AcDbEntity
  8
0
100
AcDbVertex
100
AcDb3dPolylineVertex
 10
31.5554
 20
75.0056
 30
0.0
 70
    32
  0
VERTEX
  5
5F0
330
5C6
100
AcDbEntity
  8
0
100
AcDbVertex
100
AcDb3dPolylineVertex
 10
31.8125
 20
74.9654
 30
0.0
 70
    32
  0
VERTEX
  5
5F1
330
5C6
100
AcDbEntity
  8
0
100
AcDbVertex
100
AcDb3dPolylineVertex
 10
32.0737
 20
74.9268
 30
0.0
 70
    32
  0
VERTEX
  5
5F2
330
5C6
100
AcDbEntity
  8
0
100
AcDbVertex
100
AcDb3dPolylineVertex
 10
32.3388
 20
74.88970000000001
 30
0.0
 70
    32
  0
VERTEX
  5
5F3
330
5C6
100
AcDbEntity
  8
0
100
AcDbVertex
100
AcDb3dPolylineVertex
 10
32.6075
 20
74.85420000000001
 30
0.0
 70
    32
  0
VERTEX
  5
5F4
330
5C6
100
AcDbEntity
  8
0
100
AcDbVertex
100
AcDb3dPolylineVertex
 10
32.8799
 20
74.8203
 30
0.0
 70
    32
  0
VERTEX
  5
5F5
330
5C6
100
AcDbEntity
  8
0
100
AcDbVertex
100
AcDb3dPolylineVertex
 10
33.1556
 20
74.78799999999999
 30
0.0
 70
    32
  0
VERTEX
  5
5F6
330
5C6
100
AcDbEntity
  8
0
100
AcDbVertex
100
AcDb3dPolylineVertex
 10
33.4345
 20
74.7574
 30
0.0
 70
    32
  0
VERTEX
  5
5F7
330
5C6
100
AcDbEntity
  8
0
100
AcDbVertex
100
AcDb3dPolylineVertex
 10
33.7165
 20
74.72839999999999
 30
0.0
 70
    32
  0
VERTEX
  5
5F8
330
5C6
100
AcDbEntity
  8
0
100
AcDbVertex
100
AcDb3dPolylineVertex
 10
34.0013
 20
74.70099999999999
 30
0.0
 70
    32
  0
VERTEX
  5
5F9
330
5C6
100
AcDbEntity
  8
0
100
AcDbVertex
100
AcDb3dPolylineVertex
 10
34.28889999999999
 20
74.67539999999999
 30
0.0
 70
    32
  0
VERTEX
  5
5FA
330
5C6
100
AcDbEntity
  8
0
100
AcDbVertex
100
AcDb3dPolylineVertex
 10
34.579
 20
74.65139999999999
 30
0.0
 70
    32
  0
VERTEX
  5
5FB
330
5C6
100
AcDbEntity
  8
0
100
AcDbVertex
100
AcDb3dPolylineVertex
 10
34.8714
 20
74.6292
 30
0.0
 70
    32
  0
VERTEX
  5
5FC
330
5C6
100
AcDbEntity
  8
0
100
AcDbVertex
100
AcDb3dPolylineVertex
 10
35.1661
 20
74.60869999999999
 30
0.0
 70
    32
  0
VERTEX
  5
5FD
330
5C6
100
AcDbEntity
  8
0
100
AcDbVertex
100
AcDb3dPolylineVertex
 10
35.46269999999999
 20
74.5899
 30
0.0
 70
    32
  0
VERTEX
  5
5FE
330
5C6
100
AcDbEntity
  8
0
100
AcDbVertex
100
AcDb3dPolylineVertex
 10
35.7612
 20
74.5729
 30
0.0
 70
    32
  0
VERTEX
  5
5FF
330
5C6
100
AcDbEntity
  8
0
100
AcDbVertex
100
AcDb3dPolylineVertex
 10
36.06139999999999
 20
74.55759999999999
 30
0.0
 70
    32
  0
VERTEX
  5
600
330
5C6
100
AcDbEntity
  8
0
100
AcDbVertex
100
AcDb3dPolylineVertex
 10
36.363
 20
74.5442
 30
0.0
 70
    32
  0
VERTEX
  5
601
330
5C6
100
AcDbEntity
  8
0
100
AcDbVertex
100
AcDb3dPolylineVertex
 10
36.6659
 20
74.5325
 30
0.0
 70
    32
  0
VERTEX
  5
602
330
5C6
100
AcDbEntity
  8
0
100
AcDbVertex
100
AcDb3dPolylineVertex
 10
36.9699
 20
74.52259999999999
 30
0.0
 70
    32
  0
VERTEX
  5
603
330
5C6
100
AcDbEntity
  8
0
100
AcDbVertex
100
AcDb3dPolylineVertex
 10
37.27479999999999
 20
74.51439999999999
 30
0.0
 70
    32
  0
VERTEX
  5
604
330
5C6
100
AcDbEntity
  8
0
100
AcDbVertex
100
AcDb3dPolylineVertex
 10
37.58039999999999
 20
74.5081
 30
0.0
 70
    32
  0
VERTEX
  5
605
330
5C6
100
AcDbEntity
  8
0
100
AcDbVertex
100
AcDb3dPolylineVertex
 10
37.88669999999999
 20
74.5036
 30
0.0
 70
    32
  0
VERTEX
  5
606
330
5C6
100
AcDbEntity
  8
0
100
AcDbVertex
100
AcDb3dPolylineVertex
 10
38.19319999999999
 20
74.5009
 30
0.0
 70
    32
  0
VERTEX
  5
607
330
5C6
100
AcDbEntity
  8
0
100
AcDbVertex
100
AcDb3dPolylineVertex
 10
38.5
 20
74.5
 30
0.0
 70
    32
  0
VERTEX
  5
608
330
5C6
100
AcDbEntity
  8
0
100
AcDbVertex
100
AcDb3dPolylineVertex
 10
38.8068
 20
74.5009
 30
0.0
 70
    32
  0
VERTEX
  5
609
330
5C6
100
AcDbEntity
  8
0
100
AcDbVertex
100
AcDb3dPolylineVertex
 10
39.1133
 20
74.5036
 30
0.0
 70
    32
  0
VERTEX
  5
60A
330
5C6
100
AcDbEntity
  8
0
100
AcDbVertex
100
AcDb3dPolylineVertex
 10
39.4196
 20
74.5081
 30
0.0
 70
    32
  0
VERTEX
  5
60B
330
5C6
100
AcDbEntity
  8
0
100
AcDbVertex
100
AcDb3dPolylineVertex
 10
39.7252
 20
74.51439999999999
 30
0.0
 70
    32
  0
VERTEX
  5
60C
330
5C6
100
AcDbEntity
  8
0
100
AcDbVertex
100
AcDb3dPolylineVertex
 10
40.03009999999999
 20
74.52259999999999
 30
0.0
 70
    32
  0
VERTEX
  5
60D
330
5C6
100
AcDbEntity
  8
0
100
AcDbVertex
100
AcDb3dPolylineVertex
 10
40.33409999999999
 20
74.5325
 30
0.0
 70
    32
  0
VERTEX
  5
60E
330
5C6
100
AcDbEntity
  8
0
100
AcDbVertex
100
AcDb3dPolylineVertex
 10
40.63699999999999
 20
74.5442
 30
0.0
 70
    32
  0
VERTEX
  5
60F
330
5C6
100
AcDbEntity
  8
0
100
AcDbVertex
100
AcDb3dPolylineVertex
 10
40.9386
 20
74.55759999999999
 30
0.0
 70
    32
  0
VERTEX
  5
610
330
5C6
100
AcDbEntity
  8
0
100
AcDbVertex
100
AcDb3dPolylineVertex
 10
41.23879999999999
 20
74.5729
 30
0.0
 70
    32
  0
VERTEX
  5
611
330
5C6
100
AcDbEntity
  8
0
100
AcDbVertex
100
AcDb3dPolylineVertex
 10
41.5373
 20
74.5899
 30
0.0
 70
    32
  0
VERTEX
  5
612
330
5C6
100
AcDbEntity
  8
0
100
AcDbVertex
100
AcDb3dPolylineVertex
 10
41.8339
 20
74.60869999999999
 30
0.0
 70
    32
  0
VERTEX
  5
613
330
5C6
100
AcDbEntity
  8
0
100
AcDbVertex
100
AcDb3dPolylineVertex
 10
42.1286
 20
74.6292
 30
0.0
 70
    32
  0
VERTEX
  5
614
330
5C6
100
AcDbEntity
  8
0
100
AcDbVertex
100
AcDb3dPolylineVertex
 10
42.42099999999999
 20
74.65139999999999
 30
0.0
 70
    32
  0
VERTEX
  5
615
330
5C6
100
AcDbEntity
  8
0
100
AcDbVertex
100
AcDb3dPolylineVertex
 10
42.7111
 20
74.67539999999999
 30
0.0
 70
    32
  0
VERTEX
  5
616
330
5C6
100
AcDbEntity
  8
0
100
AcDbVertex
100
AcDb3dPolylineVertex
 10
42.9987
 20
74.70099999999999
 30
0.0
 70
    32
  0
VERTEX
  5
617
330
5C6
100
AcDbEntity
  8
0
100
AcDbVertex
100
AcDb3dPolylineVertex
 10
43.28349999999999
 20
74.72839999999999
 30
0.0
 70
    32
  0
VERTEX
  5
618
330
5C6
100
AcDbEntity
  8
0
100
AcDbVertex
100
AcDb3dPolylineVertex
 10
43.5655
 20
74.7574
 30
0.0
 70
    32
  0
VERTEX
  5
619
330
5C6
100
AcDbEntity
  8
0
100
AcDbVertex
100
AcDb3dPolylineVertex
 10
43.8444
 20
74.78799999999999
 30
0.0
 70
    32
  0
VERTEX
  5
61A
330
5C6
100
AcDbEntity
  8
0
100
AcDbVertex
100
AcDb3dPolylineVertex
 10
44.1201
 20
74.8203
 30
0.0
 70
    32
  0
VERTEX
  5
61B
330
5C6
100
AcDbEntity
  8
0
100
AcDbVertex
100
AcDb3dPolylineVertex
 10
44.3925
 20
74.85420000000001
 30
0.0
 70
    32
  0
VERTEX
  5
61C
330
5C6
100
AcDbEntity
  8
0
100
AcDbVertex
100
AcDb3dPolylineVertex
 10
44.6612
 20
74.88970000000001
 30
0.0
 70
    32
  0
VERTEX
  5
61D
330
5C6
100
AcDbEntity
  8
0
100
AcDbVertex
100
AcDb3dPolylineVertex
 10
44.9263
 20
74.9268
 30
0.0
 70
    32
  0
VERTEX
  5
61E
330
5C6
100
AcDbEntity
  8
0
100
AcDbVertex
100
AcDb3dPolylineVertex
 10
45.18749999999999
 20
74.9654
 30
0.0
 70
    32
  0
VERTEX
  5
61F
330
5C6
100
AcDbEntity
  8
0
100
AcDbVertex
100
AcDb3dPolylineVertex
 10
45.44459999999999
 20
75.0056
 30
0.0
 70
    32
  0
VERTEX
  5
620
330
5C6
100
AcDbEntity
  8
0
100
AcDbVertex
100
AcDb3dPolylineVertex
 10
45.6976
 20
75.0472
 30
0.0
 70
    32
  0
VERTEX
  5
621
330
5C6
100
AcDbEntity
  8
0
100
AcDbVertex
100
AcDb3dPolylineVertex
 10
45.94619999999999
 20
75.0904
 30
0.0
 70
    32
  0
VERTEX
  5
622
330
5C6
100
AcDbEntity
  8
0
100
AcDbVertex
100
AcDb3dPolylineVertex
 10
46.1904
 20
75.135
 30
0.0
 70
    32
  0
VERTEX
  5
623
330
5C6
100
AcDbEntity
  8
0
100
AcDbVertex
100
AcDb3dPolylineVertex
 10
46.4299
 20
75.181
 30
0.0
 70
    32
  0
VERTEX
  5
624
330
5C6
100
AcDbEntity
  8
0
100
AcDbVertex
100
AcDb3dPolylineVertex
 10
46.6647
 20
75.22839999999999
 30
0.0
 70
    32
  0
VERTEX
  5
625
330
5C6
100
AcDbEntity
  8
0
100
AcDbVertex
100
AcDb3dPolylineVertex
 10
46.89449999999999
 20
75.2771
 30
0.0
 70
    32
  0
VERTEX
  5
626
330
5C6
100
AcDbEntity
  8
0
100
AcDbVertex
100
AcDb3dPolylineVertex
 10
47.1193
 20
75.32729999999999
 30
0.0
 70
    32
  0
VERTEX
  5
627
330
5C6
100
AcDbEntity
  8
0
100
AcDbVertex
100
AcDb3dPolylineVertex
 10
47.3388
 20
75.37869999999999
 30
0.0
 70
    32
  0
VERTEX
  5
628
330
5C6
100
AcDbEntity
  8
0
100
AcDbVertex
100
AcDb3dPolylineVertex
 10
47.5531
 20
75.4314
 30
0.0
 70
    32
  0
VERTEX
  5
629
330
5C6
100
AcDbEntity
  8
0
100
AcDbVertex
100
AcDb3dPolylineVertex
 10
47.76189999999999
 20
75.48529999999999
 30
0.0
 70
    32
  0
VERTEX
  5
62A
330
5C6
100
AcDbEntity
  8
0
100
AcDbVertex
100
AcDb3dPolylineVertex
 10
47.9651
 20
75.5405
 30
0.0
 70
    32
  0
VERTEX
  5
62B
330
5C6
100
AcDbEntity
  8
0
100
AcDbVertex
100
AcDb3dPolylineVertex
 10
48.16259999999999
 20
75.5968
 30
0.0
 70
    32
  0
VERTEX
  5
62C
330
5C6
100
AcDbEntity
  8
0
100
AcDbVertex
100
AcDb3dPolylineVertex
 10
48.3543
 20
75.6543
 30
0.0
 70
    32
  0
VERTEX
  5
62D
330
5C6
100
AcDbEntity
  8
0
100
AcDbVertex
100
AcDb3dPolylineVertex
 10
48.5401
 20
75.71290000000001
 30
0.0
 70
    32
  0
VERTEX
  5
62E
330
5C6
100
AcDbEntity
  8
0
100
AcDbVertex
100
AcDb3dPolylineVertex
 10
48.7198
 20
75.77259999999999
 30
0.0
 70
    32
  0
VERTEX
  5
62F
330
5C6
100
AcDbEntity
  8
0
100
AcDbVertex
100
AcDb3dPolylineVertex
 10
48.8934
 20
75.8333
 30
0.0
 70
    32
  0
VERTEX
  5
630
330
5C6
100
AcDbEntity
  8
0
100
AcDbVertex
100
AcDb3dPolylineVertex
 10
49.06069999999999
 20
75.895
 30
0.0
 70
    32
  0
VERTEX
  5
631
330
5C6
100
AcDbEntity
  8
0
100
AcDbVertex
100
AcDb3dPolylineVertex
 10
49.2216
 20
75.9577
 30
0.0
 70
    32
  0
VERTEX
  5
632
330
5C6
100
AcDbEntity
  8
0
100
AcDbVertex
100
AcDb3dPolylineVertex
 10
49.3761
 20
76.02129999999999
 30
0.0
 70
    32
  0
VERTEX
  5
633
330
5C6
100
AcDbEntity
  8
0
100
AcDbVertex
100
AcDb3dPolylineVertex
 10
49.524
 20
76.0858
 30
0.0
 70
    32
  0
VERTEX
  5
634
330
5C6
100
AcDbEntity
  8
0
100
AcDbVertex
100
AcDb3dPolylineVertex
 10
49.6653
 20
76.1512
 30
0.0
 70
    32
  0
VERTEX
  5
635
330
5C6
100
AcDbEntity
  8
0
100
AcDbVertex
100
AcDb3dPolylineVertex
 10
49.7999
 20
76.21729999999999
 30
0.0
 70
    32
  0
VERTEX
  5
636
330
5C6
100
AcDbEntity
  8
0
100
AcDbVertex
100
AcDb3dPolylineVertex
 10
49.9276
 20
76.2843
 30
0.0
 70
    32
  0
VERTEX
  5
637
330
5C6
100
AcDbEntity
  8
0
100
AcDbVertex
100
AcDb3dPolylineVertex
 10
50.0485
 20
76.3519
 30
0.0
 70
    32
  0
VERTEX
  5
638
330
5C6
100
AcDbEntity
  8
0
100
AcDbVertex
100
AcDb3dPolylineVertex
 10
50.16239999999999
 20
76.4203
 30
0.0
 70
    32
  0
VERTEX
  5
639
330
5C6
100
AcDbEntity
  8
0
100
AcDbVertex
100
AcDb3dPolylineVertex
 10
50.2693
 20
76.4893
 30
0.0
 70
    32
  0
VERTEX
  5
63A
330
5C6
100
AcDbEntity
  8
0
100
AcDbVertex
100
AcDb3dPolylineVertex
 10
50.3691
 20
76.55899999999999
 30
0.0
 70
    32
  0
VERTEX
  5
63B
330
5C6
100
AcDbEntity
  8
0
100
AcDbVertex
100
AcDb3dPolylineVertex
 10
50.46179999999999
 20
76.6291
 30
0.0
 70
    32
  0
VERTEX
  5
63C
330
5C6
100
AcDbEntity
  8
0
100
AcDbVertex
100
AcDb3dPolylineVertex
 10
50.54719999999999
 20
76.6999
 30
0.0
 70
    32
  0
VERTEX
  5
63D
330
5C6
100
AcDbEntity
  8
0
100
AcDbVertex
100
AcDb3dPolylineVertex
 10
50.6254
 20
76.7711
 30
0.0
 70
    32
  0
VERTEX
  5
63E
330
5C6
100
AcDbEntity
  8
0
100
AcDbVertex
100
AcDb3dPolylineVertex
 10
50.6963
 20
76.84269999999999
 30
0.0
 70
    32
  0
VERTEX
  5
63F
330
5C6
100
AcDbEntity
  8
0
100
AcDbVertex
100
AcDb3dPolylineVertex
 10
50.7598
 20
76.91469999999999
 30
0.0
 70
    32
  0
VERTEX
  5
640
330
5C6
100
AcDbEntity
  8
0
100
AcDbVertex
100
AcDb3dPolylineVertex
 10
50.816
 20
76.9871
 30
0.0
 70
    32
  0
VERTEX
  5
641
330
5C6
100
AcDbEntity
  8
0
100
AcDbVertex
100
AcDb3dPolylineVertex
 10
50.8647
 20
77.0598
 30
0.0
 70
    32
  0
VERTEX
  5
642
330
5C6
100
AcDbEntity
  8
0
100
AcDbVertex
100
AcDb3dPolylineVertex
 10
50.906
 20
77.13280000000001
 30
0.0
 70
    32
  0
VERTEX
  5
643
330
5C6
100
AcDbEntity
  8
0
100
AcDbVertex
100
AcDb3dPolylineVertex
 10
50.9398
 20
77.2059
 30
0.0
 70
    32
  0
VERTEX
  5
644
330
5C6
100
AcDbEntity
  8
0
100
AcDbVertex
100
AcDb3dPolylineVertex
 10
50.9661
 20
77.2793
 30
0.0
 70
    32
  0
VERTEX
  5
645
330
5C6
100
AcDbEntity
  8
0
100
AcDbVertex
100
AcDb3dPolylineVertex
 10
50.9849
 20
77.3528
 30
0.0
 70
    32
  0
VERTEX
  5
646
330
5C6
100
AcDbEntity
  8
0
100
AcDbVertex
100
AcDb3dPolylineVertex
 10
50.9962
 20
77.4264
 30
0.0
 70
    32
  0
VERTEX
  5
647
330
5C6
100
AcDbEntity
  8
0
100
AcDbVertex
100
AcDb3dPolylineVertex
 10
51.0
 20
77.5
 30
0.0
 70
    32
  0
SEQEND
  5
648
330
5C6
100
AcDbEntity
  8
0
  0
LINE
  5
649
330
45F
100
AcDbEntity
  8
0
100
AcDbLine
 10
51.0
 20
77.5
 30
0.0
 11
51.0
 21
109.0
 31
0.0
  0
LINE
  5
64A
330
45F
100
AcDbEntity
  8
0
100
AcDbLine
 10
26.0
 20
77.5
 30
0.0
 11
26.0
 21
109.0
 31
0.0
  0
POLYLINE
  5
64B
330
45F
100
AcDbEntity
  8
0
100
AcDb3dPolyline
 66
     1
 10
0.0
 20
0.0
 30
0.0
 70
     8
  0
VERTEX
  5
64C
330
64B
100
AcDbEntity
  8
0
100
AcDbVertex
100
AcDb3dPolylineVertex
 10
26.2784
 20
109.63
 30
0.0
 70
    32
  0
VERTEX
  5
64D
330
64B
100
AcDbEntity
  8
0
100
AcDbVertex
100
AcDb3dPolylineVertex
 10
26.2101
 20
109.548
 30
0.0
 70
    32
  0
VERTEX
  5
64E
330
64B
100
AcDbEntity
  8
0
100
AcDbVertex
100
AcDb3dPolylineVertex
 10
26.1513
 20
109.465
 30
0.0
 70
    32
  0
VERTEX
  5
64F
330
64B
100
AcDbEntity
  8
0
100
AcDbVertex
100
AcDb3dPolylineVertex
 10
26.1021
 20
109.383
 30
0.0
 70
    32
  0
VERTEX
  5
650
330
64B
100
AcDbEntity
  8
0
100
AcDbVertex
100
AcDb3dPolylineVertex
 10
26.0625
 20
109.2999999999999
 30
0.0
 70
    32
  0
VERTEX
  5
651
330
64B
100
AcDbEntity
  8
0
100
AcDbVertex
100
AcDb3dPolylineVertex
 10
26.0326
 20
109.216
 30
0.0
 70
    32
  0
VERTEX
  5
652
330
64B
100
AcDbEntity
  8
0
100
AcDbVertex
100
AcDb3dPolylineVertex
 10
26.0123
 20
109.1329999999999
 30
0.0
 70
    32
  0
VERTEX
  5
653
330
64B
100
AcDbEntity
  8
0
100
AcDbVertex
100
AcDb3dPolylineVertex
 10
26.0017
 20
109.05
 30
0.0
 70
    32
  0
VERTEX
  5
654
330
64B
100
AcDbEntity
  8
0
100
AcDbVertex
100
AcDb3dPolylineVertex
 10
26.0008
 20
108.966
 30
0.0
 70
    32
  0
VERTEX
  5
655
330
64B
100
AcDbEntity
  8
0
100
AcDbVertex
100
AcDb3dPolylineVertex
 10
26.0096
 20
108.8829999999999
 30
0.0
 70
    32
  0
VERTEX
  5
656
330
64B
100
AcDbEntity
  8
0
100
AcDbVertex
100
AcDb3dPolylineVertex
 10
26.02809999999999
 20
108.799
 30
0.0
 70
    32
  0
VERTEX
  5
657
330
64B
100
AcDbEntity
  8
0
100
AcDbVertex
100
AcDb3dPolylineVertex
 10
26.0562
 20
108.716
 30
0.0
 70
    32
  0
VERTEX
  5
658
330
64B
100
AcDbEntity
  8
0
100
AcDbVertex
100
AcDb3dPolylineVertex
 10
26.094
 20
108.633
 30
0.0
 70
    32
  0
VERTEX
  5
659
330
64B
100
AcDbEntity
  8
0
100
AcDbVertex
100
AcDb3dPolylineVertex
 10
26.1414
 20
108.5499999999999
 30
0.0
 70
    32
  0
VERTEX
  5
65A
330
64B
100
AcDbEntity
  8
0
100
AcDbVertex
100
AcDb3dPolylineVertex
 10
26.19839999999999
 20
108.4679999999999
 30
0.0
 70
    32
  0
VERTEX
  5
65B
330
64B
100
AcDbEntity
  8
0
100
AcDbVertex
100
AcDb3dPolylineVertex
 10
26.265
 20
108.386
 30
0.0
 70
    32
  0
VERTEX
  5
65C
330
64B
100
AcDbEntity
  8
0
100
AcDbVertex
100
AcDb3dPolylineVertex
 10
26.341
 20
108.304
 30
0.0
 70
    32
  0
VERTEX
  5
65D
330
64B
100
AcDbEntity
  8
0
100
AcDbVertex
100
AcDb3dPolylineVertex
 10
26.4264
 20
108.223
 30
0.0
 70
    32
  0
VERTEX
  5
65E
330
64B
100
AcDbEntity
  8
0
100
AcDbVertex
100
AcDb3dPolylineVertex
 10
26.5213
 20
108.1429999999999
 30
0.0
 70
    32
  0
VERTEX
  5
65F
330
64B
100
AcDbEntity
  8
0
100
AcDbVertex
100
AcDb3dPolylineVertex
 10
26.62539999999999
 20
108.0629999999999
 30
0.0
 70
    32
  0
VERTEX
  5
660
330
64B
100
AcDbEntity
  8
0
100
AcDbVertex
100
AcDb3dPolylineVertex
 10
26.7387
 20
107.9839999999999
 30
0.0
 70
    32
  0
VERTEX
  5
661
330
64B
100
AcDbEntity
  8
0
100
AcDbVertex
100
AcDb3dPolylineVertex
 10
26.8611
 20
107.906
 30
0.0
 70
    32
  0
VERTEX
  5
662
330
64B
100
AcDbEntity
  8
0
100
AcDbVertex
100
AcDb3dPolylineVertex
 10
26.9926
 20
107.8279999999999
 30
0.0
 70
    32
  0
VERTEX
  5
663
330
64B
100
AcDbEntity
  8
0
100
AcDbVertex
100
AcDb3dPolylineVertex
 10
27.1329
 20
107.752
 30
0.0
 70
    32
  0
VERTEX
  5
664
330
64B
100
AcDbEntity
  8
0
100
AcDbVertex
100
AcDb3dPolylineVertex
 10
27.2821
 20
107.677
 30
0.0
 70
    32
  0
VERTEX
  5
665
330
64B
100
AcDbEntity
  8
0
100
AcDbVertex
100
AcDb3dPolylineVertex
 10
27.44
 20
107.6019999999999
 30
0.0
 70
    32
  0
VERTEX
  5
666
330
64B
100
AcDbEntity
  8
0
100
AcDbVertex
100
AcDb3dPolylineVertex
 10
27.6065
 20
107.529
 30
0.0
 70
    32
  0
VERTEX
  5
667
330
64B
100
AcDbEntity
  8
0
100
AcDbVertex
100
AcDb3dPolylineVertex
 10
27.7814
 20
107.4559999999999
 30
0.0
 70
    32
  0
VERTEX
  5
668
330
64B
100
AcDbEntity
  8
0
100
AcDbVertex
100
AcDb3dPolylineVertex
 10
27.9647
 20
107.3849999999999
 30
0.0
 70
    32
  0
VERTEX
  5
669
330
64B
100
AcDbEntity
  8
0
100
AcDbVertex
100
AcDb3dPolylineVertex
 10
28.15609999999999
 20
107.316
 30
0.0
 70
    32
  0
VERTEX
  5
66A
330
64B
100
AcDbEntity
  8
0
100
AcDbVertex
100
AcDb3dPolylineVertex
 10
28.35549999999999
 20
107.247
 30
0.0
 70
    32
  0
VERTEX
  5
66B
330
64B
100
AcDbEntity
  8
0
100
AcDbVertex
100
AcDb3dPolylineVertex
 10
28.56279999999999
 20
107.18
 30
0.0
 70
    32
  0
VERTEX
  5
66C
330
64B
100
AcDbEntity
  8
0
100
AcDbVertex
100
AcDb3dPolylineVertex
 10
28.77779999999999
 20
107.1139999999999
 30
0.0
 70
    32
  0
VERTEX
  5
66D
330
64B
100
AcDbEntity
  8
0
100
AcDbVertex
100
AcDb3dPolylineVertex
 10
29.0003
 20
107.05
 30
0.0
 70
    32
  0
VERTEX
  5
66E
330
64B
100
AcDbEntity
  8
0
100
AcDbVertex
100
AcDb3dPolylineVertex
 10
29.2302
 20
106.9873999999999
 30
0.0
 70
    32
  0
VERTEX
  5
66F
330
64B
100
AcDbEntity
  8
0
100
AcDbVertex
100
AcDb3dPolylineVertex
 10
29.4673
 20
106.9263
 30
0.0
 70
    32
  0
VERTEX
  5
670
330
64B
100
AcDbEntity
  8
0
100
AcDbVertex
100
AcDb3dPolylineVertex
 10
29.7114
 20
106.8667
 30
0.0
 70
    32
  0
VERTEX
  5
671
330
64B
100
AcDbEntity
  8
0
100
AcDbVertex
100
AcDb3dPolylineVertex
 10
29.9623
 20
106.8088
 30
0.0
 70
    32
  0
VERTEX
  5
672
330
64B
100
AcDbEntity
  8
0
100
AcDbVertex
100
AcDb3dPolylineVertex
 10
30.2198
 20
106.7525999999999
 30
0.0
 70
    32
  0
VERTEX
  5
673
330
64B
100
AcDbEntity
  8
0
100
AcDbVertex
100
AcDb3dPolylineVertex
 10
30.4837
 20
106.6980999999999
 30
0.0
 70
    32
  0
VERTEX
  5
674
330
64B
100
AcDbEntity
  8
0
100
AcDbVertex
100
AcDb3dPolylineVertex
 10
30.7539
 20
106.6454999999999
 30
0.0
 70
    32
  0
VERTEX
  5
675
330
64B
100
AcDbEntity
  8
0
100
AcDbVertex
100
AcDb3dPolylineVertex
 10
31.0301
 20
106.5946
 30
0.0
 70
    32
  0
VERTEX
  5
676
330
64B
100
AcDbEntity
  8
0
100
AcDbVertex
100
AcDb3dPolylineVertex
 10
31.312
 20
106.5455999999999
 30
0.0
 70
    32
  0
VERTEX
  5
677
330
64B
100
AcDbEntity
  8
0
100
AcDbVertex
100
AcDb3dPolylineVertex
 10
31.59959999999999
 20
106.4985
 30
0.0
 70
    32
  0
VERTEX
  5
678
330
64B
100
AcDbEntity
  8
0
100
AcDbVertex
100
AcDb3dPolylineVertex
 10
31.89249999999999
 20
106.4534
 30
0.0
 70
    32
  0
VERTEX
  5
679
330
64B
100
AcDbEntity
  8
0
100
AcDbVertex
100
AcDb3dPolylineVertex
 10
32.1905
 20
106.4102
 30
0.0
 70
    32
  0
VERTEX
  5
67A
330
64B
100
AcDbEntity
  8
0
100
AcDbVertex
100
AcDb3dPolylineVertex
 10
32.4934
 20
106.3690999999999
 30
0.0
 70
    32
  0
VERTEX
  5
67B
330
64B
100
AcDbEntity
  8
0
100
AcDbVertex
100
AcDb3dPolylineVertex
 10
32.80089999999999
 20
106.3298999999999
 30
0.0
 70
    32
  0
VERTEX
  5
67C
330
64B
100
AcDbEntity
  8
0
100
AcDbVertex
100
AcDb3dPolylineVertex
 10
33.1129
 20
106.2929
 30
0.0
 70
    32
  0
VERTEX
  5
67D
330
64B
100
AcDbEntity
  8
0
100
AcDbVertex
100
AcDb3dPolylineVertex
 10
33.42909999999999
 20
106.2579
 30
0.0
 70
    32
  0
VERTEX
  5
67E
330
64B
100
AcDbEntity
  8
0
100
AcDbVertex
100
AcDb3dPolylineVertex
 10
33.7492
 20
106.2251
 30
0.0
 70
    32
  0
VERTEX
  5
67F
330
64B
100
AcDbEntity
  8
0
100
AcDbVertex
100
AcDb3dPolylineVertex
 10
34.073
 20
106.1943999999999
 30
0.0
 70
    32
  0
VERTEX
  5
680
330
64B
100
AcDbEntity
  8
0
100
AcDbVertex
100
AcDb3dPolylineVertex
 10
34.4002
 20
106.166
 30
0.0
 70
    32
  0
VERTEX
  5
681
330
64B
100
AcDbEntity
  8
0
100
AcDbVertex
100
AcDb3dPolylineVertex
 10
34.7306
 20
106.1397
 30
0.0
 70
    32
  0
VERTEX
  5
682
330
64B
100
AcDbEntity
  8
0
100
AcDbVertex
100
AcDb3dPolylineVertex
 10
35.06389999999999
 20
106.1155999999999
 30
0.0
 70
    32
  0
VERTEX
  5
683
330
64B
100
AcDbEntity
  8
0
100
AcDbVertex
100
AcDb3dPolylineVertex
 10
35.39979999999999
 20
106.0937
 30
0.0
 70
    32
  0
VERTEX
  5
684
330
64B
100
AcDbEntity
  8
0
100
AcDbVertex
100
AcDb3dPolylineVertex
 10
35.73819999999999
 20
106.0740999999999
 30
0.0
 70
    32
  0
VERTEX
  5
685
330
64B
100
AcDbEntity
  8
0
100
AcDbVertex
100
AcDb3dPolylineVertex
 10
36.0787
 20
106.0567999999999
 30
0.0
 70
    32
  0
VERTEX
  5
686
330
64B
100
AcDbEntity
  8
0
100
AcDbVertex
100
AcDb3dPolylineVertex
 10
36.4211
 20
106.0417999999999
 30
0.0
 70
    32
  0
VERTEX
  5
687
330
64B
100
AcDbEntity
  8
0
100
AcDbVertex
100
AcDb3dPolylineVertex
 10
36.76509999999999
 20
106.0289999999999
 30
0.0
 70
    32
  0
VERTEX
  5
688
330
64B
100
AcDbEntity
  8
0
100
AcDbVertex
100
AcDb3dPolylineVertex
 10
37.1105
 20
106.0186
 30
0.0
 70
    32
  0
VERTEX
  5
689
330
64B
100
AcDbEntity
  8
0
100
AcDbVertex
100
AcDb3dPolylineVertex
 10
37.45689999999999
 20
106.0104999999999
 30
0.0
 70
    32
  0
VERTEX
  5
68A
330
64B
100
AcDbEntity
  8
0
100
AcDbVertex
100
AcDb3dPolylineVertex
 10
37.8042
 20
106.0046999999999
 30
0.0
 70
    32
  0
VERTEX
  5
68B
330
64B
100
AcDbEntity
  8
0
100
AcDbVertex
100
AcDb3dPolylineVertex
 10
38.15189999999999
 20
106.0011999999999
 30
0.0
 70
    32
  0
VERTEX
  5
68C
330
64B
100
AcDbEntity
  8
0
100
AcDbVertex
100
AcDb3dPolylineVertex
 10
38.5
 20
106.0
 30
0.0
 70
    32
  0
VERTEX
  5
68D
330
64B
100
AcDbEntity
  8
0
100
AcDbVertex
100
AcDb3dPolylineVertex
 10
38.8481
 20
106.0011999999999
 30
0.0
 70
    32
  0
VERTEX
  5
68E
330
64B
100
AcDbEntity
  8
0
100
AcDbVertex
100
AcDb3dPolylineVertex
 10
39.19579999999999
 20
106.0046999999999
 30
0.0
 70
    32
  0
VERTEX
  5
68F
330
64B
100
AcDbEntity
  8
0
100
AcDbVertex
100
AcDb3dPolylineVertex
 10
39.5431
 20
106.0104999999999
 30
0.0
 70
    32
  0
VERTEX
  5
690
330
64B
100
AcDbEntity
  8
0
100
AcDbVertex
100
AcDb3dPolylineVertex
 10
39.88949999999999
 20
106.0186
 30
0.0
 70
    32
  0
VERTEX
  5
691
330
64B
100
AcDbEntity
  8
0
100
AcDbVertex
100
AcDb3dPolylineVertex
 10
40.2349
 20
106.0289999999999
 30
0.0
 70
    32
  0
VERTEX
  5
692
330
64B
100
AcDbEntity
  8
0
100
AcDbVertex
100
AcDb3dPolylineVertex
 10
40.57889999999999
 20
106.0417999999999
 30
0.0
 70
    32
  0
VERTEX
  5
693
330
64B
100
AcDbEntity
  8
0
100
AcDbVertex
100
AcDb3dPolylineVertex
 10
40.9213
 20
106.0567999999999
 30
0.0
 70
    32
  0
VERTEX
  5
694
330
64B
100
AcDbEntity
  8
0
100
AcDbVertex
100
AcDb3dPolylineVertex
 10
41.2618
 20
106.0740999999999
 30
0.0
 70
    32
  0
VERTEX
  5
695
330
64B
100
AcDbEntity
  8
0
100
AcDbVertex
100
AcDb3dPolylineVertex
 10
41.6002
 20
106.0937
 30
0.0
 70
    32
  0
VERTEX
  5
696
330
64B
100
AcDbEntity
  8
0
100
AcDbVertex
100
AcDb3dPolylineVertex
 10
41.9361
 20
106.1155999999999
 30
0.0
 70
    32
  0
VERTEX
  5
697
330
64B
100
AcDbEntity
  8
0
100
AcDbVertex
100
AcDb3dPolylineVertex
 10
42.26939999999999
 20
106.1397
 30
0.0
 70
    32
  0
VERTEX
  5
698
330
64B
100
AcDbEntity
  8
0
100
AcDbVertex
100
AcDb3dPolylineVertex
 10
42.5998
 20
106.166
 30
0.0
 70
    32
  0
VERTEX
  5
699
330
64B
100
AcDbEntity
  8
0
100
AcDbVertex
100
AcDb3dPolylineVertex
 10
42.92699999999999
 20
106.1943999999999
 30
0.0
 70
    32
  0
VERTEX
  5
69A
330
64B
100
AcDbEntity
  8
0
100
AcDbVertex
100
AcDb3dPolylineVertex
 10
43.25079999999999
 20
106.2251
 30
0.0
 70
    32
  0
VERTEX
  5
69B
330
64B
100
AcDbEntity
  8
0
100
AcDbVertex
100
AcDb3dPolylineVertex
 10
43.5709
 20
106.2579
 30
0.0
 70
    32
  0
VERTEX
  5
69C
330
64B
100
AcDbEntity
  8
0
100
AcDbVertex
100
AcDb3dPolylineVertex
 10
43.88709999999999
 20
106.2929
 30
0.0
 70
    32
  0
VERTEX
  5
69D
330
64B
100
AcDbEntity
  8
0
100
AcDbVertex
100
AcDb3dPolylineVertex
 10
44.1991
 20
106.3298999999999
 30
0.0
 70
    32
  0
VERTEX
  5
69E
330
64B
100
AcDbEntity
  8
0
100
AcDbVertex
100
AcDb3dPolylineVertex
 10
44.5066
 20
106.3690999999999
 30
0.0
 70
    32
  0
VERTEX
  5
69F
330
64B
100
AcDbEntity
  8
0
100
AcDbVertex
100
AcDb3dPolylineVertex
 10
44.80949999999999
 20
106.4102
 30
0.0
 70
    32
  0
VERTEX
  5
6A0
330
64B
100
AcDbEntity
  8
0
100
AcDbVertex
100
AcDb3dPolylineVertex
 10
45.1075
 20
106.4534
 30
0.0
 70
    32
  0
VERTEX
  5
6A1
330
64B
100
AcDbEntity
  8
0
100
AcDbVertex
100
AcDb3dPolylineVertex
 10
45.4004
 20
106.4985
 30
0.0
 70
    32
  0
VERTEX
  5
6A2
330
64B
100
AcDbEntity
  8
0
100
AcDbVertex
100
AcDb3dPolylineVertex
 10
45.688
 20
106.5455999999999
 30
0.0
 70
    32
  0
VERTEX
  5
6A3
330
64B
100
AcDbEntity
  8
0
100
AcDbVertex
100
AcDb3dPolylineVertex
 10
45.9699
 20
106.5946
 30
0.0
 70
    32
  0
VERTEX
  5
6A4
330
64B
100
AcDbEntity
  8
0
100
AcDbVertex
100
AcDb3dPolylineVertex
 10
46.24609999999999
 20
106.6454999999999
 30
0.0
 70
    32
  0
VERTEX
  5
6A5
330
64B
100
AcDbEntity
  8
0
100
AcDbVertex
100
AcDb3dPolylineVertex
 10
46.51629999999999
 20
106.6980999999999
 30
0.0
 70
    32
  0
VERTEX
  5
6A6
330
64B
100
AcDbEntity
  8
0
100
AcDbVertex
100
AcDb3dPolylineVertex
 10
46.7802
 20
106.7525999999999
 30
0.0
 70
    32
  0
VERTEX
  5
6A7
330
64B
100
AcDbEntity
  8
0
100
AcDbVertex
100
AcDb3dPolylineVertex
 10
47.0377
 20
106.8088
 30
0.0
 70
    32
  0
VERTEX
  5
6A8
330
64B
100
AcDbEntity
  8
0
100
AcDbVertex
100
AcDb3dPolylineVertex
 10
47.2886
 20
106.8667
 30
0.0
 70
    32
  0
VERTEX
  5
6A9
330
64B
100
AcDbEntity
  8
0
100
AcDbVertex
100
AcDb3dPolylineVertex
 10
47.53269999999999
 20
106.9263
 30
0.0
 70
    32
  0
VERTEX
  5
6AA
330
64B
100
AcDbEntity
  8
0
100
AcDbVertex
100
AcDb3dPolylineVertex
 10
47.7698
 20
106.9873999999999
 30
0.0
 70
    32
  0
VERTEX
  5
6AB
330
64B
100
AcDbEntity
  8
0
100
AcDbVertex
100
AcDb3dPolylineVertex
 10
47.9997
 20
107.05
 30
0.0
 70
    32
  0
VERTEX
  5
6AC
330
64B
100
AcDbEntity
  8
0
100
AcDbVertex
100
AcDb3dPolylineVertex
 10
48.2222
 20
107.1139999999999
 30
0.0
 70
    32
  0
VERTEX
  5
6AD
330
64B
100
AcDbEntity
  8
0
100
AcDbVertex
100
AcDb3dPolylineVertex
 10
48.4372
 20
107.18
 30
0.0
 70
    32
  0
VERTEX
  5
6AE
330
64B
100
AcDbEntity
  8
0
100
AcDbVertex
100
AcDb3dPolylineVertex
 10
48.6445
 20
107.247
 30
0.0
 70
    32
  0
VERTEX
  5
6AF
330
64B
100
AcDbEntity
  8
0
100
AcDbVertex
100
AcDb3dPolylineVertex
 10
48.84389999999999
 20
107.316
 30
0.0
 70
    32
  0
VERTEX
  5
6B0
330
64B
100
AcDbEntity
  8
0
100
AcDbVertex
100
AcDb3dPolylineVertex
 10
49.03529999999999
 20
107.3849999999999
 30
0.0
 70
    32
  0
VERTEX
  5
6B1
330
64B
100
AcDbEntity
  8
0
100
AcDbVertex
100
AcDb3dPolylineVertex
 10
49.2186
 20
107.4559999999999
 30
0.0
 70
    32
  0
VERTEX
  5
6B2
330
64B
100
AcDbEntity
  8
0
100
AcDbVertex
100
AcDb3dPolylineVertex
 10
49.39350000000001
 20
107.529
 30
0.0
 70
    32
  0
VERTEX
  5
6B3
330
64B
100
AcDbEntity
  8
0
100
AcDbVertex
100
AcDb3dPolylineVertex
 10
49.56
 20
107.6019999999999
 30
0.0
 70
    32
  0
VERTEX
  5
6B4
330
64B
100
AcDbEntity
  8
0
100
AcDbVertex
100
AcDb3dPolylineVertex
 10
49.7179
 20
107.677
 30
0.0
 70
    32
  0
VERTEX
  5
6B5
330
64B
100
AcDbEntity
  8
0
100
AcDbVertex
100
AcDb3dPolylineVertex
 10
49.8671
 20
107.752
 30
0.0
 70
    32
  0
VERTEX
  5
6B6
330
64B
100
AcDbEntity
  8
0
100
AcDbVertex
100
AcDb3dPolylineVertex
 10
50.0074
 20
107.8279999999999
 30
0.0
 70
    32
  0
VERTEX
  5
6B7
330
64B
100
AcDbEntity
  8
0
100
AcDbVertex
100
AcDb3dPolylineVertex
 10
50.13889999999999
 20
107.906
 30
0.0
 70
    32
  0
VERTEX
  5
6B8
330
64B
100
AcDbEntity
  8
0
100
AcDbVertex
100
AcDb3dPolylineVertex
 10
50.2613
 20
107.9839999999999
 30
0.0
 70
    32
  0
VERTEX
  5
6B9
330
64B
100
AcDbEntity
  8
0
100
AcDbVertex
100
AcDb3dPolylineVertex
 10
50.3746
 20
108.0629999999999
 30
0.0
 70
    32
  0
VERTEX
  5
6BA
330
64B
100
AcDbEntity
  8
0
100
AcDbVertex
100
AcDb3dPolylineVertex
 10
50.4787
 20
108.1429999999999
 30
0.0
 70
    32
  0
VERTEX
  5
6BB
330
64B
100
AcDbEntity
  8
0
100
AcDbVertex
100
AcDb3dPolylineVertex
 10
50.5736
 20
108.223
 30
0.0
 70
    32
  0
VERTEX
  5
6BC
330
64B
100
AcDbEntity
  8
0
100
AcDbVertex
100
AcDb3dPolylineVertex
 10
50.659
 20
108.304
 30
0.0
 70
    32
  0
VERTEX
  5
6BD
330
64B
100
AcDbEntity
  8
0
100
AcDbVertex
100
AcDb3dPolylineVertex
 10
50.735
 20
108.386
 30
0.0
 70
    32
  0
VERTEX
  5
6BE
330
64B
100
AcDbEntity
  8
0
100
AcDbVertex
100
AcDb3dPolylineVertex
 10
50.8016
 20
108.4679999999999
 30
0.0
 70
    32
  0
VERTEX
  5
6BF
330
64B
100
AcDbEntity
  8
0
100
AcDbVertex
100
AcDb3dPolylineVertex
 10
50.8586
 20
108.5499999999999
 30
0.0
 70
    32
  0
VERTEX
  5
6C0
330
64B
100
AcDbEntity
  8
0
100
AcDbVertex
100
AcDb3dPolylineVertex
 10
50.906
 20
108.633
 30
0.0
 70
    32
  0
VERTEX
  5
6C1
330
64B
100
AcDbEntity
  8
0
100
AcDbVertex
100
AcDb3dPolylineVertex
 10
50.94380000000001
 20
108.716
 30
0.0
 70
    32
  0
VERTEX
  5
6C2
330
64B
100
AcDbEntity
  8
0
100
AcDbVertex
100
AcDb3dPolylineVertex
 10
50.9719
 20
108.799
 30
0.0
 70
    32
  0
VERTEX
  5
6C3
330
64B
100
AcDbEntity
  8
0
100
AcDbVertex
100
AcDb3dPolylineVertex
 10
50.9904
 20
108.8829999999999
 30
0.0
 70
    32
  0
VERTEX
  5
6C4
330
64B
100
AcDbEntity
  8
0
100
AcDbVertex
100
AcDb3dPolylineVertex
 10
50.9992
 20
108.966
 30
0.0
 70
    32
  0
VERTEX
  5
6C5
330
64B
100
AcDbEntity
  8
0
100
AcDbVertex
100
AcDb3dPolylineVertex
 10
50.9983
 20
109.05
 30
0.0
 70
    32
  0
VERTEX
  5
6C6
330
64B
100
AcDbEntity
  8
0
100
AcDbVertex
100
AcDb3dPolylineVertex
 10
50.9877
 20
109.1329999999999
 30
0.0
 70
    32
  0
VERTEX
  5
6C7
330
64B
100
AcDbEntity
  8
0
100
AcDbVertex
100
AcDb3dPolylineVertex
 10
50.9674
 20
109.216
 30
0.0
 70
    32
  0
VERTEX
  5
6C8
330
64B
100
AcDbEntity
  8
0
100
AcDbVertex
100
AcDb3dPolylineVertex
 10
50.9375
 20
109.2999999999999
 30
0.0
 70
    32
  0
VERTEX
  5
6C9
330
64B
100
AcDbEntity
  8
0
100
AcDbVertex
100
AcDb3dPolylineVertex
 10
50.8979
 20
109.383
 30
0.0
 70
    32
  0
VERTEX
  5
6CA
330
64B
100
AcDbEntity
  8
0
100
AcDbVertex
100
AcDb3dPolylineVertex
 10
50.8487
 20
109.465
 30
0.0
 70
    32
  0
VERTEX
  5
6CB
330
64B
100
AcDbEntity
  8
0
100
AcDbVertex
100
AcDb3dPolylineVertex
 10
50.78990000000001
 20
109.548
 30
0.0
 70
    32
  0
VERTEX
  5
6CC
330
64B
100
AcDbEntity
  8
0
100
AcDbVertex
100
AcDb3dPolylineVertex
 10
50.7216
 20
109.63
 30
0.0
 70
    32
  0
SEQEND
  5
6CD
330
64B
100
AcDbEntity
  8
0
  0
ARC
  5
6CE
330
45F
100
AcDbEntity
  8
0
100
AcDbCircle
 10
38.5
 20
121.4374999999999
 30
0.0
 40
8.5625
100
AcDbArc
 50
50.03378699999999
 51
129.9662129999999
  0
LINE
  5
6CF
330
45F
100
AcDbEntity
  8
0
100
AcDbLine
 10
44.0
 20
128.0
 30
0.0
 11
47.81695
 21
111.0
 31
0.0
  0
LINE
  5
6D0
330
45F
100
AcDbEntity
  8
0
100
AcDbLine
 10
33.0
 20
128.0
 30
0.0
 11
29.18305
 21
111.0
 31
0.0
  0
LINE
  5
759
330
45F
100
AcDbEntity
  8
1
100
AcDbLine
 10
109.4999999999999
 20
55.5
 30
0.0
 11
109.4999999999999
 21
110.4999999999999
 31
0.0
  0
LINE
  5
75A
330
45F
100
AcDbEntity
  8
0
100
AcDbLine
 10
109.4999999999999
 20
60.0
 30
0.0
 11
99.50000000000001
 21
60.0
 31
0.0
  0
LINE
  5
75B
330
45F
100
AcDbEntity
  8
0
100
AcDbLine
 10
109.4999999999999
 20
60.0
 30
0.0
 11
119.5
 21
60.0
 31
0.0
  0
LINE
  5
75C
330
45F
100
AcDbEntity
  8
0
100
AcDbLine
 10
99.50000000000001
 20
60.0
 30
0.0
 11
99.50000000000001
 21
75.04999999999999
 31
0.0
  0
LINE
  5
75D
330
45F
100
AcDbEntity
  8
0
100
AcDbLine
 10
119.5
 20
60.0
 30
0.0
 11
119.5
 21
79.45
 31
0.0
  0
LINE
  5
75E
330
45F
100
AcDbEntity
  8
0
100
AcDbLine
 10
97.0
 20
75.743914
 30
0.0
 11
97.0
 21
104.452696
 31
0.0
  0
LINE
  5
75F
330
45F
100
AcDbEntity
  8
0
100
AcDbLine
 10
109.4999999999999
 20
105.0
 30
0.0
 11
115.0
 21
105.0
 31
0.0
  0
LINE
  5
760
330
45F
100
AcDbEntity
  8
0
100
AcDbLine
 10
116.0
 20
104.0
 30
0.0
 11
116.0
 21
103.92973
 31
0.0
  0
LINE
  5
761
330
45F
100
AcDbEntity
  8
0
100
AcDbLine
 10
109.4999999999999
 20
105.0
 30
0.0
 11
104.0
 21
105.0
 31
0.0
  0
LINE
  5
762
330
45F
100
AcDbEntity
  8
0
100
AcDbLine
 10
103.0
 20
104.0
 30
0.0
 11
103.0
 21
100.5567569999999
 31
0.0
  0
ARC
  5
763
330
45F
100
AcDbEntity
  8
0
100
AcDbCircle
 10
104.0
 20
104.0
 30
0.0
 40
1.0
100
AcDbArc
 50
90.0
 51
180.0
  0
ARC
  5
764
330
45F
100
AcDbEntity
  8
0
100
AcDbCircle
 10
115.0
 20
104.0
 30
0.0
 40
1.0
100
AcDbArc
 50
0.0
 51
90.0
  0
LINE
  5
765
330
45F
100
AcDbEntity
  8
0
100
AcDbLine
 10
98.497713
 20
106.3885959999999
 30
0.0
 11
186.9977129999999
 21
129.350758
 31
0.0
  0
LINE
  5
766
330
45F
100
AcDbEntity
  8
0
100
AcDbLine
 10
189.4999999999999
 20
127.414858
 30
0.0
 11
189.4999999999999
 21
116.584029
 31
0.0
  0
LINE
  5
767
330
45F
100
AcDbEntity
  8
0
100
AcDbLine
 10
187.958079
 20
114.637195
 30
0.0
 11
173.921655
 21
111.3345069999999
 31
0.0
  0
LINE
  5
768
330
45F
100
AcDbEntity
  8
0
100
AcDbLine
 10
171.7485899999999
 20
112.25235
 30
0.0
 11
171.0
 21
113.5
 31
0.0
  0
LINE
  5
769
330
45F
100
AcDbEntity
  8
0
100
AcDbLine
 10
171.0
 20
113.5
 30
0.0
 11
119.5
 21
94.50000000000001
 31
0.0
  0
LINE
  5
76A
330
45F
100
AcDbEntity
  8
0
100
AcDbLine
 10
119.5
 20
94.50000000000001
 30
0.0
 11
119.5
 21
111.837838
 31
0.0
  0
LINE
  5
76B
330
45F
100
AcDbEntity
  8
0
100
AcDbLine
 10
98.214862
 20
74.76727
 30
0.0
 11
121.214862
 21
79.82727
 31
0.0
  0
LINE
  5
76C
330
45F
100
AcDbEntity
  8
0
100
AcDbLine
 10
122.0
 20
80.80391400000001
 30
0.0
 11
122.0
 21
95.42233000000001
 31
0.0
  0
ARC
  5
76D
330
45F
100
AcDbEntity
  8
0
100
AcDbCircle
 10
187.5
 20
127.414858
 30
0.0
 40
2.0
100
AcDbArc
 50
0.0
 51
104.5452029999999
  0
ARC
  5
76E
330
45F
100
AcDbEntity
  8
0
100
AcDbCircle
 10
187.5
 20
116.584029
 30
0.0
 40
2.0
100
AcDbArc
 50
283.24052
 51
0.0
  0
ARC
  5
76F
330
45F
100
AcDbEntity
  8
0
100
AcDbCircle
 10
173.4635759999999
 20
113.281341
 30
0.0
 40
2.0
100
AcDbArc
 50
210.963757
 51
283.24052
  0
ARC
  5
770
330
45F
100
AcDbEntity
  8
0
100
AcDbCircle
 10
99.0
 20
104.452696
 30
0.0
 40
2.0
100
AcDbArc
 50
104.5452029999999
 51
180.0
  0
ARC
  5
771
330
45F
100
AcDbEntity
  8
0
100
AcDbCircle
 10
98.0
 20
75.743914
 30
0.0
 40
1.0
100
AcDbArc
 50
180.0
 51
282.407419
  0
ARC
  5
772
330
45F
100
AcDbEntity
  8
0
100
AcDbCircle
 10
121.0
 20
80.80391400000001
 30
0.0
 40
1.0
100
AcDbArc
 50
282.407419
 51
0.0
  0
LINE
  5
773
330
45F
100
AcDbEntity
  8
2
100
AcDbLine
 10
33.5
 20
60.0
 30
0.0
 11
33.5
 21
77.0
 31
0.0
  0
LINE
  5
774
330
45F
100
AcDbEntity
  8
2
100
AcDbLine
 10
33.5
 20
77.0
 30
0.0
 11
43.5
 21
77.0
 31
0.0
  0
LINE
  5
775
330
45F
100
AcDbEntity
  8
2
100
AcDbLine
 10
43.5
 20
77.0
 30
0.0
 11
43.5
 21
60.0
 31
0.0
  0
LINE
  5
776
330
45F
100
AcDbEntity
  8
2
100
AcDbLine
 10
42.5
 20
60.0
 30
0.0
 11
42.5
 21
82.5
 31
0.0
  0
LINE
  5
777
330
45F
100
AcDbEntity
  8
2
100
AcDbLine
 10
42.5
 20
82.5
 30
0.0
 11
34.5
 21
82.5
 31
0.0
  0
LINE
  5
778
330
45F
100
AcDbEntity
  8
2
100
AcDbLine
 10
34.5
 20
82.5
 30
0.0
 11
34.5
 21
60.0
 31
0.0
  0
LINE
  5
779
330
45F
100
AcDbEntity
  8
2
100
AcDbLine
 10
43.5
 20
77.0
 30
0.0
 11
42.5
 21
78.0
 31
0.0
  0
LINE
  5
77A
330
45F
100
AcDbEntity
  8
2
100
AcDbLine
 10
42.5
 20
78.0
 30
0.0
 11
34.5
 21
78.0
 31
0.0
  0
LINE
  5
77B
330
45F
100
AcDbEntity
  8
2
100
AcDbLine
 10
34.5
 20
78.0
 30
0.0
 11
33.5
 21
77.0
 31
0.0
  0
LINE
  5
77C
330
45F
100
AcDbEntity
  8
2
100
AcDbLine
 10
42.5
 20
82.5
 30
0.0
 11
38.5
 21
85.0
 31
0.0
  0
LINE
  5
77D
330
45F
100
AcDbEntity
  8
2
100
AcDbLine
 10
38.5
 20
85.0
 30
0.0
 11
34.5
 21
82.5
 31
0.0
  0
LINE
  5
77E
330
45F
100
AcDbEntity
  8
2
100
AcDbLine
 10
105.4999999999999
 20
78.0
 30
0.0
 11
104.4999999999999
 21
77.0
 31
0.0
  0
LINE
  5
77F
330
45F
100
AcDbEntity
  8
2
100
AcDbLine
 10
114.5
 20
77.0
 30
0.0
 11
113.5
 21
78.0
 31
0.0
  0
LINE
  5
780
330
45F
100
AcDbEntity
  8
2
100
AcDbLine
 10
105.4999999999999
 20
82.5
 30
0.0
 11
105.4999999999999
 21
60.0
 31
0.0
  0
LINE
  5
781
330
45F
100
AcDbEntity
  8
2
100
AcDbLine
 10
113.5
 20
60.0
 30
0.0
 11
113.5
 21
82.5
 31
0.0
  0
LINE
  5
782
330
45F
100
AcDbEntity
  8
2
100
AcDbLine
 10
104.4999999999999
 20
77.0
 30
0.0
 11
114.5
 21
77.0
 31
0.0
  0
LINE
  5
783
330
45F
100
AcDbEntity
  8
2
100
AcDbLine
 10
104.4999999999999
 20
60.0
 30
0.0
 11
104.4999999999999
 21
74.5
 31
0.0
  0
LINE
  5
784
330
45F
100
AcDbEntity
  8
2
100
AcDbLine
 10
114.5
 20
77.0
 30
0.0
 11
114.5
 21
60.0
 31
0.0
  0
LINE
  5
785
330
45F
100
AcDbEntity
  8
2
100
AcDbLine
 10
109.4999999999999
 20
85.0
 30
0.0
 11
105.4999999999999
 21
82.5
 31
0.0
  0
LINE
  5
786
330
45F
100
AcDbEntity
  8
2
100
AcDbLine
 10
113.5
 20
78.0
 30
0.0
 11
105.4999999999999
 21
78.0
 31
0.0
  0
LINE
  5
787
330
45F
100
AcDbEntity
  8
2
100
AcDbLine
 10
113.5
 20
82.5
 30
0.0
 11
105.4999999999999
 21
82.5
 31
0.0
  0
LINE
  5
788
330
45F
100
AcDbEntity
  8
2
100
AcDbLine
 10
113.5
 20
82.5
 30
0.0
 11
109.4999999999999
 21
85.0
 31
0.0
  0
ELLIPSE
  5
89F
330
45F
100
AcDbEntity
  8
0
100
AcDbEllipse
 10
38.5
 20
109.0
 30
0.0
 11
-6.5
 21
0.0
 31
0.0
210
0.0
220
0.0
230
1.0
 40
0.2307692307692308
 41
0.0
 42
6.283185307179586
  0
ENDSEC
  0
SECTION
  2
OBJECTS
  0
DICTIONARY
  5
44D
330
0
100
AcDbDictionary
281
     1
  3
ACAD_GROUP
350
44E
  3
ACAD_LAYOUT
350
45A
  3
ACAD_MLINESTYLE
350
457
  3
ACAD_PLOTSETTINGS
350
459
  3
ACAD_PLOTSTYLENAME
350
44F
  3
AcDbVariableDictionary
350
887
  3
AcmDictionary
350
845
  3
AMG
350
78A
  3
AMGSNAPSETTINGS
350
88A
  3
DWGPROPS
350
848
  3
MAPISURF_MODULE
350
817
  0
DICTIONARY
  5
880
330
45F
100
AcDbDictionary
280
     1
281
     1
  3
ACAD_INDEX
360
881
  0
DICTIONARY
  5
44E
102
{ACAD_REACTORS
330
44D
102
}
330
44D
100
AcDbDictionary
281
     1
  0
DICTIONARY
  5
45A
102
{ACAD_REACTORS
330
44D
102
}
330
44D
100
AcDbDictionary
281
     1
  3
Model
350
462
  3
ﾚｲｱｳﾄ1
350
45E
  0
DICTIONARY
  5
457
102
{ACAD_REACTORS
330
44D
102
}
330
44D
100
AcDbDictionary
281
     1
  3
Standard
350
458
  0
DICTIONARY
  5
459
102
{ACAD_REACTORS
330
44D
102
}
330
44D
100
AcDbDictionary
281
     1
  0
ACDBDICTIONARYWDFLT
  5
44F
102
{ACAD_REACTORS
330
44D
102
}
330
44D
100
AcDbDictionary
281
     1
  3
Normal
350
450
100
AcDbDictionaryWithDefault
340
450
  0
DICTIONARY
  5
887
102
{ACAD_REACTORS
330
44D
102
}
330
44D
100
AcDbDictionary
281
     1
  3
DIMASSOC
350
889
  3
INDEXCTL
350
888
  0
DICTIONARY
  5
845
102
{ACAD_REACTORS
330
44D
102
}
330
44D
100
AcDbDictionary
281
     1
  3
AcmBOMDATA
350
846
  3
AcmStdDictionary
350
854
  0
DICTIONARY
  5
78A
102
{ACAD_REACTORS
330
44D
102
}
330
44D
100
AcDbDictionary
281
     1
  3
AcMgSettings
350
78B
  3
AMGLAYCFG
350
856
  0
DICTIONARY
  5
88A
102
{ACAD_REACTORS
330
44D
102
}
330
44D
100
AcDbDictionary
281
     1
  3
DIMENSION
350
88F
  3
FEA
350
88E
  3
HATCH (1)
350
88B
  3
HATCH (2)
350
88C
  3
SIMPLE WELD
350
890
  3
SYMBOLS
350
88D
  0
XRECORD
  5
848
102
{ACAD_REACTORS
330
44D
102
}
330
44D
100
AcDbXrecord
280
     1
  1
DWGPROPS COOKIE
  2

  3

  4

  6

  7

  8

  9

300
AmdtFileType=84
301
=
302
=
303
=
304
=
305
=
306
=
307
=
308
=
309
=
 40
0.0368534490740741
 41
2452125.683722997
 42
2452126.62617
  1

 90
        1
  0
DICTIONARY
  5
881
102
{ACAD_REACTORS
330
880
102
}
330
880
100
AcDbDictionary
281
     1
  3
*A1
350
882
  0
LAYOUT
  5
462
102
{ACAD_REACTORS
330
45A
102
}
330
45A
100
AcDbPlotSettings
  1

  2
EPSON PM-3700C
  4

  6

 40
0.0
 41
0.0
 42
0.0
 43
0.0
 44
0.0
 45
0.0
 46
0.0
 47
0.0
 48
0.0
 49
0.0
140
0.0
141
0.0
142
1.0
143
1.0
 70
  1712
 72
     0
 73
     0
 74
     0
  7

 75
     0
147
1.0
148
0.0
149
0.0
100
AcDbLayout
  1
Model
 70
     1
 71
     0
 10
0.0
 20
0.0
 11
12.0
 21
9.0
 12
0.0
 22
0.0
 32
0.0
 14
0.0
 24
0.0
 34
0.0
 15
0.0
 25
0.0
 35
0.0
146
0.0
 13
0.0
 23
0.0
 33
0.0
 16
1.0
 26
0.0
 36
0.0
 17
0.0
 27
1.0
 37
0.0
 76
     0
330
45F
  0
LAYOUT
  5
45E
102
{ACAD_REACTORS
330
45A
102
}
330
45A
100
AcDbPlotSettings
  1

  2
EPSON PM-3700C
  4

  6

 40
0.0
 41
0.0
 42
0.0
 43
0.0
 44
0.0
 45
0.0
 46
0.0
 47
0.0
 48
0.0
 49
0.0
140
0.0
141
0.0
142
1.0
143
1.0
 70
   688
 72
     0
 73
     0
 74
     5
  7

 75
    16
147
1.0
148
0.0
149
0.0
100
AcDbLayout
  1
ﾚｲｱｳﾄ1
 70
     1
 71
     1
 10
0.0
 20
0.0
 11
420.0
 21
297.0
 12
0.0
 22
0.0
 32
0.0
 14
1.000000000000000E+20
 24
1.000000000000000E+20
 34
1.000000000000000E+20
 15
-1.000000000000000E+20
 25
-1.000000000000000E+20
 35
-1.000000000000000E+20
146
0.0
 13
0.0
 23
0.0
 33
0.0
 16
1.0
 26
0.0
 36
0.0
 17
0.0
 27
1.0
 37
0.0
 76
     0
330
45B
  0
MLINESTYLE
  5
458
102
{ACAD_REACTORS
330
457
102
}
330
457
100
AcDbMlineStyle
  2
STANDARD
 70
     0
  3

 62
   256
 51
90.0
 52
90.0
 71
     2
 49
0.5
 62
   256
  6
BYLAYER
 49
-0.5
 62
   256
  6
BYLAYER
  0
ACDBPLACEHOLDER
  5
450
102
{ACAD_REACTORS
330
44F
102
}
330
44F
  0
DICTIONARYVAR
  5
889
102
{ACAD_REACTORS
330
887
102
}
330
887
100
DictionaryVariables
280
     0
  1
1
  0
DICTIONARYVAR
  5
888
102
{ACAD_REACTORS
330
887
102
}
330
887
100
DictionaryVariables
280
     0
  1
1
  0
ACMDATADICTIONARY
  5
846
102
{ACAD_REACTORS
330
845
102
}
330
845
100
AcDbDictionary
281
     1
  3
*A1
350
847
100
AcmDataDictionary
  0
DICTIONARY
  5
854
102
{ACAD_REACTORS
330
845
102
}
330
845
100
AcDbDictionary
281
     1
  3
ANSI
350
855
  0
DICTIONARY
  5
78B
102
{ACAD_REACTORS
330
78A
102
}
330
78A
100
AcDbDictionary
281
     1
  3
DWGSETTINGS
350
78C
  3
TRANSSETTINGS
350
790
  0
ACAMGFILTERDAT
  5
88F
102
{ACAD_REACTORS
330
88A
102
}
330
88A
100
AcAmgFilterDat
 70
    15
  1
DIMENSION,AMDT_*_DIM
  2
*
  3
*
  4
*
  5
*
290
     1
  0
ACAMGFILTERDAT
  5
88E
102
{ACAD_REACTORS
330
88A
102
}
330
88A
100
AcAmgFilterDat
 70
    15
  1
*
  2
AM_FEA-AM_*
  3
*
  4
*
  5
*
290
     1
  0
ACAMGFILTERDAT
  5
88B
102
{ACAD_REACTORS
330
88A
102
}
330
88A
100
AcAmgFilterDat
 70
    15
  1
HATCH
  2
*
  3
*
  4
*
  5
*
290
     1
  0
ACAMGFILTERDAT
  5
88C
102
{ACAD_REACTORS
330
88A
102
}
330
88A
100
AcAmgFilterDat
 70
    15
  1
LINE
  2
8,8N,*-8,*-8N,AM_8,AM_8N,*-AM_8,*-AM_8N
  3
*
  4
*
  5
INSERT,STDPART2D
290
     1
  0
ACAMGFILTERDAT
  5
890
102
{ACAD_REACTORS
330
88A
102
}
330
88A
100
AcAmgFilterDat
 70
    15
  1
ARC
  2
AM_5
  3
*
  4
2
  5
INSERT
290
     0
  0
ACAMGFILTERDAT
  5
88D
102
{ACAD_REACTORS
330
88A
102
}
330
88A
100
AcAmgFilterDat
 70
    15
  1
ACMFCFRAME,ACMDATUMTARGET,ACMDATUMID,ACMWELDSYM,ACMSURFSYM,ACMFEATID,ACMPARTREF,ACMBALLOON,AMDTEDGESYM,AMGSCREWCALCTABLE
  2
*
  3
*
  4
*
  5
*
290
     1
  0
LAYER_INDEX
  5
882
102
{ACAD_REACTORS
330
881
102
}
330
881
100
AcDbIndex
 40
2454700.43814434
100
AcDbLayerIndex
  8
0
360
883
 90
       37
  8
2
360
884
 90
       22
  8
1
360
885
 90
        2
  8
Defpoints
360
8A0
 90
        0
  0
ACMDATAENTRYBLOCK
  5
847
102
{ACAD_REACTORS
330
846
102
}
330
846
100
AcmDataEntry
100
AcmDataEntryBlock
  0
IDBUFFER
  5
883
330
0
100
AcDbIdBuffer
330
5C2
330
5C3
330
5C4
330
5C5
330
5C6
330
649
330
64A
330
64B
330
6CE
330
6CF
330
6D0
330
75A
330
75B
330
75C
330
75D
330
75E
330
75F
330
760
330
761
330
762
330
763
330
764
330
765
330
766
330
767
330
768
330
769
330
76A
330
76B
330
76C
330
76D
330
76E
330
76F
330
770
330
771
330
772
330
89F
  0
IDBUFFER
  5
884
330
0
100
AcDbIdBuffer
330
773
330
774
330
775
330
776
330
777
330
778
330
779
330
77A
330
77B
330
77C
330
77D
330
77E
330
77F
330
780
330
781
330
782
330
783
330
784
330
785
330
786
330
787
330
788
  0
IDBUFFER
  5
885
330
0
100
AcDbIdBuffer
330
5C1
330
759
  0
IDBUFFER
  5
8A0
330
0
100
AcDbIdBuffer
  0
ENDSEC
  0
EOF
