  0
SECTION
  2
HEADER
  9
$ACADVER
  1
AC1009
  9
$INSBASE
 10
0.0
 20
0.0
 30
0.0
  9
$EXTMIN
 10
0.0
 20
0.0
 30
0.0
  9
$EXTMAX
 10
375.0
 20
270.0
 30
0.0
  9
$LIMMIN
 10
0.0
 20
0.0
  9
$LIMMAX
 10
375.0
 20
270.0
  9
$ORTHOMODE
 70
     0
  9
$REGENMODE
 70
     1
  9
$FILLMODE
 70
     1
  9
$QTEXTMODE
 70
     0
  9
$MIRRTEXT
 70
     1
  9
$DRAGMODE
 70
     1
  9
$LTSCALE
 40
10.0
  9
$OSMODE
 70
     0
  9
$ATTMODE
 70
     1
  9
$TEXTSIZE
 40
6.0
  9
$TRACEWID
 40
0.05
  9
$TEXTSTYLE
  7
BIGFONT
  9
$CLAYER
  8
0
  9
$CELTYPE
  6
BYLAYER
  9
$CECOLOR
 62
   256
  9
$DIMSCALE
 40
1.0
  9
$DIMASZ
 40
3.0
  9
$DIMEXO
 40
2.0
  9
$DIMDLI
 40
0.38
  9
$DIMRND
 40
0.0
  9
$DIMDLE
 40
0.0
  9
$DIMEXE
 40
2.0
  9
$DIMTP
 40
0.0
  9
$DIMTM
 40
0.0
  9
$DIMTXT
 40
3.2
  9
$DIMCEN
 40
0.0
  9
$DIMTSZ
 40
0.0
  9
$DIMTOL
 70
     0
  9
$DIMLIM
 70
     0
  9
$DIMTIH
 70
     0
  9
$DIMTOH
 70
     0
  9
$DIMSE1
 70
     0
  9
$DIMSE2
 70
     0
  9
$DIMTAD
 70
     1
  9
$DIMZIN
 70
     0
  9
$DIMBLK
  1

  9
$DIMASO
 70
     0
  9
$DIMSHO
 70
     0
  9
$DIMPOST
  1

  9
$DIMAPOST
  1

  9
$DIMALT
 70
     0
  9
$DIMALTD
 70
     2
  9
$DIMALTF
 40
25.4
  9
$DIMLFAC
 40
1.0
  9
$DIMTOFL
 70
     0
  9
$DIMTVP
 40
1.6
  9
$DIMTIX
 70
     1
  9
$DIMSOXD
 70
     0
  9
$DIMSAH
 70
     0
  9
$DIMBLK1
  1

  9
$DIMBLK2
  1

  9
$DIMSTYLE
  2
STANDARD
  9
$DIMCLRD
 70
     0
  9
$DIMCLRE
 70
     0
  9
$DIMCLRT
 70
     0
  9
$DIMTFAC
 40
1.0
  9
$DIMGAP
 40
0.09
  9
$LUNITS
 70
     2
  9
$LUPREC
 70
     1
  9
$SKETCHINC
 40
0.1
  9
$FILLETRAD
 40
0.0
  9
$AUNITS
 70
     0
  9
$AUPREC
 70
     0
  9
$MENU
  1
ACAD
  9
$ELEVATION
 40
0.0
  9
$PELEVATION
 40
0.0
  9
$THICKNESS
 40
0.0
  9
$LIMCHECK
 70
     0
  9
$BLIPMODE
 70
     0
  9
$CHAMFERA
 40
0.0
  9
$CHAMFERB
 40
0.0
  9
$SKPOLY
 70
     0
  9
$TDCREATE
 40
2450683.606898
  9
$TDUPDATE
 40
2450683.606898
  9
$TDINDWG
 40
0.0
  9
$TDUSRTIMER
 40
0.0
  9
$USRTIMER
 70
     1
  9
$ANGBASE
 50
0.0
  9
$ANGDIR
 70
     0
  9
$PDMODE
 70
     0
  9
$PDSIZE
 40
0.0
  9
$PLINEWID
 40
0.0
  9
$COORDS
 70
     2
  9
$SPLFRAME
 70
     0
  9
$SPLINETYPE
 70
     6
  9
$SPLINESEGS
 70
     8
  9
$ATTDIA
 70
     0
  9
$ATTREQ
 70
     1
  9
$HANDLING
 70
     1
  9
$HANDSEED
  5
1CC
  9
$SURFTAB1
 70
     6
  9
$SURFTAB2
 70
     6
  9
$SURFTYPE
 70
     6
  9
$SURFU
 70
     6
  9
$SURFV
 70
     6
  9
$UCSNAME
  2

  9
$UCSORG
 10
0.0
 20
0.0
 30
0.0
  9
$UCSXDIR
 10
1.0
 20
0.0
 30
0.0
  9
$UCSYDIR
 10
0.0
 20
1.0
 30
0.0
  9
$PUCSNAME
  2

  9
$PUCSORG
 10
0.0
 20
0.0
 30
0.0
  9
$PUCSXDIR
 10
1.0
 20
0.0
 30
0.0
  9
$PUCSYDIR
 10
0.0
 20
1.0
 30
0.0
  9
$USERI1
 70
     0
  9
$USERI2
 70
     0
  9
$USERI3
 70
     0
  9
$USERI4
 70
     0
  9
$USERI5
 70
     0
  9
$USERR1
 40
0.0
  9
$USERR2
 40
0.0
  9
$USERR3
 40
0.0
  9
$USERR4
 40
0.0
  9
$USERR5
 40
0.0
  9
$WORLDVIEW
 70
     1
  9
$SHADEDGE
 70
     3
  9
$SHADEDIF
 70
    70
  9
$TILEMODE
 70
     1
  9
$MAXACTVP
 70
    16
  9
$PLIMCHECK
 70
     0
  9
$PEXTMIN
 10
1.000000E+020
 20
1.000000E+020
 30
1.000000E+020
  9
$PEXTMAX
 10
-1.000000E+020
 20
-1.000000E+020
 30
-1.000000E+020
  9
$PLIMMIN
 10
0.0
 20
0.0
  9
$PLIMMAX
 10
12.0
 20
9.0
  9
$UNITMODE
 70
     0
  9
$VISRETAIN
 70
     0
  9
$PLINEGEN
 70
   353
  9
$PSLTSCALE
 70
     0
  0
ENDSEC
  0
SECTION
  2
TABLES
  0
TABLE
  2
VPORT
 70
     3
  0
VPORT
  2
*ACTIVE
 70
     0
 10
0.0
 20
0.0
 11
1.0
 21
1.0
 12
221.738433
 22
164.770061
 13
0.0
 23
0.0
 14
0.5
 24
0.5
 15
1.0
 25
1.0
 16
0.0
 26
0.0
 36
1.0
 17
0.0
 27
0.0
 37
0.0
 40
329.540122
 41
1.345745
 42
50.0
 43
0.0
 44
0.0
 50
0.0
 51
0.0
 71
     0
 72
   500
 73
     1
 74
     1
 75
     0
 76
     0
 77
     0
 78
     0
  0
ENDTAB
  0
TABLE
  2
LTYPE
 70
     3
  0
LTYPE
  2
CONTINUOUS
 70
     0
  3
実線
 72
    65
 73
     0
 40
0.0
  0
LTYPE
  2
CENTER
 70
     0
  3
____ _ ____ _ ____ _ ____ _ ____ _ ____ _ ____
 72
    65
 73
     4
 40
2.0
 49
1.25
 49
-0.25
 49
0.25
 49
-0.25
  0
LTYPE
  2
HIDDEN
 70
     0
  3
_ _ _ _ _ _ _ _ _ _ _ _ _ _ _ _ _ _ _ _ _ _ _
 72
    65
 73
     2
 40
0.375
 49
0.25
 49
-0.125
  0
ENDTAB
  0
TABLE
  2
LAYER
 70
     5
  0
LAYER
  2
0
 70
     0
 62
     7
  6
CONTINUOUS
  0
LAYER
  2
1
 70
     0
 62
     1
  6
CENTER
  0
LAYER
  2
10
 70
     0
 62
     7
  6
CONTINUOUS
  0
LAYER
  2
11
 70
     0
 62
     3
  6
CONTINUOUS
  0
LAYER
  2
2
 70
     0
 62
     2
  6
HIDDEN
  0
ENDTAB
  0
TABLE
  2
STYLE
 70
     3
  0
STYLE
  2
STANDARD
 70
     0
 40
0.0
 41
1.0
 50
0.0
 71
     0
 42
0.2
  3
TXT
  4
BIGFONT
  0
STYLE
  2
07500
 70
     0
 40
0.0
 41
0.75
 50
0.0
 71
     0
 42
0.2
  3
TXT
  4
BIGFONT
  0
STYLE
  2
BIGFONT
 70
     0
 40
6.0
 41
0.8
 50
0.0
 71
     0
 42
6.0
  3

  4
bigfont
  0
ENDTAB
  0
TABLE
  2
VIEW
 70
     1
  0
VIEW
  2
ALL
 70
     0
 40
270.0
 10
220.991597
 20
135.0
 41
0.0
 11
0.0
 21
0.0
 31
1.0
 12
0.0
 22
0.0
 32
0.0
 42
0.0
 43
0.0
 44
0.0
 50
0.0
 71
     0
  0
ENDTAB
  0
TABLE
  2
UCS
 70
     0
  0
ENDTAB
  0
TABLE
  2
APPID
 70
     1
  0
APPID
  2
ACAD
 70
     0
  0
ENDTAB
  0
TABLE
  2
DIMSTYLE
 70
     1
  0
DIMSTYLE
  2
STANDARD
 70
     0
  3

  4

  5

  6

  7

 40
1.0
 41
0.18
 42
0.0625
 43
0.38
 44
0.18
 45
0.0
 46
0.0
 47
0.0
 48
0.0
140
0.18
141
0.09
142
0.0
143
25.4
144
1.0
145
0.0
146
1.0
147
0.09
 71
     0
 72
     0
 73
     1
 74
     1
 75
     0
 76
     0
 77
     0
 78
     0
170
     0
171
     2
172
     0
173
     0
174
     0
175
     0
176
     0
177
     0
178
     0
  0
ENDTAB
  0
ENDSEC
  0
SECTION
  2
BLOCKS
  0
BLOCK
  8
0
  2
$MODEL_SPACE
 70
     0
 10
0.0
 20
0.0
 30
0.0
  3
$MODEL_SPACE
  1

  0
ENDBLK
  5
167
  8
0
  0
BLOCK
 67
     1
  8
0
  2
$PAPER_SPACE
 70
     0
 10
0.0
 20
0.0
 30
0.0
  3
$PAPER_SPACE
  1

  0
ENDBLK
  5
165
 67
     1
  8
0
  0
BLOCK
  8
0
  2
WAKU
 70
     0
 10
549.0
 20
0.0
 30
0.0
  3
WAKU
  1

  0
LINE
  5
2E
  8
11
 10
452.0
 20
12.0
 30
0.0
 11
549.0
 21
12.0
 31
0.0
  0
LINE
  5
2F
  8
11
 10
477.0
 20
0.0
 30
0.0
 11
477.0
 21
12.0
 31
0.0
  0
LINE
  5
30
  8
11
 10
452.0
 20
12.0
 30
0.0
 11
452.0
 21
0.0
 31
0.0
  0
TEXT
  5
31
  8
11
 10
454.0
 20
8.5
 30
0.0
 40
2.5
  1
尺度
  0
TEXT
  5
32
  8
11
 10
479.0
 20
8.5
 30
0.0
 40
2.5
  1
図番
  0
ENDBLK
  5
33
  8
0
  0
BLOCK
  8
0
  2
QQ
 70
     0
 10
270.0
 20
0.0
 30
0.0
  3
QQ
  1

  0
LINE
  5
35
  8
11
 10
173.0
 20
36.0
 30
0.0
 11
270.0
 21
36.0
 31
0.0
  0
TEXT
  5
36
  8
11
 10
175.0
 20
32.5
 30
0.0
 40
2.5
  1
部品名称
  0
LINE
  5
37
  8
11
 10
173.0
 20
36.0
 30
0.0
 11
173.0
 21
0.0
 31
0.0
  0
LINE
  5
38
  8
11
 10
173.0
 20
24.0
 30
0.0
 11
270.0
 21
24.0
 31
0.0
  0
TEXT
  5
39
  8
11
 10
175.0
 20
20.5
 30
0.0
 40
2.5
  1
品番
  0
LINE
  5
3A
  8
11
 10
173.0
 20
12.0
 30
0.0
 11
270.0
 21
12.0
 31
0.0
  0
TEXT
  5
3B
  8
11
 10
175.0
 20
8.5
 30
0.0
 40
2.5
  1
尺度
  0
TEXT
  5
3C
  8
11
 10
200.0
 20
8.5
 30
0.0
 40
2.5
  1
図番
  0
LINE
  5
3D
  8
11
 10
198.0
 20
0.0
 30
0.0
 11
198.0
 21
12.0
 31
0.0
  0
ENDBLK
  5
3E
  8
0
  0
ENDSEC
  0
SECTION
  2
ENTITIES
  0
TEXT
  5
3F
  8
11
 10
280.0
 20
1.0
 30
0.0
 40
4.0
  1
1/1
  0
INSERT
  5
40
  8
0
  2
QQ
 10
375.0
 20
0.0
 30
0.0
  0
LINE
  5
41
  8
10
 10
0.0
 20
270.0
 30
0.0
 11
0.0
 21
0.0
 31
0.0
  0
LINE
  5
42
  8
10
 10
375.0
 20
270.0
 30
0.0
 11
0.0
 21
270.0
 31
0.0
  0
LINE
  5
43
  8
10
 10
375.0
 20
0.0
 30
0.0
 11
375.0
 21
270.0
 31
0.0
  0
LINE
  5
44
  8
10
 10
0.0
 20
0.0
 30
0.0
 11
375.0
 21
0.0
 31
0.0
  0
TEXT
  5
45
  8
11
 10
280.0
 20
25.0
 30
0.0
 40
6.0
  1
スウィッチ・レバー
 41
0.75
  7
07500
  0
TEXT
  5
46
  8
11
 10
289.835148
 20
13.638698
 30
0.0
 40
6.0
  1
ＳＬ－１２５
 41
0.8
  7
BIGFONT
  0
LINE
  5
47
  8
0
 10
165.068678
 20
124.031737
 30
0.0
 11
165.068678
 21
134.146228
 31
0.0
  0
ARC
  5
48
  8
0
 10
251.089614
 20
174.08183
 30
0.0
 40
13.959489
 50
316.43394
 51
83.56606
  0
LINE
  5
49
  8
0
 10
252.653881
 20
187.953399
 30
0.0
 11
192.428911
 21
163.372858
 31
0.0
  0
LINE
  5
4A
  8
0
 10
192.428911
 20
163.372858
 30
0.0
 11
191.831238
 21
162.091145
 31
0.0
  0
LINE
  5
4B
  8
0
 10
191.831238
 20
162.091145
 30
0.0
 11
197.987601
 21
145.176678
 31
0.0
  0
LINE
  5
4C
  8
0
 10
197.987601
 20
145.176678
 30
0.0
 11
199.269314
 21
144.579006
 31
0.0
  0
LINE
  5
4D
  8
0
 10
199.269314
 20
144.579006
 30
0.0
 11
261.204384
 21
164.461084
 31
0.0
  0
LINE
  5
4E
  8
0
 10
192.857299
 20
159.272068
 30
0.0
 11
160.437903
 21
147.472373
 31
0.0
  0
LINE
  5
4F
  8
0
 10
196.96154
 20
147.995756
 30
0.0
 11
164.542145
 21
136.196061
 31
0.0
  0
LINE
  5
50
  8
0
 10
160.445293
 20
147.475216
 30
0.0
 11
160.287864
 21
147.417916
 31
0.0
  0
LINE
  5
51
  8
0
 10
164.542522
 20
136.196215
 30
0.0
 11
164.356731
 21
136.128593
 31
0.0
  0
ARC
  5
52
  8
0
 10
182.471747
 20
149.015521
 30
0.0
 40
22.237204
 50
184.142077
 51
215.331543
  0
LINE
  5
53
  8
1
 10
269.108893
 20
180.630522
 30
0.0
 11
139.500912
 21
133.457075
 31
0.0
  0
LINE
  5
54
  8
1
 10
140.0
 20
152.0
 30
0.0
 11
140.0
 21
121.0
 31
0.0
  0
LINE
  5
55
  8
0
 10
140.0
 20
123.0
 30
0.0
 11
121.5
 21
123.0
 31
0.0
  0
LINE
  5
56
  8
0
 10
121.5
 20
123.0
 30
0.0
 11
121.5
 21
124.0
 31
0.0
  0
LINE
  5
57
  8
0
 10
140.0
 20
124.0
 30
0.0
 11
115.0
 21
124.0
 31
0.0
  0
LINE
  5
58
  8
0
 10
140.0
 20
124.0
 30
0.0
 11
165.0
 21
124.0
 31
0.0
  0
LINE
  5
59
  8
0
 10
140.0
 20
148.0
 30
0.0
 11
160.0
 21
148.0
 31
0.0
  0
LINE
  5
5A
  8
0
 10
140.0
 20
148.0
 30
0.0
 11
120.0
 21
148.0
 31
0.0
  0
LINE
  5
5B
  8
2
 10
145.5
 20
123.0
 30
0.0
 11
145.0
 21
123.5
 31
0.0
  0
LINE
  5
5C
  8
2
 10
145.0
 20
123.5
 30
0.0
 11
145.0
 21
139.0
 31
0.0
  0
LINE
  5
5D
  8
2
 10
145.0
 20
139.0
 30
0.0
 11
135.0
 21
139.0
 31
0.0
  0
LINE
  5
5E
  8
2
 10
135.0
 20
139.0
 30
0.0
 11
135.0
 21
123.5
 31
0.0
  0
LINE
  5
5F
  8
2
 10
135.0
 20
123.5
 30
0.0
 11
134.5
 21
123.0
 31
0.0
  0
LINE
  5
60
  8
2
 10
145.0
 20
123.5
 30
0.0
 11
135.0
 21
123.5
 31
0.0
  0
LINE
  5
61
  8
2
 10
144.5
 20
139.0
 30
0.0
 11
144.5
 21
142.0
 31
0.0
  0
LINE
  5
62
  8
2
 10
144.5
 20
142.0
 30
0.0
 11
140.0
 21
144.0
 31
0.0
  0
LINE
  5
63
  8
2
 10
140.0
 20
144.0
 30
0.0
 11
135.5
 21
142.0
 31
0.0
  0
LINE
  5
64
  8
2
 10
135.5
 20
142.0
 30
0.0
 11
135.5
 21
139.0
 31
0.0
  0
LINE
  5
65
  8
2
 10
135.5
 20
142.0
 30
0.0
 11
144.5
 21
142.0
 31
0.0
  0
LINE
  5
66
  8
0
 10
140.0
 20
123.0
 30
0.0
 11
158.5
 21
123.0
 31
0.0
  0
LINE
  5
67
  8
0
 10
158.5
 20
123.0
 30
0.0
 11
158.5
 21
124.0
 31
0.0
  0
LINE
  5
68
  8
0
 10
159.998607
 20
147.998289
 30
0.0
 11
160.077425
 21
147.998289
 31
0.0
  0
LINE
  5
69
  8
0
 10
160.07672
 20
147.998032
 30
0.0
 11
160.288046
 21
147.417417
 31
0.0
  0
LINE
  5
6A
  8
0
 10
165.068551
 20
134.145302
 30
0.0
 11
165.068551
 21
134.171919
 31
0.0
  0
LINE
  5
6B
  8
0
 10
165.069073
 20
134.171666
 30
0.0
 11
164.356703
 21
136.128886
 31
0.0
  0
ARC
  5
6C
  8
0
 10
164.404294
 20
136.201657
 30
0.0
 40
0.087193
 50
211.89552
 51
236.995665
  0
LINE
  5
6D
  8
0
 10
114.97344
 20
134.196618
 30
0.0
 11
120.009822
 21
148.007082
 31
0.0
  0
LINE
  5
6E
  8
1
 10
56.107085
 20
191.0
 30
0.0
 11
56.107085
 21
121.0
 31
0.0
  0
LINE
  5
6F
  8
0
 10
56.107085
 20
123.0
 30
0.0
 11
74.607085
 21
123.0
 31
0.0
  0
LINE
  5
70
  8
0
 10
74.607085
 20
123.0
 30
0.0
 11
74.607085
 21
124.0
 31
0.0
  0
LINE
  5
71
  8
0
 10
56.107085
 20
123.0
 30
0.0
 11
37.607085
 21
123.0
 31
0.0
  0
LINE
  5
72
  8
0
 10
37.607085
 20
123.0
 30
0.0
 11
37.607085
 21
124.0
 31
0.0
  0
LINE
  5
73
  8
0
 10
56.107085
 20
124.0
 30
0.0
 11
81.107085
 21
124.0
 31
0.0
  0
LINE
  5
74
  8
0
 10
56.107085
 20
124.0
 30
0.0
 11
31.107085
 21
124.0
 31
0.0
  0
LINE
  5
75
  8
0
 10
115.0
 20
124.0
 30
0.0
 11
115.0
 21
134.220787
 31
0.0
  0
LINE
  5
76
  8
0
 10
165.081104
 20
134.226883
 30
0.0
 11
115.009903
 21
134.226883
 31
0.0
  0
LINE
  5
77
  8
0
 10
81.107085
 20
124.0
 30
0.0
 11
81.038542
 21
134.283984
 31
0.0
  0
LINE
  5
78
  8
0
 10
31.107085
 20
124.0
 30
0.0
 11
31.167068
 21
134.283984
 31
0.0
  0
LINE
  5
79
  8
0
 10
31.167068
 20
134.283984
 30
0.0
 11
81.038542
 21
134.283984
 31
0.0
  0
LINE
  5
7A
  8
0
 10
56.107085
 20
148.0
 30
0.0
 11
76.107085
 21
148.0
 31
0.0
  0
LINE
  5
7B
  8
0
 10
76.107085
 20
148.0
 30
0.0
 11
81.038542
 21
134.283984
 31
0.0
  0
LINE
  5
7C
  8
0
 10
56.107085
 20
148.0
 30
0.0
 11
36.107085
 21
148.0
 31
0.0
  0
LINE
  5
7D
  8
0
 10
36.107085
 20
148.0
 30
0.0
 11
31.167068
 21
134.283984
 31
0.0
  0
LINE
  5
7E
  8
2
 10
61.607085
 20
123.0
 30
0.0
 11
61.107085
 21
123.5
 31
0.0
  0
LINE
  5
7F
  8
2
 10
61.107085
 20
123.5
 30
0.0
 11
61.107085
 21
139.0
 31
0.0
  0
LINE
  5
80
  8
2
 10
61.107085
 20
139.0
 30
0.0
 11
51.107085
 21
139.0
 31
0.0
  0
LINE
  5
81
  8
2
 10
51.107085
 20
139.0
 30
0.0
 11
51.107085
 21
123.5
 31
0.0
  0
LINE
  5
82
  8
2
 10
51.107085
 20
123.5
 30
0.0
 11
50.607085
 21
123.0
 31
0.0
  0
LINE
  5
83
  8
2
 10
61.107085
 20
123.5
 30
0.0
 11
51.107085
 21
123.5
 31
0.0
  0
LINE
  5
84
  8
2
 10
60.607085
 20
139.0
 30
0.0
 11
60.607085
 21
142.0
 31
0.0
  0
LINE
  5
85
  8
2
 10
60.607085
 20
142.0
 30
0.0
 11
56.107085
 21
144.0
 31
0.0
  0
LINE
  5
86
  8
2
 10
56.107085
 20
144.0
 30
0.0
 11
51.607085
 21
142.0
 31
0.0
  0
LINE
  5
87
  8
2
 10
51.607085
 20
142.0
 30
0.0
 11
51.607085
 21
139.0
 31
0.0
  0
LINE
  5
88
  8
2
 10
51.607085
 20
142.0
 30
0.0
 11
60.607085
 21
142.0
 31
0.0
  0
ARC
  5
89
  8
0
 10
56.107085
 20
175.456522
 30
0.0
 40
12.543478
 50
4.771888
 51
175.228112
  0
ARC
  5
8A
  8
0
 10
56.107085
 20
153.398249
 30
0.0
 40
6.000863
 50
0.971554
 51
179.028446
  0
LINE
  5
8B
  8
0
 10
62.107085
 20
153.5
 30
0.0
 11
62.107085
 21
148.0
 31
0.0
  0
LINE
  5
8C
  8
0
 10
50.107085
 20
153.5
 30
0.0
 11
50.107085
 21
148.0
 31
0.0
  0
ARC
  5
8D
  8
0
 10
56.107085
 20
154.008621
 30
0.0
 40
8.491379
 50
314.958869
 51
225.041131
  0
ARC
  5
8E
  8
0
 10
56.107085
 20
153.866667
 30
0.0
 40
9.133333
 50
320.033787
 51
219.966213
  0
LINE
  5
8F
  8
0
 10
43.607085
 20
176.5
 30
0.0
 11
46.942925
 21
153.949486
 31
0.0
  0
LINE
  5
90
  8
0
 10
68.607085
 20
176.5
 30
0.0
 11
65.190947
 21
154.077911
 31
0.0
  0
LINE
  5
91
  8
1
 10
295.0
 20
191.0
 30
0.0
 11
295.0
 21
121.0
 31
0.0
  0
LINE
  5
92
  8
0
 10
295.0
 20
123.0
 30
0.0
 11
313.5
 21
123.0
 31
0.0
  0
LINE
  5
93
  8
0
 10
313.5
 20
123.0
 30
0.0
 11
313.5
 21
124.0
 31
0.0
  0
LINE
  5
94
  8
0
 10
295.0
 20
123.0
 30
0.0
 11
276.5
 21
123.0
 31
0.0
  0
LINE
  5
95
  8
0
 10
276.5
 20
123.0
 30
0.0
 11
276.5
 21
124.0
 31
0.0
  0
LINE
  5
96
  8
0
 10
295.0
 20
124.0
 30
0.0
 11
270.0
 21
124.0
 31
0.0
  0
LINE
  5
97
  8
0
 10
270.0
 20
124.0
 30
0.0
 11
270.0
 21
134.0
 31
0.0
  0
LINE
  5
98
  8
0
 10
295.0
 20
124.0
 30
0.0
 11
320.0
 21
124.0
 31
0.0
  0
LINE
  5
99
  8
0
 10
320.0
 20
124.0
 30
0.0
 11
320.0
 21
134.0
 31
0.0
  0
LINE
  5
9A
  8
0
 10
275.0
 20
148.0
 30
0.0
 11
269.969478
 21
134.135733
 31
0.0
  0
LINE
  5
9B
  8
0
 10
269.969478
 20
134.135733
 30
0.0
 11
269.969478
 21
133.449665
 31
0.0
  0
LINE
  5
9C
  8
0
 10
315.0
 20
148.0
 30
0.0
 11
320.084647
 21
134.135733
 31
0.0
  0
LINE
  5
9D
  8
0
 10
320.084647
 20
134.135733
 30
0.0
 11
320.084647
 21
130.705392
 31
0.0
  0
LINE
  5
9E
  8
0
 10
320.084647
 20
134.135733
 30
0.0
 11
269.969478
 21
134.135733
 31
0.0
  0
POLYLINE
  5
9F
  8
0
 66
     1
 10
0.0
 20
0.0
 30
0.0
 70
   129
  0
VERTEX
  5
16D
  8
0
 10
295.0
 20
188.0
 30
0.0
 42
0.093076
  0
VERTEX
  5
16E
  8
0
 10
290.179865
 20
187.094883
 30
0.0
 42
0.096081
  0
VERTEX
  5
16F
  8
0
 10
286.159398
 20
184.558505
 30
0.0
 42
0.10066
  0
VERTEX
  5
170
  8
0
 10
283.436912
 20
180.710712
 30
0.0
 42
0.104156
  0
VERTEX
  5
171
  8
0
 10
282.4975
 20
176.25
 30
0.0
 42
0.104156
  0
VERTEX
  5
172
  8
0
 10
283.436912
 20
171.789288
 30
0.0
 42
0.10066
  0
VERTEX
  5
173
  8
0
 10
286.159398
 20
167.941495
 30
0.0
 42
0.096081
  0
VERTEX
  5
174
  8
0
 10
290.179865
 20
165.405117
 30
0.0
 42
0.093076
  0
VERTEX
  5
175
  8
0
 10
295.0
 20
164.5
 30
0.0
 42
0.093076
  0
VERTEX
  5
176
  8
0
 10
299.820135
 20
165.405117
 30
0.0
 42
0.096081
  0
VERTEX
  5
177
  8
0
 10
303.840602
 20
167.941495
 30
0.0
 42
0.10066
  0
VERTEX
  5
178
  8
0
 10
306.563088
 20
171.789288
 30
0.0
 42
0.104156
  0
VERTEX
  5
179
  8
0
 10
307.5025
 20
176.25
 30
0.0
 42
0.104156
  0
VERTEX
  5
17A
  8
0
 10
306.563088
 20
180.710712
 30
0.0
 42
0.10066
  0
VERTEX
  5
17B
  8
0
 10
303.840602
 20
184.558505
 30
0.0
 42
0.096081
  0
VERTEX
  5
17C
  8
0
 10
299.820135
 20
187.094883
 30
0.0
 42
0.093076
  0
SEQEND
  5
17D
  8
0
  0
LINE
  5
B1
  8
0
 10
301.0
 20
141.5
 30
0.0
 11
301.0
 21
146.493128
 31
0.0
  0
LINE
  5
B2
  8
0
 10
289.0
 20
141.5
 30
0.0
 11
289.0
 21
146.0
 31
0.0
  0
LINE
  5
B3
  8
0
 10
307.5
 20
176.0
 30
0.0
 11
305.0
 21
153.0
 31
0.0
  0
LINE
  5
B4
  8
0
 10
282.5
 20
176.0
 30
0.0
 11
285.0
 21
153.0
 31
0.0
  0
LINE
  5
B5
  8
0
 10
285.1586
 20
151.818065
 30
0.0
 11
285.002679
 21
153.008989
 31
0.0
  0
POLYLINE
  5
B6
  8
0
 66
     1
 10
0.0
 20
0.0
 30
0.0
 70
   128
  0
VERTEX
  5
17E
  8
0
 10
285.15632
 20
151.806366
 30
0.0
 42
0.044292
  0
VERTEX
  5
17F
  8
0
 10
285.641049
 20
150.403667
 30
0.0
 42
0.101588
  0
VERTEX
  5
180
  8
0
 10
287.819784
 20
147.37578
 30
0.0
 42
0.094872
  0
VERTEX
  5
181
  8
0
 10
291.029041
 20
145.384214
 30
0.0
 42
0.090614
  0
VERTEX
  5
182
  8
0
 10
294.912643
 20
144.655444
 30
0.0
 42
0.090614
  0
VERTEX
  5
183
  8
0
 10
298.803009
 20
145.347194
 30
0.0
 42
0.094872
  0
VERTEX
  5
184
  8
0
 10
302.031088
 20
147.308105
 30
0.0
 42
0.101588
  0
VERTEX
  5
185
  8
0
 10
304.238561
 20
150.315105
 30
0.0
 42
0.044634
  0
VERTEX
  5
186
  8
0
 10
304.739489
 20
151.724192
 30
0.0
 42
0.064855
  0
SEQEND
  5
187
  8
0
  0
LINE
  5
C1
  8
0
 10
304.740599
 20
151.726782
 30
0.0
 11
304.997196
 21
153.00894
 31
0.0
  0
LINE
  5
C2
  8
0
 10
287.217644
 20
148.0
 30
0.0
 11
275.0
 21
148.0
 31
0.0
  0
LINE
  5
C3
  8
0
 10
302.738376
 20
148.0
 30
0.0
 11
315.0
 21
148.0
 31
0.0
  0
LINE
  5
C4
  8
0
 10
288.999536
 20
145.997712
 30
0.0
 11
288.999536
 21
146.440399
 31
0.0
  0
LINE
  5
C5
  8
0
 10
289.004777
 20
141.398457
 30
0.0
 11
289.001516
 21
141.502783
 31
0.0
  0
POLYLINE
  5
C6
  8
0
 66
     1
 10
0.0
 20
0.0
 30
0.0
 70
   128
  0
VERTEX
  5
188
  8
0
 10
289.005818
 20
141.401577
 30
0.0
 42
0.086472
  0
VERTEX
  5
189
  8
0
 10
289.447831
 20
139.561713
 30
0.0
 42
0.100036
  0
VERTEX
  5
18A
  8
0
 10
290.753678
 20
137.684136
 30
0.0
 42
0.096829
  0
VERTEX
  5
18B
  8
0
 10
292.689808
 20
136.441399
 30
0.0
 42
0.094677
  0
VERTEX
  5
18C
  8
0
 10
295.0
 20
136.0
 30
0.0
 42
0.094677
  0
VERTEX
  5
18D
  8
0
 10
297.310192
 20
136.441399
 30
0.0
 42
0.096829
  0
VERTEX
  5
18E
  8
0
 10
299.246322
 20
137.684136
 30
0.0
 42
0.100036
  0
VERTEX
  5
18F
  8
0
 10
300.552169
 20
139.561713
 30
0.0
 42
0.089089
  0
VERTEX
  5
190
  8
0
 10
300.997505
 20
141.458741
 30
0.0
 42
0.034914
  0
SEQEND
  5
191
  8
0
  0
LINE
  5
D1
  8
0
 10
300.997761
 20
141.461596
 30
0.0
 11
301.000631
 21
141.579224
 31
0.0
  0
LINE
  5
D2
  8
2
 10
300.5
 20
123.0
 30
0.0
 11
300.0
 21
123.5
 31
0.0
  0
LINE
  5
D3
  8
2
 10
300.0
 20
123.5
 30
0.0
 11
300.0
 21
139.0
 31
0.0
  0
LINE
  5
D4
  8
2
 10
300.0
 20
139.0
 30
0.0
 11
290.0
 21
139.0
 31
0.0
  0
LINE
  5
D5
  8
2
 10
290.0
 20
139.0
 30
0.0
 11
290.0
 21
123.5
 31
0.0
  0
LINE
  5
D6
  8
2
 10
290.0
 20
123.5
 30
0.0
 11
289.5
 21
123.0
 31
0.0
  0
LINE
  5
D7
  8
2
 10
290.0
 20
123.5
 30
0.0
 11
300.0
 21
123.5
 31
0.0
  0
LINE
  5
D8
  8
2
 10
299.5
 20
139.0
 30
0.0
 11
299.5
 21
142.0
 31
0.0
  0
LINE
  5
D9
  8
2
 10
299.5
 20
142.0
 30
0.0
 11
295.0
 21
144.0
 31
0.0
  0
LINE
  5
DA
  8
2
 10
295.0
 20
144.0
 30
0.0
 11
290.5
 21
142.0
 31
0.0
  0
LINE
  5
DB
  8
2
 10
290.5
 20
142.0
 30
0.0
 11
290.5
 21
139.0
 31
0.0
  0
LINE
  5
DC
  8
2
 10
290.5
 20
142.0
 30
0.0
 11
299.5
 21
142.0
 31
0.0
  0
LINE
  5
DD
  8
1
 10
110.0
 20
225.0
 30
0.0
 11
269.0
 21
225.0
 31
0.0
  0
LINE
  5
DE
  8
1
 10
140.0
 20
255.0
 30
0.0
 11
140.0
 21
197.5
 31
0.0
  0
CIRCLE
  5
DF
  8
0
 10
140.0
 20
225.0
 30
0.0
 40
20.0
  0
ARC
  5
E0
  8
0
 10
204.821429
 20
225.0
 30
0.0
 40
13.321429
 50
137.498989
 51
222.501011
  0
POLYLINE
  5
E1
  8
0
 66
     1
 10
0.0
 20
0.0
 30
0.0
 70
   129
  0
VERTEX
  5
192
  8
0
 10
253.0
 20
225.0
 30
0.0
 42
0.047022
  0
VERTEX
  5
193
  8
0
 10
253.47902
 20
219.91774
 30
0.0
 42
0.060701
  0
VERTEX
  5
194
  8
0
 10
254.684136
 20
216.14527
 30
0.0
 42
0.101945
  0
VERTEX
  5
195
  8
0
 10
256.839233
 20
213.212011
 30
0.0
 42
0.185579
  0
VERTEX
  5
196
  8
0
 10
258.75
 20
212.47752
 30
0.0
 42
0.185579
  0
VERTEX
  5
197
  8
0
 10
260.660767
 20
213.212011
 30
0.0
 42
0.101945
  0
VERTEX
  5
198
  8
0
 10
262.815864
 20
216.14527
 30
0.0
 42
0.060701
  0
VERTEX
  5
199
  8
0
 10
264.02098
 20
219.91774
 30
0.0
 42
0.047022
  0
VERTEX
  5
19A
  8
0
 10
264.5
 20
225.0
 30
0.0
 42
0.047022
  0
VERTEX
  5
19B
  8
0
 10
264.02098
 20
230.08226
 30
0.0
 42
0.060701
  0
VERTEX
  5
19C
  8
0
 10
262.815864
 20
233.85473
 30
0.0
 42
0.101945
  0
VERTEX
  5
19D
  8
0
 10
260.660767
 20
236.787989
 30
0.0
 42
0.185579
  0
VERTEX
  5
19E
  8
0
 10
258.75
 20
237.52248
 30
0.0
 42
0.185579
  0
VERTEX
  5
19F
  8
0
 10
256.839233
 20
236.787989
 30
0.0
 42
0.101945
  0
VERTEX
  5
1A0
  8
0
 10
254.684136
 20
233.85473
 30
0.0
 42
0.060701
  0
VERTEX
  5
1A1
  8
0
 10
253.47902
 20
230.08226
 30
0.0
 42
0.047022
  0
SEQEND
  5
1A2
  8
0
  0
LINE
  5
F3
  8
0
 10
161.5
 20
231.0
 30
0.0
 11
193.0
 21
231.0
 31
0.0
  0
LINE
  5
F4
  8
0
 10
161.5
 20
219.0
 30
0.0
 11
193.0
 21
219.0
 31
0.0
  0
ARC
  5
F5
  8
0
 10
179.0
 20
225.0
 30
0.0
 40
18.5
 50
161.075356
 51
198.924644
  0
LINE
  5
F6
  8
0
 10
258.0
 20
237.5
 30
0.0
 11
195.0
 21
234.0
 31
0.0
  0
LINE
  5
F7
  8
0
 10
258.0
 20
212.5
 30
0.0
 11
195.0
 21
216.0
 31
0.0
  0
ARC
  5
F8
  8
0
 10
140.0
 20
225.0
 30
0.0
 40
25.0
 50
14.036243
 51
346.111563
  0
LINE
  5
F9
  8
0
 10
257.997292
 20
237.50177
 30
0.0
 11
258.715707
 21
237.519425
 31
0.0
  0
LINE
  5
FA
  8
0
 10
257.999685
 20
212.502673
 30
0.0
 11
258.731716
 21
212.477662
 31
0.0
  0
LINE
  5
FB
  8
1
 10
112.0
 20
72.0
 30
0.0
 11
270.0
 21
72.0
 31
0.0
  0
LINE
  5
FC
  8
1
 10
140.0
 20
100.0
 30
0.0
 11
140.0
 21
41.5
 31
0.0
  0
CIRCLE
  5
FD
  8
0
 10
140.0
 20
72.0
 30
0.0
 40
25.0
  0
CIRCLE
  5
FE
  8
0
 10
140.0
 20
72.0
 30
0.0
 40
20.0
  0
CIRCLE
  5
FF
  8
0
 10
140.0
 20
72.0
 30
0.0
 40
5.0
  0
LINE
  5
100
  8
0
 10
195.0
 20
78.0
 30
0.0
 11
164.5
 21
78.0
 31
0.0
  0
LINE
  5
101
  8
0
 10
164.506617
 20
77.998503
 30
0.0
 11
164.244279
 21
77.998503
 31
0.0
  0
LINE
  5
102
  8
0
 10
164.506043
 20
65.999093
 30
0.0
 11
164.243473
 21
65.999093
 31
0.0
  0
POLYLINE
  5
103
  8
0
 66
     1
 10
0.0
 20
0.0
 30
0.0
 70
   128
  0
VERTEX
  5
1A3
  8
0
 10
198.5
 20
72.0
 30
0.0
 42
0.039949
  0
VERTEX
  5
1A4
  8
0
 10
198.206083
 20
75.672783
 30
0.0
 42
0.052844
  0
VERTEX
  5
1A5
  8
0
 10
197.474874
 20
78.363961
 30
0.0
 42
0.09604
  0
VERTEX
  5
1A6
  8
0
 10
196.118576
 20
80.515878
 30
0.0
 42
0.207118
  0
VERTEX
  5
1A7
  8
0
 10
195.0
 20
81.0
 30
0.0
 42
0.207118
  0
VERTEX
  5
1A8
  8
0
 10
193.881424
 20
80.515878
 30
0.0
 42
0.09604
  0
VERTEX
  5
1A9
  8
0
 10
192.525126
 20
78.363961
 30
0.0
 42
0.007482
  0
VERTEX
  5
1AA
  8
0
 10
192.387167
 20
77.992863
 30
0.0
 42
0.039949
  0
SEQEND
  5
1AB
  8
0
  0
POLYLINE
  5
10D
  8
0
 66
     1
 10
0.0
 20
0.0
 30
0.0
 70
   128
  0
VERTEX
  5
1AC
  8
0
 10
192.389763
 20
65.999826
 30
0.0
 42
0.007335
  0
VERTEX
  5
1AD
  8
0
 10
192.525126
 20
65.636039
 30
0.0
 42
0.09604
  0
VERTEX
  5
1AE
  8
0
 10
193.881424
 20
63.484122
 30
0.0
 42
0.207118
  0
VERTEX
  5
1AF
  8
0
 10
195.0
 20
63.0
 30
0.0
 42
0.207118
  0
VERTEX
  5
1B0
  8
0
 10
196.118576
 20
63.484122
 30
0.0
 42
0.09604
  0
VERTEX
  5
1B1
  8
0
 10
197.474874
 20
65.636039
 30
0.0
 42
0.052844
  0
VERTEX
  5
1B2
  8
0
 10
198.206083
 20
68.327217
 30
0.0
 42
0.039949
  0
VERTEX
  5
1B3
  8
0
 10
198.5
 20
72.0
 30
0.0
 42
0.039949
  0
SEQEND
  5
1B4
  8
0
  0
POLYLINE
  5
117
  8
0
 66
     1
 10
0.0
 20
0.0
 30
0.0
 70
   128
  0
VERTEX
  5
1B5
  8
0
 10
196.784416
 20
72.015313
 30
0.0
 42
0.037024
  0
VERTEX
  5
1B6
  8
0
 10
196.624827
 20
74.463569
 30
0.0
 42
0.049424
  0
VERTEX
  5
1B7
  8
0
 10
196.191277
 20
76.251663
 30
0.0
 42
0.092749
  0
VERTEX
  5
1B8
  8
0
 10
195.356815
 20
77.703655
 30
0.0
 42
0.04105
  0
VERTEX
  5
1B9
  8
0
 10
195.252698
 20
77.807101
 30
0.0
 42
0.023423
  0
SEQEND
  5
1BA
  8
0
  0
LINE
  5
11E
  8
0
 10
195.252887
 20
77.806945
 30
0.0
 11
195.000932
 21
77.999851
 31
0.0
  0
POLYLINE
  5
11F
  8
0
 66
     1
 10
0.0
 20
0.0
 30
0.0
 70
   128
  0
VERTEX
  5
1BB
  8
0
 10
195.23151
 20
66.327259
 30
0.0
 42
0.009905
  0
VERTEX
  5
1BC
  8
0
 10
195.255538
 20
66.353351
 30
0.0
 42
0.092749
  0
VERTEX
  5
1BD
  8
0
 10
196.115777
 20
67.790222
 30
0.0
 42
0.049424
  0
VERTEX
  5
1BE
  8
0
 10
196.581165
 20
69.570295
 30
0.0
 42
0.037024
  0
VERTEX
  5
1BF
  8
0
 10
196.784416
 20
72.015313
 30
0.0
 42
0.037024
  0
SEQEND
  5
1C0
  8
0
  0
LINE
  5
126
  8
0
 10
194.761931
 20
66.0
 30
0.0
 11
164.5
 21
66.0
 31
0.0
  0
ARC
  5
127
  8
0
 10
194.465447
 20
66.93063
 30
0.0
 40
0.976509
 50
287.765002
 51
321.702499
  0
LINE
  5
128
  8
0
 10
258.559576
 20
84.632289
 30
0.0
 11
194.96752
 21
80.962158
 31
0.0
  0
LINE
  5
129
  8
0
 10
258.559576
 20
59.424287
 30
0.0
 11
194.870877
 21
62.997835
 31
0.0
  0
LINE
  5
12A
  8
0
 10
259.118673
 20
84.60128
 30
0.0
 11
258.55552
 21
84.635183
 31
0.0
  0
POLYLINE
  5
12B
  8
0
 66
     1
 10
0.0
 20
0.0
 30
0.0
 70
   128
  0
VERTEX
  5
1C1
  8
0
 10
259.94127
 20
59.601144
 30
0.0
 42
0.081787
  0
VERTEX
  5
1C2
  8
0
 10
260.86267
 20
60.145221
 30
0.0
 42
0.103975
  0
VERTEX
  5
1C3
  8
0
 10
263.169417
 20
63.074965
 30
0.0
 42
0.064458
  0
VERTEX
  5
1C4
  8
0
 10
264.48167
 20
66.893138
 30
0.0
 42
0.050618
  0
VERTEX
  5
1C5
  8
0
 10
265.0
 20
72.0
 30
0.0
 42
0.050618
  0
VERTEX
  5
1C6
  8
0
 10
264.48167
 20
77.106862
 30
0.0
 42
0.064458
  0
VERTEX
  5
1C7
  8
0
 10
263.169417
 20
80.925035
 30
0.0
 42
0.103975
  0
VERTEX
  5
1C8
  8
0
 10
260.86267
 20
83.854779
 30
0.0
 42
0.146508
  0
VERTEX
  5
1C9
  8
0
 10
259.126904
 20
84.600263
 30
0.0
 42
0.128764
  0
SEQEND
  5
1CA
  8
0
  0
ARC
  5
136
  8
0
 10
258.66979
 20
64.184514
 30
0.0
 40
4.759533
 50
268.665158
 51
285.508329
  0
TEXT
  5
137
  8
0
 10
316.537975
 20
2.260568
 30
0.0
 40
6.0
  1
MLE01103
 41
0.8
  7
BIGFONT
  0
ENDSEC
  0
EOF
