  0
SECTION
  2
HEADER
  9
$ACADVER
  1
AC1009
  9
$INSBASE
 10
0.0
 20
0.0
 30
0.0
  9
$EXTMIN
 10
0.0
 20
0.0
 30
0.0
  9
$EXTMAX
 10
375.0
 20
270.0
 30
0.0
  9
$LIMMIN
 10
0.0
 20
0.0
  9
$LIMMAX
 10
375.0
 20
270.0
  9
$ORTHOMODE
 70
     0
  9
$REGENMODE
 70
     1
  9
$FILLMODE
 70
     1
  9
$QTEXTMODE
 70
     0
  9
$MIRRTEXT
 70
     1
  9
$DRAGMODE
 70
     1
  9
$LTSCALE
 40
10.0
  9
$OSMODE
 70
     0
  9
$ATTMODE
 70
     1
  9
$TEXTSIZE
 40
6.0
  9
$TRACEWID
 40
0.05
  9
$TEXTSTYLE
  7
BIGFONT
  9
$CLAYER
  8
0
  9
$CELTYPE
  6
BYLAYER
  9
$CECOLOR
 62
   256
  9
$DIMSCALE
 40
1.0
  9
$DIMASZ
 40
3.0
  9
$DIMEXO
 40
2.0
  9
$DIMDLI
 40
0.38
  9
$DIMRND
 40
0.0
  9
$DIMDLE
 40
0.0
  9
$DIMEXE
 40
2.0
  9
$DIMTP
 40
0.0
  9
$DIMTM
 40
0.0
  9
$DIMTXT
 40
3.2
  9
$DIMCEN
 40
0.0
  9
$DIMTSZ
 40
0.0
  9
$DIMTOL
 70
     0
  9
$DIMLIM
 70
     0
  9
$DIMTIH
 70
     0
  9
$DIMTOH
 70
     0
  9
$DIMSE1
 70
     0
  9
$DIMSE2
 70
     0
  9
$DIMTAD
 70
     1
  9
$DIMZIN
 70
     0
  9
$DIMBLK
  1

  9
$DIMASO
 70
     0
  9
$DIMSHO
 70
     0
  9
$DIMPOST
  1

  9
$DIMAPOST
  1

  9
$DIMALT
 70
     0
  9
$DIMALTD
 70
     2
  9
$DIMALTF
 40
25.4
  9
$DIMLFAC
 40
1.0
  9
$DIMTOFL
 70
     0
  9
$DIMTVP
 40
1.6
  9
$DIMTIX
 70
     1
  9
$DIMSOXD
 70
     0
  9
$DIMSAH
 70
     0
  9
$DIMBLK1
  1

  9
$DIMBLK2
  1

  9
$DIMSTYLE
  2
STANDARD
  9
$DIMCLRD
 70
     0
  9
$DIMCLRE
 70
     0
  9
$DIMCLRT
 70
     0
  9
$DIMTFAC
 40
1.0
  9
$DIMGAP
 40
0.09
  9
$LUNITS
 70
     2
  9
$LUPREC
 70
     1
  9
$SKETCHINC
 40
0.1
  9
$FILLETRAD
 40
0.0
  9
$AUNITS
 70
     0
  9
$AUPREC
 70
     0
  9
$MENU
  1
ACAD
  9
$ELEVATION
 40
0.0
  9
$PELEVATION
 40
0.0
  9
$THICKNESS
 40
0.0
  9
$LIMCHECK
 70
     0
  9
$BLIPMODE
 70
     0
  9
$CHAMFERA
 40
0.0
  9
$CHAMFERB
 40
0.0
  9
$SKPOLY
 70
     0
  9
$TDCREATE
 40
2450683.608125
  9
$TDUPDATE
 40
2450683.608125
  9
$TDINDWG
 40
0.0
  9
$TDUSRTIMER
 40
0.0
  9
$USRTIMER
 70
     1
  9
$ANGBASE
 50
0.0
  9
$ANGDIR
 70
     0
  9
$PDMODE
 70
     0
  9
$PDSIZE
 40
0.0
  9
$PLINEWID
 40
0.0
  9
$COORDS
 70
     2
  9
$SPLFRAME
 70
     0
  9
$SPLINETYPE
 70
     6
  9
$SPLINESEGS
 70
     8
  9
$ATTDIA
 70
     0
  9
$ATTREQ
 70
     1
  9
$HANDLING
 70
     1
  9
$HANDSEED
  5
1DB
  9
$SURFTAB1
 70
     6
  9
$SURFTAB2
 70
     6
  9
$SURFTYPE
 70
     6
  9
$SURFU
 70
     6
  9
$SURFV
 70
     6
  9
$UCSNAME
  2

  9
$UCSORG
 10
0.0
 20
0.0
 30
0.0
  9
$UCSXDIR
 10
1.0
 20
0.0
 30
0.0
  9
$UCSYDIR
 10
0.0
 20
1.0
 30
0.0
  9
$PUCSNAME
  2

  9
$PUCSORG
 10
0.0
 20
0.0
 30
0.0
  9
$PUCSXDIR
 10
1.0
 20
0.0
 30
0.0
  9
$PUCSYDIR
 10
0.0
 20
1.0
 30
0.0
  9
$USERI1
 70
     0
  9
$USERI2
 70
     0
  9
$USERI3
 70
     0
  9
$USERI4
 70
     0
  9
$USERI5
 70
     0
  9
$USERR1
 40
0.0
  9
$USERR2
 40
0.0
  9
$USERR3
 40
0.0
  9
$USERR4
 40
0.0
  9
$USERR5
 40
0.0
  9
$WORLDVIEW
 70
     1
  9
$SHADEDGE
 70
     3
  9
$SHADEDIF
 70
    70
  9
$TILEMODE
 70
     1
  9
$MAXACTVP
 70
    16
  9
$PLIMCHECK
 70
     0
  9
$PEXTMIN
 10
1.000000E+020
 20
1.000000E+020
 30
1.000000E+020
  9
$PEXTMAX
 10
-1.000000E+020
 20
-1.000000E+020
 30
-1.000000E+020
  9
$PLIMMIN
 10
0.0
 20
0.0
  9
$PLIMMAX
 10
12.0
 20
9.0
  9
$UNITMODE
 70
     0
  9
$VISRETAIN
 70
     0
  9
$PLINEGEN
 70
   353
  9
$PSLTSCALE
 70
     0
  0
ENDSEC
  0
SECTION
  2
TABLES
  0
TABLE
  2
VPORT
 70
     3
  0
VPORT
  2
*ACTIVE
 70
     0
 10
0.0
 20
0.0
 11
1.0
 21
1.0
 12
221.738433
 22
164.770061
 13
0.0
 23
0.0
 14
0.5
 24
0.5
 15
1.0
 25
1.0
 16
0.0
 26
0.0
 36
1.0
 17
0.0
 27
0.0
 37
0.0
 40
329.540122
 41
1.345745
 42
50.0
 43
0.0
 44
0.0
 50
0.0
 51
0.0
 71
     0
 72
   500
 73
     1
 74
     1
 75
     0
 76
     0
 77
     0
 78
     0
  0
ENDTAB
  0
TABLE
  2
LTYPE
 70
     3
  0
LTYPE
  2
CONTINUOUS
 70
     0
  3
実線
 72
    65
 73
     0
 40
0.0
  0
LTYPE
  2
CENTER
 70
     0
  3
____ _ ____ _ ____ _ ____ _ ____ _ ____ _ ____
 72
    65
 73
     4
 40
2.0
 49
1.25
 49
-0.25
 49
0.25
 49
-0.25
  0
LTYPE
  2
HIDDEN
 70
     0
  3
_ _ _ _ _ _ _ _ _ _ _ _ _ _ _ _ _ _ _ _ _ _ _
 72
    65
 73
     2
 40
0.375
 49
0.25
 49
-0.125
  0
ENDTAB
  0
TABLE
  2
LAYER
 70
     5
  0
LAYER
  2
0
 70
     0
 62
     7
  6
CONTINUOUS
  0
LAYER
  2
1
 70
     0
 62
     1
  6
CENTER
  0
LAYER
  2
10
 70
     0
 62
     7
  6
CONTINUOUS
  0
LAYER
  2
11
 70
     0
 62
     3
  6
CONTINUOUS
  0
LAYER
  2
2
 70
     0
 62
     2
  6
HIDDEN
  0
ENDTAB
  0
TABLE
  2
STYLE
 70
     3
  0
STYLE
  2
STANDARD
 70
     0
 40
0.0
 41
1.0
 50
0.0
 71
     0
 42
0.2
  3
TXT
  4
BIGFONT
  0
STYLE
  2
07500
 70
     0
 40
0.0
 41
0.75
 50
0.0
 71
     0
 42
0.2
  3
TXT
  4
BIGFONT
  0
STYLE
  2
BIGFONT
 70
     0
 40
6.0
 41
0.8
 50
0.0
 71
     0
 42
6.0
  3

  4
bigfont
  0
ENDTAB
  0
TABLE
  2
VIEW
 70
     1
  0
VIEW
  2
ALL
 70
     0
 40
270.0
 10
220.991597
 20
135.0
 41
0.0
 11
0.0
 21
0.0
 31
1.0
 12
0.0
 22
0.0
 32
0.0
 42
0.0
 43
0.0
 44
0.0
 50
0.0
 71
     0
  0
ENDTAB
  0
TABLE
  2
UCS
 70
     0
  0
ENDTAB
  0
TABLE
  2
APPID
 70
     1
  0
APPID
  2
ACAD
 70
     0
  0
ENDTAB
  0
TABLE
  2
DIMSTYLE
 70
     1
  0
DIMSTYLE
  2
STANDARD
 70
     0
  3

  4

  5

  6

  7

 40
1.0
 41
0.18
 42
0.0625
 43
0.38
 44
0.18
 45
0.0
 46
0.0
 47
0.0
 48
0.0
140
0.18
141
0.09
142
0.0
143
25.4
144
1.0
145
0.0
146
1.0
147
0.09
 71
     0
 72
     0
 73
     1
 74
     1
 75
     0
 76
     0
 77
     0
 78
     0
170
     0
171
     2
172
     0
173
     0
174
     0
175
     0
176
     0
177
     0
178
     0
  0
ENDTAB
  0
ENDSEC
  0
SECTION
  2
BLOCKS
  0
BLOCK
  8
0
  2
$MODEL_SPACE
 70
     0
 10
0.0
 20
0.0
 30
0.0
  3
$MODEL_SPACE
  1

  0
ENDBLK
  5
16B
  8
0
  0
BLOCK
 67
     1
  8
0
  2
$PAPER_SPACE
 70
     0
 10
0.0
 20
0.0
 30
0.0
  3
$PAPER_SPACE
  1

  0
ENDBLK
  5
169
 67
     1
  8
0
  0
BLOCK
  8
0
  2
WAKU
 70
     0
 10
549.0
 20
0.0
 30
0.0
  3
WAKU
  1

  0
LINE
  5
2E
  8
11
 10
452.0
 20
12.0
 30
0.0
 11
549.0
 21
12.0
 31
0.0
  0
LINE
  5
2F
  8
11
 10
477.0
 20
0.0
 30
0.0
 11
477.0
 21
12.0
 31
0.0
  0
LINE
  5
30
  8
11
 10
452.0
 20
12.0
 30
0.0
 11
452.0
 21
0.0
 31
0.0
  0
TEXT
  5
31
  8
11
 10
454.0
 20
8.5
 30
0.0
 40
2.5
  1
尺度
  0
TEXT
  5
32
  8
11
 10
479.0
 20
8.5
 30
0.0
 40
2.5
  1
図番
  0
ENDBLK
  5
33
  8
0
  0
BLOCK
  8
0
  2
QQ
 70
     0
 10
270.0
 20
0.0
 30
0.0
  3
QQ
  1

  0
LINE
  5
35
  8
11
 10
173.0
 20
36.0
 30
0.0
 11
270.0
 21
36.0
 31
0.0
  0
TEXT
  5
36
  8
11
 10
175.0
 20
32.5
 30
0.0
 40
2.5
  1
部品名称
  0
LINE
  5
37
  8
11
 10
173.0
 20
36.0
 30
0.0
 11
173.0
 21
0.0
 31
0.0
  0
LINE
  5
38
  8
11
 10
173.0
 20
24.0
 30
0.0
 11
270.0
 21
24.0
 31
0.0
  0
TEXT
  5
39
  8
11
 10
175.0
 20
20.5
 30
0.0
 40
2.5
  1
品番
  0
LINE
  5
3A
  8
11
 10
173.0
 20
12.0
 30
0.0
 11
270.0
 21
12.0
 31
0.0
  0
TEXT
  5
3B
  8
11
 10
175.0
 20
8.5
 30
0.0
 40
2.5
  1
尺度
  0
TEXT
  5
3C
  8
11
 10
200.0
 20
8.5
 30
0.0
 40
2.5
  1
図番
  0
LINE
  5
3D
  8
11
 10
198.0
 20
0.0
 30
0.0
 11
198.0
 21
12.0
 31
0.0
  0
ENDBLK
  5
3E
  8
0
  0
ENDSEC
  0
SECTION
  2
ENTITIES
  0
TEXT
  5
3F
  8
11
 10
280.0
 20
1.0
 30
0.0
 40
4.0
  1
1/1
  0
INSERT
  5
40
  8
0
  2
QQ
 10
375.0
 20
0.0
 30
0.0
  0
LINE
  5
41
  8
10
 10
0.0
 20
270.0
 30
0.0
 11
0.0
 21
0.0
 31
0.0
  0
LINE
  5
42
  8
10
 10
375.0
 20
270.0
 30
0.0
 11
0.0
 21
270.0
 31
0.0
  0
LINE
  5
43
  8
10
 10
375.0
 20
0.0
 30
0.0
 11
375.0
 21
270.0
 31
0.0
  0
LINE
  5
44
  8
10
 10
0.0
 20
0.0
 30
0.0
 11
375.0
 21
0.0
 31
0.0
  0
TEXT
  5
45
  8
11
 10
280.0
 20
25.0
 30
0.0
 40
6.0
  1
スウィッチ・レバー
 41
0.75
  7
07500
  0
TEXT
  5
46
  8
11
 10
288.909899
 20
13.176369
 30
0.0
 40
6.0
  1
ＳＬ－１００
 41
0.8
  7
BIGFONT
  0
LINE
  5
47
  8
1
 10
138.486969
 20
149.969094
 30
0.0
 11
138.486969
 21
119.969094
 31
0.0
  0
LINE
  5
48
  8
0
 10
154.986969
 20
122.969094
 30
0.0
 11
154.986969
 21
123.969094
 31
0.0
  0
LINE
  5
49
  8
0
 10
121.986969
 20
122.969094
 30
0.0
 11
121.986969
 21
123.969094
 31
0.0
  0
LINE
  5
4A
  8
0
 10
138.486969
 20
144.969094
 30
0.0
 11
156.486969
 21
144.969094
 31
0.0
  0
LINE
  5
4B
  8
0
 10
154.986969
 20
123.969094
 30
0.0
 11
160.986969
 21
123.969094
 31
0.0
  0
LINE
  5
4C
  8
0
 10
121.986969
 20
123.969094
 30
0.0
 11
115.986969
 21
123.969094
 31
0.0
  0
LINE
  5
4D
  8
1
 10
138.541458
 20
132.271801
 30
0.0
 11
239.558415
 21
169.038966
 31
0.0
  0
ARC
  5
4E
  8
0
 10
224.053487
 20
163.395634
 30
0.0
 40
14.5
 50
336.397181
 51
63.602819
  0
LINE
  5
4F
  8
0
 10
176.681926
 20
154.667218
 30
0.0
 11
182.154249
 21
139.632136
 31
0.0
  0
LINE
  5
50
  8
0
 10
176.681926
 20
154.667218
 30
0.0
 11
177.279599
 21
155.948931
 31
0.0
  0
LINE
  5
51
  8
0
 10
177.279599
 20
155.948931
 30
0.0
 11
230.500058
 21
176.383771
 31
0.0
  0
LINE
  5
52
  8
0
 10
182.154249
 20
139.632136
 30
0.0
 11
183.435961
 21
139.034463
 31
0.0
  0
LINE
  5
53
  8
0
 10
183.435961
 20
139.034463
 30
0.0
 11
237.340461
 21
157.589919
 31
0.0
  0
LINE
  5
54
  8
0
 10
177.776057
 20
151.843523
 30
0.0
 11
156.786484
 21
144.203944
 31
0.0
  0
LINE
  5
55
  8
0
 10
181.167804
 20
142.524776
 30
0.0
 11
160.100805
 21
134.857016
 31
0.0
  0
LINE
  5
56
  8
0
 10
116.0
 20
124.0
 30
0.0
 11
116.0
 21
132.5
 31
0.0
  0
LINE
  5
57
  8
0
 10
161.0
 20
124.0
 30
0.0
 11
161.0
 21
132.5
 31
0.0
  0
LINE
  5
58
  8
0
 10
156.5
 20
145.0
 30
0.0
 11
156.786588
 21
144.203923
 31
0.0
  0
LINE
  5
59
  8
0
 10
160.149946
 20
134.861261
 30
0.0
 11
161.0
 21
132.5
 31
0.0
  0
ARC
  5
5A
  8
0
 10
180.207817
 20
147.325074
 30
0.0
 40
23.619095
 50
187.602965
 51
211.824805
  0
LINE
  5
5B
  8
2
 10
144.0
 20
123.0
 30
0.0
 11
143.5
 21
123.5
 31
0.0
  0
LINE
  5
5C
  8
2
 10
143.5
 20
123.5
 30
0.0
 11
143.5
 21
137.0
 31
0.0
  0
LINE
  5
5D
  8
2
 10
143.5
 20
137.0
 30
0.0
 11
143.0
 21
137.0
 31
0.0
  0
LINE
  5
5E
  8
2
 10
143.0
 20
137.0
 30
0.0
 11
143.0
 21
139.5
 31
0.0
  0
LINE
  5
5F
  8
2
 10
143.0
 20
139.5
 30
0.0
 11
138.5
 21
141.0
 31
0.0
  0
LINE
  5
60
  8
2
 10
138.5
 20
141.0
 30
0.0
 11
134.0
 21
139.5
 31
0.0
  0
LINE
  5
61
  8
2
 10
134.0
 20
139.5
 30
0.0
 11
134.0
 21
137.0
 31
0.0
  0
LINE
  5
62
  8
2
 10
134.0
 20
137.0
 30
0.0
 11
133.5
 21
137.0
 31
0.0
  0
LINE
  5
63
  8
2
 10
133.5
 20
137.0
 30
0.0
 11
133.5
 21
123.5
 31
0.0
  0
LINE
  5
64
  8
2
 10
133.5
 20
123.5
 30
0.0
 11
133.0
 21
123.0
 31
0.0
  0
LINE
  5
65
  8
0
 10
138.5
 20
145.0
 30
0.0
 11
120.5
 21
145.0
 31
0.0
  0
LINE
  5
66
  8
0
 10
120.5
 20
145.0
 30
0.0
 11
116.0
 21
132.5
 31
0.0
  0
LINE
  5
67
  8
0
 10
161.0
 20
132.5
 30
0.0
 11
138.5
 21
132.5
 31
0.0
  0
LINE
  5
68
  8
0
 10
138.5
 20
132.5
 30
0.0
 11
116.0
 21
132.5
 31
0.0
  0
LINE
  5
69
  8
0
 10
155.0
 20
124.0
 30
0.0
 11
138.5
 21
124.0
 31
0.0
  0
LINE
  5
6A
  8
0
 10
138.5
 20
124.0
 30
0.0
 11
122.0
 21
124.0
 31
0.0
  0
LINE
  5
6B
  8
0
 10
155.0
 20
123.0
 30
0.0
 11
138.5
 21
123.0
 31
0.0
  0
LINE
  5
6C
  8
0
 10
138.5
 20
123.0
 30
0.0
 11
122.0
 21
123.0
 31
0.0
  0
LINE
  5
6D
  8
2
 10
143.0
 20
139.5
 30
0.0
 11
138.5
 21
139.5
 31
0.0
  0
LINE
  5
6E
  8
2
 10
138.5
 20
139.5
 30
0.0
 11
134.0
 21
139.5
 31
0.0
  0
LINE
  5
6F
  8
2
 10
142.5
 20
137.0
 30
0.0
 11
138.5
 21
137.0
 31
0.0
  0
LINE
  5
70
  8
2
 10
138.5
 20
137.0
 30
0.0
 11
134.0
 21
137.0
 31
0.0
  0
LINE
  5
71
  8
2
 10
143.5
 20
123.5
 30
0.0
 11
138.5
 21
123.5
 31
0.0
  0
LINE
  5
72
  8
2
 10
138.5
 20
123.5
 30
0.0
 11
133.5
 21
123.5
 31
0.0
  0
LINE
  5
73
  8
0
 10
60.555573
 20
145.0
 30
0.0
 11
78.555573
 21
145.0
 31
0.0
  0
LINE
  5
74
  8
0
 10
60.555573
 20
132.5
 30
0.0
 11
83.055573
 21
132.5
 31
0.0
  0
LINE
  5
75
  8
0
 10
83.055573
 20
132.5
 30
0.0
 11
83.055573
 21
124.0
 31
0.0
  0
LINE
  5
76
  8
0
 10
83.055573
 20
124.0
 30
0.0
 11
60.555573
 21
124.0
 31
0.0
  0
LINE
  5
77
  8
0
 10
60.555573
 20
123.0
 30
0.0
 11
77.055573
 21
123.0
 31
0.0
  0
LINE
  5
78
  8
0
 10
77.055573
 20
123.0
 30
0.0
 11
77.055573
 21
124.0
 31
0.0
  0
LINE
  5
79
  8
0
 10
83.055573
 20
132.5
 30
0.0
 11
78.555573
 21
145.0
 31
0.0
  0
LINE
  5
7A
  8
0
 10
60.555573
 20
145.0
 30
0.0
 11
42.555573
 21
145.0
 31
0.0
  0
LINE
  5
7B
  8
0
 10
60.555573
 20
123.0
 30
0.0
 11
44.055573
 21
123.0
 31
0.0
  0
LINE
  5
7C
  8
0
 10
44.055573
 20
123.0
 30
0.0
 11
44.055573
 21
124.0
 31
0.0
  0
LINE
  5
7D
  8
0
 10
60.555573
 20
124.0
 30
0.0
 11
38.055573
 21
124.0
 31
0.0
  0
LINE
  5
7E
  8
0
 10
38.055573
 20
124.0
 30
0.0
 11
38.055573
 21
132.5
 31
0.0
  0
LINE
  5
7F
  8
0
 10
38.055573
 20
132.5
 30
0.0
 11
60.555573
 21
132.5
 31
0.0
  0
LINE
  5
80
  8
0
 10
38.055573
 20
132.5
 30
0.0
 11
42.555573
 21
145.0
 31
0.0
  0
LINE
  5
81
  8
1
 10
60.555573
 20
120.0
 30
0.0
 11
60.555573
 21
180.0
 31
0.0
  0
LINE
  5
82
  8
2
 10
66.055573
 20
123.0
 30
0.0
 11
65.555573
 21
124.0
 31
0.0
  0
LINE
  5
83
  8
2
 10
65.555573
 20
124.0
 30
0.0
 11
65.555573
 21
137.0
 31
0.0
  0
LINE
  5
84
  8
2
 10
65.555573
 20
137.0
 30
0.0
 11
55.555573
 21
137.0
 31
0.0
  0
LINE
  5
85
  8
2
 10
55.555573
 20
137.0
 30
0.0
 11
55.555573
 21
123.5
 31
0.0
  0
LINE
  5
86
  8
2
 10
55.555573
 20
123.5
 30
0.0
 11
55.055573
 21
123.0
 31
0.0
  0
LINE
  5
87
  8
2
 10
55.555573
 20
123.5
 30
0.0
 11
65.555573
 21
123.5
 31
0.0
  0
LINE
  5
88
  8
2
 10
65.055573
 20
137.0
 30
0.0
 11
65.055573
 21
139.5
 31
0.0
  0
LINE
  5
89
  8
2
 10
65.055573
 20
139.5
 30
0.0
 11
60.555573
 21
141.0
 31
0.0
  0
LINE
  5
8A
  8
2
 10
60.555573
 20
141.0
 30
0.0
 11
56.055573
 21
139.5
 31
0.0
  0
LINE
  5
8B
  8
2
 10
56.055573
 20
139.5
 30
0.0
 11
56.055573
 21
137.0
 31
0.0
  0
LINE
  5
8C
  8
2
 10
56.055573
 20
139.5
 30
0.0
 11
65.055573
 21
139.5
 31
0.0
  0
ARC
  5
8D
  8
0
 10
60.555573
 20
165.583333
 30
0.0
 40
10.416667
 50
16.260205
 51
163.739795
  0
LINE
  5
8E
  8
0
 10
70.555573
 20
168.5
 30
0.0
 11
68.555573
 21
147.0
 31
0.0
  0
LINE
  5
8F
  8
0
 10
52.555573
 20
147.0
 30
0.0
 11
50.555573
 21
169.0
 31
0.0
  0
LINE
  5
90
  8
0
 10
65.507077
 20
147.358137
 30
0.0
 11
65.507077
 21
144.990183
 31
0.0
  0
LINE
  5
91
  8
0
 10
55.512194
 20
147.315083
 30
0.0
 11
55.512194
 21
144.990183
 31
0.0
  0
POLYLINE
  5
92
  8
0
 66
     1
 10
0.0
 20
0.0
 30
0.0
 70
   128
  0
VERTEX
  5
171
  8
0
 10
68.26632
 20
145.002323
 30
0.0
 42
0.072022
  0
VERTEX
  5
172
  8
0
 10
68.555573
 20
147.0
 30
0.0
 42
0.104386
  0
VERTEX
  5
173
  8
0
 10
67.954794
 20
149.846325
 30
0.0
 42
0.100741
  0
VERTEX
  5
174
  8
0
 10
66.212427
 20
152.303301
 30
0.0
 42
0.095981
  0
VERTEX
  5
175
  8
0
 10
63.640715
 20
153.922006
 30
0.0
 42
0.092866
  0
VERTEX
  5
176
  8
0
 10
60.555573
 20
154.5
 30
0.0
 42
0.092866
  0
SEQEND
  5
177
  8
0
  0
POLYLINE
  5
9A
  8
0
 66
     1
 10
0.0
 20
0.0
 30
0.0
 70
   128
  0
VERTEX
  5
178
  8
0
 10
60.555573
 20
154.5
 30
0.0
 42
0.092866
  0
VERTEX
  5
179
  8
0
 10
57.470431
 20
153.922006
 30
0.0
 42
0.095981
  0
VERTEX
  5
17A
  8
0
 10
54.898719
 20
152.303301
 30
0.0
 42
0.100741
  0
VERTEX
  5
17B
  8
0
 10
53.156352
 20
149.846325
 30
0.0
 42
0.104386
  0
VERTEX
  5
17C
  8
0
 10
52.555573
 20
147.0
 30
0.0
 42
0.0724
  0
VERTEX
  5
17D
  8
0
 10
52.847837
 20
144.992172
 30
0.0
 42
0.100741
  0
SEQEND
  5
17E
  8
0
  0
POLYLINE
  5
A2
  8
0
 66
     1
 10
0.0
 20
0.0
 30
0.0
 70
   128
  0
VERTEX
  5
17F
  8
0
 10
65.492493
 20
147.2724
 30
0.0
 42
0.006347
  0
VERTEX
  5
180
  8
0
 10
65.493742
 20
147.37078
 30
0.0
 42
0.110491
  0
VERTEX
  5
181
  8
0
 10
65.124309
 20
149.022144
 30
0.0
 42
0.102679
  0
VERTEX
  5
182
  8
0
 10
64.031628
 20
150.475057
 30
0.0
 42
0.09327
  0
VERTEX
  5
183
  8
0
 10
62.44048
 20
151.418777
 30
0.0
 42
0.087556
  0
VERTEX
  5
184
  8
0
 10
60.501772
 20
151.760891
 30
0.0
 42
0.087556
  0
SEQEND
  5
185
  8
0
  0
POLYLINE
  5
AA
  8
0
 66
     1
 10
0.0
 20
0.0
 30
0.0
 70
   128
  0
VERTEX
  5
186
  8
0
 10
60.501772
 20
151.760891
 30
0.0
 42
0.087556
  0
VERTEX
  5
187
  8
0
 10
58.563065
 20
151.418777
 30
0.0
 42
0.09327
  0
VERTEX
  5
188
  8
0
 10
56.971917
 20
150.475057
 30
0.0
 42
0.102679
  0
VERTEX
  5
189
  8
0
 10
55.879236
 20
149.022144
 30
0.0
 42
0.110491
  0
VERTEX
  5
18A
  8
0
 10
55.509803
 20
147.37078
 30
0.0
 42
0.022987
  0
VERTEX
  5
18B
  8
0
 10
55.526168
 20
147.014995
 30
0.0
 42
0.102679
  0
SEQEND
  5
18C
  8
0
  0
LINE
  5
B2
  8
2
 10
295.189473
 20
137.0
 30
0.0
 11
295.189473
 21
123.5
 31
0.0
  0
LINE
  5
B3
  8
2
 10
305.189473
 20
124.0
 30
0.0
 11
305.189473
 21
137.0
 31
0.0
  0
LINE
  5
B4
  8
1
 10
300.189473
 20
120.0
 30
0.0
 11
300.189473
 21
180.0
 31
0.0
  0
LINE
  5
B5
  8
0
 10
277.689473
 20
132.5
 30
0.0
 11
282.189473
 21
145.0
 31
0.0
  0
LINE
  5
B6
  8
0
 10
322.689473
 20
132.5
 30
0.0
 11
318.189473
 21
145.0
 31
0.0
  0
LINE
  5
B7
  8
0
 10
277.689473
 20
132.5
 30
0.0
 11
300.189473
 21
132.5
 31
0.0
  0
LINE
  5
B8
  8
0
 10
300.189473
 20
124.0
 30
0.0
 11
277.689473
 21
124.0
 31
0.0
  0
LINE
  5
B9
  8
0
 10
300.189473
 20
123.0
 30
0.0
 11
283.689473
 21
123.0
 31
0.0
  0
LINE
  5
BA
  8
0
 10
277.689473
 20
124.0
 30
0.0
 11
277.689473
 21
132.5
 31
0.0
  0
LINE
  5
BB
  8
0
 10
283.689473
 20
123.0
 30
0.0
 11
283.689473
 21
124.0
 31
0.0
  0
LINE
  5
BC
  8
0
 10
300.189473
 20
123.0
 30
0.0
 11
316.689473
 21
123.0
 31
0.0
  0
LINE
  5
BD
  8
0
 10
322.689473
 20
124.0
 30
0.0
 11
300.189473
 21
124.0
 31
0.0
  0
LINE
  5
BE
  8
0
 10
300.189473
 20
132.5
 30
0.0
 11
322.689473
 21
132.5
 31
0.0
  0
LINE
  5
BF
  8
2
 10
295.189473
 20
123.5
 30
0.0
 11
305.189473
 21
123.5
 31
0.0
  0
LINE
  5
C0
  8
2
 10
295.189473
 20
123.5
 30
0.0
 11
294.689473
 21
123.0
 31
0.0
  0
LINE
  5
C1
  8
2
 10
305.689473
 20
123.0
 30
0.0
 11
305.189473
 21
124.0
 31
0.0
  0
LINE
  5
C2
  8
0
 10
322.689473
 20
132.5
 30
0.0
 11
322.689473
 21
124.0
 31
0.0
  0
LINE
  5
C3
  8
0
 10
316.689473
 20
123.0
 30
0.0
 11
316.689473
 21
124.0
 31
0.0
  0
LINE
  5
C4
  8
0
 10
292.189473
 20
147.0
 30
0.0
 11
290.189473
 21
169.0
 31
0.0
  0
LINE
  5
C5
  8
0
 10
310.189473
 20
168.5
 30
0.0
 11
308.189473
 21
147.0
 31
0.0
  0
LINE
  5
C6
  8
2
 10
295.689473
 20
139.5
 30
0.0
 11
304.689473
 21
139.5
 31
0.0
  0
LINE
  5
C7
  8
2
 10
300.189473
 20
141.0
 30
0.0
 11
295.689473
 21
139.5
 31
0.0
  0
LINE
  5
C8
  8
2
 10
305.189473
 20
137.0
 30
0.0
 11
295.189473
 21
137.0
 31
0.0
  0
LINE
  5
C9
  8
2
 10
295.689473
 20
139.5
 30
0.0
 11
295.689473
 21
137.0
 31
0.0
  0
LINE
  5
CA
  8
2
 10
304.689473
 20
139.5
 30
0.0
 11
300.189473
 21
141.0
 31
0.0
  0
LINE
  5
CB
  8
2
 10
304.689473
 20
137.0
 30
0.0
 11
304.689473
 21
139.5
 31
0.0
  0
ARC
  5
CC
  8
0
 10
300.189473
 20
165.583333
 30
0.0
 40
10.416667
 50
16.260205
 51
163.739795
  0
LINE
  5
CD
  8
0
 10
305.198105
 20
139.32484
 30
0.0
 11
305.198105
 21
141.366507
 31
0.0
  0
LINE
  5
CE
  8
0
 10
295.17778
 20
139.081784
 30
0.0
 11
295.17778
 21
141.269285
 31
0.0
  0
POLYLINE
  5
CF
  8
0
 66
     1
 10
0.0
 20
0.0
 30
0.0
 70
   128
  0
VERTEX
  5
18D
  8
0
 10
292.217771
 20
147.391714
 30
0.0
 42
0.011504
  0
VERTEX
  5
18E
  8
0
 10
292.21056
 20
147.078312
 30
0.0
 42
0.105831
  0
VERTEX
  5
18F
  8
0
 10
292.807601
 20
144.289185
 30
0.0
 42
0.101235
  0
VERTEX
  5
190
  8
0
 10
294.547081
 20
141.870766
 30
0.0
 42
0.095347
  0
VERTEX
  5
191
  8
0
 10
297.106144
 20
140.282865
 30
0.0
 42
0.091564
  0
VERTEX
  5
192
  8
0
 10
300.187943
 20
139.713729
 30
0.0
 42
0.091564
  0
VERTEX
  5
193
  8
0
 10
303.269741
 20
140.282865
 30
0.0
 42
0.095347
  0
VERTEX
  5
194
  8
0
 10
305.828804
 20
141.870766
 30
0.0
 42
0.101235
  0
VERTEX
  5
195
  8
0
 10
307.568284
 20
144.289185
 30
0.0
 42
0.105831
  0
VERTEX
  5
196
  8
0
 10
308.165325
 20
147.078312
 30
0.0
 42
0.011504
  0
VERTEX
  5
197
  8
0
 10
308.158114
 20
147.391714
 30
0.0
 42
0.05701
  0
SEQEND
  5
198
  8
0
  0
POLYLINE
  5
DC
  8
0
 66
     1
 10
0.0
 20
0.0
 30
0.0
 70
   128
  0
VERTEX
  5
199
  8
0
 10
295.183763
 20
139.096652
 30
0.0
 42
0.09176
  0
VERTEX
  5
19A
  8
0
 10
295.553494
 20
137.555337
 30
0.0
 42
0.100951
  0
VERTEX
  5
19B
  8
0
 10
296.645223
 20
136.025009
 30
0.0
 42
0.095715
  0
VERTEX
  5
19C
  8
0
 10
298.254379
 20
135.018238
 30
0.0
 42
0.092316
  0
VERTEX
  5
19D
  8
0
 10
300.187943
 20
134.658174
 30
0.0
 42
0.092316
  0
VERTEX
  5
19E
  8
0
 10
302.121506
 20
135.018238
 30
0.0
 42
0.095715
  0
VERTEX
  5
19F
  8
0
 10
303.730662
 20
136.025009
 30
0.0
 42
0.100951
  0
VERTEX
  5
1A0
  8
0
 10
304.822391
 20
137.555337
 30
0.0
 42
0.104993
  0
VERTEX
  5
1A1
  8
0
 10
305.198105
 20
139.32484
 30
0.0
 42
0.025318
  0
VERTEX
  5
1A2
  8
0
 10
305.175801
 20
139.765016
 30
0.0
 42
0.100951
  0
SEQEND
  5
1A3
  8
0
  0
LINE
  5
E8
  8
0
 10
295.177863
 20
141.265206
 30
0.0
 11
295.177863
 21
141.343117
 31
0.0
  0
LINE
  5
E9
  8
0
 10
318.206046
 20
145.0
 30
0.0
 11
307.799929
 21
145.0
 31
0.0
  0
LINE
  5
EA
  8
0
 10
282.206046
 20
145.0
 30
0.0
 11
292.573577
 21
145.0
 31
0.0
  0
LINE
  5
EB
  8
1
 10
112.0
 20
214.945206
 30
0.0
 11
243.0
 21
214.945206
 31
0.0
  0
LINE
  5
EC
  8
1
 10
138.5
 20
241.445206
 30
0.0
 11
138.5
 21
188.945206
 31
0.0
  0
CIRCLE
  5
ED
  8
0
 10
138.5
 20
214.945206
 30
0.0
 40
18.0
  0
ARC
  5
EE
  8
0
 10
224.0
 20
214.945206
 30
0.0
 40
14.5
 50
316.397181
 51
43.602819
  0
LINE
  5
EF
  8
0
 10
234.5
 20
224.945206
 30
0.0
 11
179.5
 21
222.945206
 31
0.0
  0
LINE
  5
F0
  8
0
 10
234.5
 20
204.945206
 30
0.0
 11
179.5
 21
206.945206
 31
0.0
  0
LINE
  5
F1
  8
0
 10
158.656958
 20
219.930825
 30
0.0
 11
177.481792
 21
219.930825
 31
0.0
  0
LINE
  5
F2
  8
0
 10
158.606758
 20
209.997696
 30
0.0
 11
177.481792
 21
209.997696
 31
0.0
  0
POLYLINE
  5
F3
  8
0
 66
     1
 10
0.0
 20
0.0
 30
0.0
 70
   128
  0
VERTEX
  5
1A4
  8
0
 10
179.489729
 20
222.94515
 30
0.0
 42
0.232467
  0
VERTEX
  5
1A5
  8
0
 10
178.742085
 20
222.567591
 30
0.0
 42
0.086075
  0
VERTEX
  5
1A6
  8
0
 10
177.732233
 20
220.60206
 30
0.0
 42
0.043567
  0
VERTEX
  5
1A7
  8
0
 10
177.211495
 20
218.226638
 30
0.0
 42
0.032193
  0
VERTEX
  5
1A8
  8
0
 10
177.0
 20
214.945206
 30
0.0
 42
0.032193
  0
SEQEND
  5
1A9
  8
0
  0
POLYLINE
  5
FA
  8
0
 66
     1
 10
0.0
 20
0.0
 30
0.0
 70
   128
  0
VERTEX
  5
1AA
  8
0
 10
177.0
 20
214.945206
 30
0.0
 42
0.032193
  0
VERTEX
  5
1AB
  8
0
 10
177.211495
 20
211.663773
 30
0.0
 42
0.043567
  0
VERTEX
  5
1AC
  8
0
 10
177.732233
 20
209.288351
 30
0.0
 42
0.086075
  0
VERTEX
  5
1AD
  8
0
 10
178.742085
 20
207.32282
 30
0.0
 42
0.218745
  0
VERTEX
  5
1AE
  8
0
 10
179.440181
 20
206.947092
 30
0.0
 42
0.235319
  0
SEQEND
  5
1AF
  8
0
  0
POLYLINE
  5
101
  8
0
 66
     1
 10
0.0
 20
0.0
 30
0.0
 70
   128
  0
VERTEX
  5
1B0
  8
0
 10
158.606768
 20
219.9305
 30
0.0
 42
0.202389
  0
VERTEX
  5
1B1
  8
0
 10
158.033921
 20
219.667541
 30
0.0
 42
0.094977
  0
VERTEX
  5
1B2
  8
0
 10
157.300741
 20
218.476196
 30
0.0
 42
0.051688
  0
VERTEX
  5
1B3
  8
0
 10
156.907621
 20
216.992521
 30
0.0
 42
0.038951
  0
VERTEX
  5
1B4
  8
0
 10
156.749374
 20
214.96426
 30
0.0
 42
0.038951
  0
SEQEND
  5
1B5
  8
0
  0
POLYLINE
  5
108
  8
0
 66
     1
 10
0.0
 20
0.0
 30
0.0
 70
   128
  0
VERTEX
  5
1B6
  8
0
 10
156.749374
 20
214.96426
 30
0.0
 42
0.038951
  0
VERTEX
  5
1B7
  8
0
 10
156.907621
 20
212.935999
 30
0.0
 42
0.051688
  0
VERTEX
  5
1B8
  8
0
 10
157.300741
 20
211.452324
 30
0.0
 42
0.094977
  0
VERTEX
  5
1B9
  8
0
 10
158.033921
 20
210.260979
 30
0.0
 42
0.210459
  0
VERTEX
  5
1BA
  8
0
 10
158.631858
 20
209.997632
 30
0.0
 42
0.023166
  0
VERTEX
  5
1BB
  8
0
 10
158.70684
 20
210.001108
 30
0.0
 42
0.094977
  0
SEQEND
  5
1BC
  8
0
  0
ARC
  5
110
  8
0
 10
138.539831
 20
214.914003
 30
0.0
 40
22.5
 50
12.986553
 51
347.308311
  0
LINE
  5
111
  8
1
 10
112.0
 20
67.0
 30
0.0
 11
243.0
 21
67.0
 31
0.0
  0
LINE
  5
112
  8
1
 10
138.5
 20
93.5
 30
0.0
 11
138.5
 21
41.0
 31
0.0
  0
ARC
  5
113
  8
0
 10
224.0
 20
67.0
 30
0.0
 40
14.5
 50
316.397181
 51
43.602819
  0
CIRCLE
  5
114
  8
0
 10
138.438086
 20
67.05351
 30
0.0
 40
5.0
  0
CIRCLE
  5
115
  8
0
 10
138.438086
 20
67.05351
 30
0.0
 40
16.5
  0
CIRCLE
  5
116
  8
0
 10
138.438086
 20
67.05351
 30
0.0
 40
22.5
  0
LINE
  5
117
  8
0
 10
160.447986
 20
72.153977
 30
0.0
 11
179.427537
 21
72.153977
 31
0.0
  0
LINE
  5
118
  8
0
 10
179.427537
 20
62.112433
 30
0.0
 11
160.447986
 21
62.112433
 31
0.0
  0
POLYLINE
  5
119
  8
0
 66
     1
 10
0.0
 20
0.0
 30
0.0
 70
   128
  0
VERTEX
  5
1BD
  8
0
 10
180.523635
 20
67.113691
 30
0.0
 42
0.022926
  0
VERTEX
  5
1BE
  8
0
 10
180.429109
 20
69.174193
 30
0.0
 42
0.031697
  0
VERTEX
  5
1BF
  8
0
 10
180.198595
 20
70.648882
 30
0.0
 42
0.068485
  0
VERTEX
  5
1C0
  8
0
 10
179.724402
 20
71.927313
 30
0.0
 42
0.276449
  0
VERTEX
  5
1C1
  8
0
 10
179.413881
 20
72.113206
 30
0.0
 42
0.012492
  0
VERTEX
  5
1C2
  8
0
 10
179.396287
 20
72.112766
 30
0.0
 42
0.042452
  0
SEQEND
  5
1C3
  8
0
  0
POLYLINE
  5
121
  8
0
 66
     1
 10
0.0
 20
0.0
 30
0.0
 70
   128
  0
VERTEX
  5
1C4
  8
0
 10
179.431476
 20
62.114617
 30
0.0
 42
0.263049
  0
VERTEX
  5
1C5
  8
0
 10
179.724402
 20
62.30007
 30
0.0
 42
0.068485
  0
VERTEX
  5
1C6
  8
0
 10
180.198595
 20
63.578501
 30
0.0
 42
0.031697
  0
VERTEX
  5
1C7
  8
0
 10
180.429109
 20
65.05319
 30
0.0
 42
0.022926
  0
VERTEX
  5
1C8
  8
0
 10
180.523635
 20
67.113691
 30
0.0
 42
0.022926
  0
SEQEND
  5
1C9
  8
0
  0
POLYLINE
  5
128
  8
0
 66
     1
 10
0.0
 20
0.0
 30
0.0
 70
   128
  0
VERTEX
  5
1CA
  8
0
 10
177.547195
 20
62.108586
 30
0.0
 42
0.012424
  0
VERTEX
  5
1CB
  8
0
 10
177.735869
 20
61.418238
 30
0.0
 42
0.084072
  0
VERTEX
  5
1CC
  8
0
 10
178.709239
 20
59.45056
 30
0.0
 42
0.240393
  0
VERTEX
  5
1CD
  8
0
 10
179.427538
 20
59.084031
 30
0.0
 42
0.240393
  0
VERTEX
  5
1CE
  8
0
 10
180.145836
 20
59.45056
 30
0.0
 42
0.084072
  0
VERTEX
  5
1CF
  8
0
 10
181.119206
 20
61.418238
 30
0.0
 42
0.042006
  0
VERTEX
  5
1D0
  8
0
 10
181.617315
 20
63.782198
 30
0.0
 42
0.030937
  0
VERTEX
  5
1D1
  8
0
 10
181.819918
 20
67.05351
 30
0.0
 42
0.030937
  0
VERTEX
  5
1D2
  8
0
 10
181.617315
 20
70.324822
 30
0.0
 42
0.042006
  0
VERTEX
  5
1D3
  8
0
 10
181.119206
 20
72.688783
 30
0.0
 42
0.084072
  0
VERTEX
  5
1D4
  8
0
 10
180.145836
 20
74.65646
 30
0.0
 42
0.240393
  0
VERTEX
  5
1D5
  8
0
 10
179.427538
 20
75.022989
 30
0.0
 42
0.240393
  0
VERTEX
  5
1D6
  8
0
 10
178.709239
 20
74.65646
 30
0.0
 42
0.084072
  0
VERTEX
  5
1D7
  8
0
 10
177.735869
 20
72.688783
 30
0.0
 42
0.009861
  0
VERTEX
  5
1D8
  8
0
 10
177.583291
 20
72.141549
 30
0.0
 42
0.030937
  0
SEQEND
  5
1D9
  8
0
  0
LINE
  5
139
  8
0
 10
234.527586
 20
76.890657
 30
0.0
 11
179.392712
 21
74.990676
 31
0.0
  0
LINE
  5
13A
  8
0
 10
234.527586
 20
57.099185
 30
0.0
 11
179.471929
 21
59.078333
 31
0.0
  0
TEXT
  5
13B
  8
0
 10
316.107602
 20
2.260568
 30
0.0
 40
6.0
  1
MLE01102
 41
0.8
  7
BIGFONT
  0
ENDSEC
  0
EOF
