  0
SECTION
  2
HEADER
  9
$ACADVER
  1
AC1009
  9
$INSBASE
 10
0.0
 20
0.0
 30
0.0
  9
$EXTMIN
 10
0.0
 20
0.0
 30
0.0
  9
$EXTMAX
 10
375.0
 20
270.0
 30
0.0
  9
$LIMMIN
 10
0.0
 20
0.0
  9
$LIMMAX
 10
375.0
 20
270.0
  9
$ORTHOMODE
 70
     0
  9
$REGENMODE
 70
     1
  9
$FILLMODE
 70
     1
  9
$QTEXTMODE
 70
     0
  9
$MIRRTEXT
 70
     1
  9
$DRAGMODE
 70
     1
  9
$LTSCALE
 40
10.0
  9
$OSMODE
 70
     0
  9
$ATTMODE
 70
     1
  9
$TEXTSIZE
 40
5.5
  9
$TRACEWID
 40
0.05
  9
$TEXTSTYLE
  7
BIGFONT
  9
$CLAYER
  8
0
  9
$CELTYPE
  6
BYLAYER
  9
$CECOLOR
 62
   256
  9
$DIMSCALE
 40
1.0
  9
$DIMASZ
 40
3.0
  9
$DIMEXO
 40
2.0
  9
$DIMDLI
 40
0.38
  9
$DIMRND
 40
0.0
  9
$DIMDLE
 40
0.0
  9
$DIMEXE
 40
2.0
  9
$DIMTP
 40
0.0
  9
$DIMTM
 40
0.0
  9
$DIMTXT
 40
3.2
  9
$DIMCEN
 40
0.0
  9
$DIMTSZ
 40
0.0
  9
$DIMTOL
 70
     0
  9
$DIMLIM
 70
     0
  9
$DIMTIH
 70
     0
  9
$DIMTOH
 70
     0
  9
$DIMSE1
 70
     0
  9
$DIMSE2
 70
     0
  9
$DIMTAD
 70
     1
  9
$DIMZIN
 70
     0
  9
$DIMBLK
  1

  9
$DIMASO
 70
     0
  9
$DIMSHO
 70
     0
  9
$DIMPOST
  1

  9
$DIMAPOST
  1

  9
$DIMALT
 70
     0
  9
$DIMALTD
 70
     2
  9
$DIMALTF
 40
25.4
  9
$DIMLFAC
 40
1.0
  9
$DIMTOFL
 70
     0
  9
$DIMTVP
 40
1.6
  9
$DIMTIX
 70
     1
  9
$DIMSOXD
 70
     0
  9
$DIMSAH
 70
     0
  9
$DIMBLK1
  1

  9
$DIMBLK2
  1

  9
$DIMSTYLE
  2
STANDARD
  9
$DIMCLRD
 70
     0
  9
$DIMCLRE
 70
     0
  9
$DIMCLRT
 70
     0
  9
$DIMTFAC
 40
1.0
  9
$DIMGAP
 40
0.09
  9
$LUNITS
 70
     2
  9
$LUPREC
 70
     4
  9
$SKETCHINC
 40
0.1
  9
$FILLETRAD
 40
0.0
  9
$AUNITS
 70
     0
  9
$AUPREC
 70
     0
  9
$MENU
  1
ACAD
  9
$ELEVATION
 40
0.0
  9
$PELEVATION
 40
0.0
  9
$THICKNESS
 40
0.0
  9
$LIMCHECK
 70
     0
  9
$BLIPMODE
 70
     0
  9
$CHAMFERA
 40
0.0
  9
$CHAMFERB
 40
0.0
  9
$SKPOLY
 70
     0
  9
$TDCREATE
 40
2450683.604201
  9
$TDUPDATE
 40
2450683.604201
  9
$TDINDWG
 40
0.0
  9
$TDUSRTIMER
 40
0.0
  9
$USRTIMER
 70
     1
  9
$ANGBASE
 50
0.0
  9
$ANGDIR
 70
     0
  9
$PDMODE
 70
     0
  9
$PDSIZE
 40
0.0
  9
$PLINEWID
 40
0.0
  9
$COORDS
 70
     2
  9
$SPLFRAME
 70
     0
  9
$SPLINETYPE
 70
     6
  9
$SPLINESEGS
 70
     8
  9
$ATTDIA
 70
     0
  9
$ATTREQ
 70
     1
  9
$HANDLING
 70
     1
  9
$HANDSEED
  5
B8
  9
$SURFTAB1
 70
     6
  9
$SURFTAB2
 70
     6
  9
$SURFTYPE
 70
     6
  9
$SURFU
 70
     6
  9
$SURFV
 70
     6
  9
$UCSNAME
  2

  9
$UCSORG
 10
0.0
 20
0.0
 30
0.0
  9
$UCSXDIR
 10
1.0
 20
0.0
 30
0.0
  9
$UCSYDIR
 10
0.0
 20
1.0
 30
0.0
  9
$PUCSNAME
  2

  9
$PUCSORG
 10
0.0
 20
0.0
 30
0.0
  9
$PUCSXDIR
 10
1.0
 20
0.0
 30
0.0
  9
$PUCSYDIR
 10
0.0
 20
1.0
 30
0.0
  9
$USERI1
 70
     0
  9
$USERI2
 70
     0
  9
$USERI3
 70
     0
  9
$USERI4
 70
     0
  9
$USERI5
 70
     0
  9
$USERR1
 40
0.0
  9
$USERR2
 40
0.0
  9
$USERR3
 40
0.0
  9
$USERR4
 40
0.0
  9
$USERR5
 40
0.0
  9
$WORLDVIEW
 70
     1
  9
$SHADEDGE
 70
     3
  9
$SHADEDIF
 70
    70
  9
$TILEMODE
 70
     1
  9
$MAXACTVP
 70
    16
  9
$PLIMCHECK
 70
     0
  9
$PEXTMIN
 10
1.000000E+020
 20
1.000000E+020
 30
1.000000E+020
  9
$PEXTMAX
 10
-1.000000E+020
 20
-1.000000E+020
 30
-1.000000E+020
  9
$PLIMMIN
 10
0.0
 20
0.0
  9
$PLIMMAX
 10
12.0
 20
9.0
  9
$UNITMODE
 70
     0
  9
$VISRETAIN
 70
     0
  9
$PLINEGEN
 70
   152
  9
$PSLTSCALE
 70
     0
  0
ENDSEC
  0
SECTION
  2
TABLES
  0
TABLE
  2
VPORT
 70
     3
  0
VPORT
  2
*ACTIVE
 70
     0
 10
0.0
 20
0.0
 11
1.0
 21
1.0
 12
221.738433
 22
163.817312
 13
0.0
 23
0.0
 14
0.5
 24
0.5
 15
1.0
 25
1.0
 16
0.0
 26
0.0
 36
1.0
 17
0.0
 27
0.0
 37
0.0
 40
327.634624
 41
1.353571
 42
50.0
 43
0.0
 44
0.0
 50
0.0
 51
0.0
 71
     0
 72
   500
 73
     1
 74
     1
 75
     0
 76
     0
 77
     0
 78
     1
  0
ENDTAB
  0
TABLE
  2
LTYPE
 70
     3
  0
LTYPE
  2
CONTINUOUS
 70
     0
  3
実線
 72
    65
 73
     0
 40
0.0
  0
LTYPE
  2
CENTER
 70
     0
  3
____ _ ____ _ ____ _ ____ _ ____ _ ____ _ ____
 72
    65
 73
     4
 40
2.0
 49
1.25
 49
-0.25
 49
0.25
 49
-0.25
  0
LTYPE
  2
TENSEN1
 70
     0
  3

 72
    65
 73
     2
 40
0.4
 49
0.3
 49
-0.1
  0
ENDTAB
  0
TABLE
  2
LAYER
 70
     5
  0
LAYER
  2
0
 70
     0
 62
     7
  6
CONTINUOUS
  0
LAYER
  2
1
 70
     0
 62
     1
  6
CENTER
  0
LAYER
  2
3
 70
     0
 62
     2
  6
TENSEN1
  0
LAYER
  2
10
 70
     0
 62
     7
  6
CONTINUOUS
  0
LAYER
  2
11
 70
     0
 62
     3
  6
CONTINUOUS
  0
ENDTAB
  0
TABLE
  2
STYLE
 70
     3
  0
STYLE
  2
STANDARD
 70
     0
 40
0.0
 41
1.0
 50
0.0
 71
     0
 42
0.2
  3
TXT
  4
BIGFONT
  0
STYLE
  2
07500
 70
     0
 40
0.0
 41
0.75
 50
0.0
 71
     0
 42
6.0
  3
TXT
  4
BIGFONT
  0
STYLE
  2
BIGFONT
 70
     0
 40
5.5
 41
0.8
 50
0.0
 71
     0
 42
5.5
  3

  4
bigfont
  0
ENDTAB
  0
TABLE
  2
VIEW
 70
     1
  0
VIEW
  2
ALL
 70
     0
 40
270.0
 10
220.991597
 20
135.0
 41
0.0
 11
0.0
 21
0.0
 31
1.0
 12
0.0
 22
0.0
 32
0.0
 42
0.0
 43
0.0
 44
0.0
 50
0.0
 71
     0
  0
ENDTAB
  0
TABLE
  2
UCS
 70
     0
  0
ENDTAB
  0
TABLE
  2
APPID
 70
     1
  0
APPID
  2
ACAD
 70
     0
  0
ENDTAB
  0
TABLE
  2
DIMSTYLE
 70
     1
  0
DIMSTYLE
  2
STANDARD
 70
     0
  3

  4

  5

  6

  7

 40
1.0
 41
0.18
 42
0.0625
 43
0.38
 44
0.18
 45
0.0
 46
0.0
 47
0.0
 48
0.0
140
0.18
141
0.09
142
0.0
143
25.4
144
1.0
145
0.0
146
1.0
147
0.09
 71
     0
 72
     0
 73
     1
 74
     1
 75
     0
 76
     0
 77
     0
 78
     0
170
     0
171
     2
172
     0
173
     0
174
     0
175
     0
176
     0
177
     0
178
     0
  0
ENDTAB
  0
ENDSEC
  0
SECTION
  2
BLOCKS
  0
BLOCK
  8
0
  2
$MODEL_SPACE
 70
     0
 10
0.0
 20
0.0
 30
0.0
  3
$MODEL_SPACE
  1

  0
ENDBLK
  5
B1
  8
0
  0
BLOCK
 67
     1
  8
0
  2
$PAPER_SPACE
 70
     0
 10
0.0
 20
0.0
 30
0.0
  3
$PAPER_SPACE
  1

  0
ENDBLK
  5
AF
 67
     1
  8
0
  0
BLOCK
  8
0
  2
QQ
 70
     0
 10
270.0
 20
0.0
 30
0.0
  3
QQ
  1

  0
LINE
  5
2D
  8
11
 10
173.0
 20
36.0
 30
0.0
 11
270.0
 21
36.0
 31
0.0
  0
TEXT
  5
2E
  8
11
 10
175.0
 20
32.5
 30
0.0
 40
2.5
  1
部品名称
  0
LINE
  5
2F
  8
11
 10
173.0
 20
36.0
 30
0.0
 11
173.0
 21
0.0
 31
0.0
  0
LINE
  5
30
  8
11
 10
173.0
 20
24.0
 30
0.0
 11
270.0
 21
24.0
 31
0.0
  0
TEXT
  5
31
  8
11
 10
175.0
 20
20.5
 30
0.0
 40
2.5
  1
品番
  0
LINE
  5
32
  8
11
 10
173.0
 20
12.0
 30
0.0
 11
270.0
 21
12.0
 31
0.0
  0
TEXT
  5
33
  8
11
 10
175.0
 20
8.5
 30
0.0
 40
2.5
  1
尺度
  0
TEXT
  5
34
  8
11
 10
200.0
 20
8.5
 30
0.0
 40
2.5
  1
図番
  0
LINE
  5
35
  8
11
 10
198.0
 20
0.0
 30
0.0
 11
198.0
 21
12.0
 31
0.0
  0
ENDBLK
  5
36
  8
0
  0
ENDSEC
  0
SECTION
  2
ENTITIES
  0
INSERT
  5
37
  8
0
  2
QQ
 10
375.0
 20
0.0
 30
0.0
  0
LINE
  5
38
  8
10
 10
0.0
 20
270.0
 30
0.0
 11
0.0
 21
0.0
 31
0.0
  0
LINE
  5
39
  8
10
 10
375.0
 20
270.0
 30
0.0
 11
0.0
 21
270.0
 31
0.0
  0
LINE
  5
3A
  8
10
 10
375.0
 20
0.0
 30
0.0
 11
375.0
 21
270.0
 31
0.0
  0
LINE
  5
3B
  8
10
 10
0.0
 20
0.0
 30
0.0
 11
375.0
 21
0.0
 31
0.0
  0
TEXT
  5
3C
  8
11
 10
280.0
 20
1.0
 30
0.0
 40
4.0
  1
1/1
  0
LINE
  5
3D
  8
1
 10
302.26357
 20
159.0
 30
0.0
 11
330.26357
 21
159.0
 31
0.0
  0
LINE
  5
3E
  8
1
 10
316.76357
 20
172.0
 30
0.0
 11
316.76357
 21
146.0
 31
0.0
  0
CIRCLE
  5
3F
  8
0
 10
316.76357
 20
159.0
 30
0.0
 40
10.0
  0
LINE
  5
40
  8
1
 10
63.0
 20
159.0
 30
0.0
 11
97.0
 21
159.0
 31
0.0
  0
LINE
  5
41
  8
1
 10
80.0
 20
172.0
 30
0.0
 11
80.0
 21
147.0
 31
0.0
  0
CIRCLE
  5
42
  8
0
 10
80.0
 20
159.0
 30
0.0
 40
10.0
  0
CIRCLE
  5
43
  8
0
 10
80.0
 20
159.0
 30
0.0
 40
9.0
  0
CIRCLE
  5
44
  8
0
 10
80.0
 20
159.0
 30
0.0
 40
4.0
  0
ARC
  5
45
  8
0
 10
261.01105
 20
159.0
 30
0.0
 40
14.5
 50
316.397181
 51
43.602819
  0
LINE
  5
46
  8
0
 10
271.51105
 20
169.0
 30
0.0
 11
271.51105
 21
149.0
 31
0.0
  0
LINE
  5
47
  8
0
 10
271.51105
 20
149.0
 30
0.0
 11
213.51105
 21
150.0
 31
0.0
  0
LINE
  5
48
  8
0
 10
213.51105
 20
150.0
 30
0.0
 11
213.51105
 21
168.0
 31
0.0
  0
LINE
  5
49
  8
0
 10
213.51105
 20
168.0
 30
0.0
 11
271.51105
 21
169.0
 31
0.0
  0
TEXT
  5
4A
  8
11
 10
284.283638
 20
24.734588
 30
0.0
 40
5.5
  1
ピラー・グリップレバー
 41
0.8
  7
BIGFONT
  0
TEXT
  5
4B
  8
11
 10
283.821012
 20
13.511301
 30
0.0
 40
5.5
  1
ＰＧＬ－８－８０，－ＳＵＳ
 41
0.8
  7
BIGFONT
  0
CIRCLE
  5
4C
  8
0
 10
80.00853
 20
159.01141
 30
0.0
 40
3.0
  0
CIRCLE
  5
4D
  8
0
 10
80.00853
 20
159.01141
 30
0.0
 40
5.0
  0
LINE
  5
4E
  8
0
 10
213.5
 20
164.0
 30
0.0
 11
195.5
 21
164.0
 31
0.0
  0
LINE
  5
4F
  8
0
 10
195.5
 20
164.0
 30
0.0
 11
195.5
 21
154.0
 31
0.0
  0
LINE
  5
50
  8
0
 10
195.5
 20
154.0
 30
0.0
 11
213.5
 21
154.0
 31
0.0
  0
LINE
  5
51
  8
0
 10
195.5
 20
162.0
 30
0.0
 11
176.5
 21
162.0
 31
0.0
  0
LINE
  5
52
  8
0
 10
176.5
 20
162.0
 30
0.0
 11
175.5
 21
162.0
 31
0.0
  0
LINE
  5
53
  8
0
 10
175.5
 20
162.0
 30
0.0
 11
175.5
 21
156.0
 31
0.0
  0
LINE
  5
54
  8
0
 10
175.5
 20
156.0
 30
0.0
 11
195.5
 21
156.0
 31
0.0
  0
LINE
  5
55
  8
0
 10
176.5
 20
163.0
 30
0.0
 11
175.5
 21
162.0
 31
0.0
  0
LINE
  5
56
  8
0
 10
176.5
 20
155.0
 30
0.0
 11
175.5
 21
156.0
 31
0.0
  0
LINE
  5
57
  8
0
 10
176.5
 20
163.0
 30
0.0
 11
176.5
 21
155.0
 31
0.0
  0
LINE
  5
58
  8
0
 10
194.5
 20
163.0
 30
0.0
 11
176.5
 21
163.0
 31
0.0
  0
LINE
  5
59
  8
0
 10
194.5
 20
155.0
 30
0.0
 11
176.5
 21
155.0
 31
0.0
  0
LINE
  5
5A
  8
0
 10
194.5
 20
163.0
 30
0.0
 11
194.5
 21
155.0
 31
0.0
  0
LINE
  5
5B
  8
1
 10
281.507883
 20
158.809931
 30
0.0
 11
168.164527
 21
158.809931
 31
0.0
  0
LINE
  5
5C
  8
1
 10
281.507883
 20
212.440069
 30
0.0
 11
168.164527
 21
212.440069
 31
0.0
  0
LINE
  5
5D
  8
0
 10
194.5
 20
208.630138
 30
0.0
 11
176.5
 21
208.630138
 31
0.0
  0
LINE
  5
5E
  8
0
 10
194.5
 20
216.630138
 30
0.0
 11
176.5
 21
216.630138
 31
0.0
  0
LINE
  5
5F
  8
0
 10
175.5
 20
209.630138
 30
0.0
 11
195.5
 21
209.630138
 31
0.0
  0
LINE
  5
60
  8
0
 10
195.5
 20
215.630138
 30
0.0
 11
176.5
 21
215.630138
 31
0.0
  0
LINE
  5
61
  8
0
 10
176.5
 20
216.630138
 30
0.0
 11
176.5
 21
208.630138
 31
0.0
  0
LINE
  5
62
  8
0
 10
175.5
 20
215.630138
 30
0.0
 11
175.5
 21
209.630138
 31
0.0
  0
LINE
  5
63
  8
0
 10
176.5
 20
208.630138
 30
0.0
 11
175.5
 21
209.630138
 31
0.0
  0
LINE
  5
64
  8
0
 10
176.5
 20
216.630138
 30
0.0
 11
175.5
 21
215.630138
 31
0.0
  0
LINE
  5
65
  8
0
 10
176.5
 20
215.630138
 30
0.0
 11
175.5
 21
215.630138
 31
0.0
  0
LINE
  5
66
  8
0
 10
271.51105
 20
202.630138
 30
0.0
 11
213.51105
 21
203.630138
 31
0.0
  0
LINE
  5
67
  8
0
 10
213.51105
 20
221.630138
 30
0.0
 11
271.51105
 21
222.630138
 31
0.0
  0
LINE
  5
68
  8
0
 10
194.5
 20
216.630138
 30
0.0
 11
194.5
 21
208.630138
 31
0.0
  0
LINE
  5
69
  8
0
 10
195.5
 20
217.630138
 30
0.0
 11
195.5
 21
207.630138
 31
0.0
  0
LINE
  5
6A
  8
0
 10
213.51105
 20
203.630138
 30
0.0
 11
213.51105
 21
221.630138
 31
0.0
  0
LINE
  5
6B
  8
0
 10
195.5
 20
207.630138
 30
0.0
 11
213.5
 21
207.630138
 31
0.0
  0
LINE
  5
6C
  8
0
 10
213.5
 20
217.630138
 30
0.0
 11
195.5
 21
217.630138
 31
0.0
  0
ARC
  5
6D
  8
0
 10
261.01105
 20
212.630138
 30
0.0
 40
14.5
 50
316.397181
 51
43.602819
  0
LINE
  5
6E
  8
0
 10
271.51105
 20
222.630138
 30
0.0
 11
271.51105
 21
202.630138
 31
0.0
  0
LINE
  5
6F
  8
1
 10
281.507883
 20
101.943493
 30
0.0
 11
168.164527
 21
101.943493
 31
0.0
  0
LINE
  5
70
  8
0
 10
194.5
 20
98.133562
 30
0.0
 11
176.5
 21
98.133562
 31
0.0
  0
LINE
  5
71
  8
0
 10
194.5
 20
106.133562
 30
0.0
 11
176.5
 21
106.133562
 31
0.0
  0
LINE
  5
72
  8
0
 10
175.5
 20
99.133562
 30
0.0
 11
195.5
 21
99.133562
 31
0.0
  0
LINE
  5
73
  8
0
 10
195.5
 20
105.133562
 30
0.0
 11
176.5
 21
105.133562
 31
0.0
  0
LINE
  5
74
  8
0
 10
176.5
 20
106.133562
 30
0.0
 11
176.5
 21
98.133562
 31
0.0
  0
LINE
  5
75
  8
0
 10
175.5
 20
105.133562
 30
0.0
 11
175.5
 21
99.133562
 31
0.0
  0
LINE
  5
76
  8
0
 10
176.5
 20
98.133562
 30
0.0
 11
175.5
 21
99.133562
 31
0.0
  0
LINE
  5
77
  8
0
 10
176.5
 20
106.133562
 30
0.0
 11
175.5
 21
105.133562
 31
0.0
  0
LINE
  5
78
  8
0
 10
176.5
 20
105.133562
 30
0.0
 11
175.5
 21
105.133562
 31
0.0
  0
LINE
  5
79
  8
0
 10
271.51105
 20
92.133562
 30
0.0
 11
213.51105
 21
93.133562
 31
0.0
  0
LINE
  5
7A
  8
0
 10
213.51105
 20
111.133562
 30
0.0
 11
271.51105
 21
112.133562
 31
0.0
  0
LINE
  5
7B
  8
0
 10
194.5
 20
106.133562
 30
0.0
 11
194.5
 21
98.133562
 31
0.0
  0
LINE
  5
7C
  8
0
 10
195.5
 20
107.133562
 30
0.0
 11
195.5
 21
97.133562
 31
0.0
  0
LINE
  5
7D
  8
0
 10
213.51105
 20
93.133562
 30
0.0
 11
213.51105
 21
111.133562
 31
0.0
  0
LINE
  5
7E
  8
0
 10
195.5
 20
97.133562
 30
0.0
 11
213.5
 21
97.133562
 31
0.0
  0
LINE
  5
7F
  8
0
 10
213.5
 20
107.133562
 30
0.0
 11
195.5
 21
107.133562
 31
0.0
  0
ARC
  5
80
  8
0
 10
261.01105
 20
102.133562
 30
0.0
 40
14.5
 50
316.397181
 51
43.602819
  0
LINE
  5
81
  8
0
 10
271.51105
 20
112.133562
 30
0.0
 11
271.51105
 21
92.133562
 31
0.0
  0
TEXT
  5
82
  8
0
 10
314.81649
 20
1.758219
 30
0.0
 40
5.5
  1
MLE00801
 41
0.8
  7
BIGFONT
  0
ENDSEC
  0
EOF
