  0
SECTION
  2
HEADER
  9
$ACADVER
  1
AC1027
  9
$ACADMAINTVER
 70
   125
  9
$DWGCODEPAGE
  3
ANSI_932
  9
$LASTSAVEDBY
  1
81903
  9
$CUSTOMPROPERTYTAG
  1
AmdtFileType
  9
$CUSTOMPROPERTY
  1
84
  9
$REQUIREDVERSIONS
160
                 0
  9
$INSBASE
 10
0.0
 20
0.0
 30
0.0
  9
$EXTMIN
 10
0.0
 20
0.0
 30
0.0
  9
$EXTMAX
 10
285.0
 20
195.0
 30
0.0
  9
$LIMMIN
 10
0.0
 20
0.0
  9
$LIMMAX
 10
285.0
 20
198.0
  9
$ORTHOMODE
 70
     0
  9
$REGENMODE
 70
     1
  9
$FILLMODE
 70
     0
  9
$QTEXTMODE
 70
     0
  9
$MIRRTEXT
 70
     1
  9
$LTSCALE
 40
1.0
  9
$ATTMODE
 70
     1
  9
$TEXTSIZE
 40
5.0
  9
$TRACEWID
 40
0.05
  9
$TEXTSTYLE
  7
BIGFONT
  9
$CLAYER
  8
0
  9
$CELTYPE
  6
BYLAYER
  9
$CECOLOR
 62
   256
  9
$CELTSCALE
 40
1.0
  9
$DISPSILH
 70
     0
  9
$DIMSCALE
 40
0.0
  9
$DIMASZ
 40
2.0
  9
$DIMEXO
 40
1.0
  9
$DIMDLI
 40
0.38
  9
$DIMRND
 40
0.0
  9
$DIMDLE
 40
0.0
  9
$DIMEXE
 40
1.0
  9
$DIMTP
 40
0.0
  9
$DIMTM
 40
0.0
  9
$DIMTXT
 40
5.0
  9
$DIMCEN
 40
0.09
  9
$DIMTSZ
 40
0.0
  9
$DIMTOL
 70
     0
  9
$DIMLIM
 70
     0
  9
$DIMTIH
 70
     0
  9
$DIMTOH
 70
     1
  9
$DIMSE1
 70
     0
  9
$DIMSE2
 70
     0
  9
$DIMTAD
 70
     0
  9
$DIMZIN
 70
     8
  9
$DIMBLK
  1

  9
$DIMASO
 70
     1
  9
$DIMSHO
 70
     1
  9
$DIMPOST
  1

  9
$DIMAPOST
  1

  9
$DIMALT
 70
     0
  9
$DIMALTD
 70
     2
  9
$DIMALTF
 40
25.4
  9
$DIMLFAC
 40
1.0
  9
$DIMTOFL
 70
     0
  9
$DIMTVP
 40
0.0
  9
$DIMTIX
 70
     0
  9
$DIMSOXD
 70
     0
  9
$DIMSAH
 70
     0
  9
$DIMBLK1
  1

  9
$DIMBLK2
  1

  9
$DIMSTYLE
  2
STANDARD
  9
$DIMCLRD
 70
     0
  9
$DIMCLRE
 70
     0
  9
$DIMCLRT
 70
     0
  9
$DIMTFAC
 40
1.0
  9
$DIMGAP
 40
0.09
  9
$DIMJUST
 70
     0
  9
$DIMSD1
 70
     0
  9
$DIMSD2
 70
     0
  9
$DIMTOLJ
 70
     1
  9
$DIMTZIN
 70
     8
  9
$DIMALTZ
 70
     0
  9
$DIMALTTZ
 70
     0
  9
$DIMUPT
 70
     1
  9
$DIMDEC
 70
     2
  9
$DIMTDEC
 70
     2
  9
$DIMALTU
 70
     2
  9
$DIMALTTD
 70
     2
  9
$DIMTXSTY
  7
STANDARD
  9
$DIMAUNIT
 70
     0
  9
$DIMADEC
 70
     0
  9
$DIMALTRND
 40
0.0
  9
$DIMAZIN
 70
     0
  9
$DIMDSEP
 70
    46
  9
$DIMATFIT
 70
     3
  9
$DIMFRAC
 70
     0
  9
$DIMLDRBLK
  1

  9
$DIMLUNIT
 70
     2
  9
$DIMLWD
 70
    -2
  9
$DIMLWE
 70
    -2
  9
$DIMTMOVE
 70
     0
  9
$DIMFXL
 40
1.0
  9
$DIMFXLON
 70
     0
  9
$DIMJOGANG
 40
0.7853981633974483
  9
$DIMTFILL
 70
     0
  9
$DIMTFILLCLR
 70
     0
  9
$DIMARCSYM
 70
     0
  9
$DIMLTYPE
  6

  9
$DIMLTEX1
  6

  9
$DIMLTEX2
  6

  9
$DIMTXTDIRECTION
 70
     0
  9
$LUNITS
 70
     2
  9
$LUPREC
 70
     2
  9
$SKETCHINC
 40
0.1
  9
$FILLETRAD
 40
2.0
  9
$AUNITS
 70
     0
  9
$AUPREC
 70
     0
  9
$MENU
  1
acad
  9
$ELEVATION
 40
0.0
  9
$PELEVATION
 40
0.0
  9
$THICKNESS
 40
0.0
  9
$LIMCHECK
 70
     0
  9
$CHAMFERA
 40
5.0
  9
$CHAMFERB
 40
5.0
  9
$CHAMFERC
 40
0.0
  9
$CHAMFERD
 40
0.0
  9
$SKPOLY
 70
     0
  9
$TDCREATE
 40
2449283.567812500
  9
$TDUCREATE
 40
2449283.192812500
  9
$TDUPDATE
 40
2459380.709884260
  9
$TDUUPDATE
 40
2459380.334884260
  9
$TDINDWG
 40
1.9779290625
  9
$TDUSRTIMER
 40
1.9779290625
  9
$USRTIMER
 70
     1
  9
$ANGBASE
 50
0.0
  9
$ANGDIR
 70
     0
  9
$PDMODE
 70
     0
  9
$PDSIZE
 40
0.0
  9
$PLINEWID
 40
0.0
  9
$SPLFRAME
 70
     0
  9
$SPLINETYPE
 70
     6
  9
$SPLINESEGS
 70
     8
  9
$HANDSEED
  5
164F
  9
$SURFTAB1
 70
     6
  9
$SURFTAB2
 70
     6
  9
$SURFTYPE
 70
     6
  9
$SURFU
 70
     6
  9
$SURFV
 70
     6
  9
$UCSBASE
  2

  9
$UCSNAME
  2

  9
$UCSORG
 10
0.0
 20
0.0
 30
0.0
  9
$UCSXDIR
 10
1.0
 20
0.0
 30
0.0
  9
$UCSYDIR
 10
0.0
 20
1.0
 30
0.0
  9
$UCSORTHOREF
  2

  9
$UCSORTHOVIEW
 70
     0
  9
$UCSORGTOP
 10
0.0
 20
0.0
 30
0.0
  9
$UCSORGBOTTOM
 10
0.0
 20
0.0
 30
0.0
  9
$UCSORGLEFT
 10
0.0
 20
0.0
 30
0.0
  9
$UCSORGRIGHT
 10
0.0
 20
0.0
 30
0.0
  9
$UCSORGFRONT
 10
0.0
 20
0.0
 30
0.0
  9
$UCSORGBACK
 10
0.0
 20
0.0
 30
0.0
  9
$PUCSBASE
  2

  9
$PUCSNAME
  2

  9
$PUCSORG
 10
0.0
 20
0.0
 30
0.0
  9
$PUCSXDIR
 10
1.0
 20
0.0
 30
0.0
  9
$PUCSYDIR
 10
0.0
 20
1.0
 30
0.0
  9
$PUCSORTHOREF
  2

  9
$PUCSORTHOVIEW
 70
     0
  9
$PUCSORGTOP
 10
0.0
 20
0.0
 30
0.0
  9
$PUCSORGBOTTOM
 10
0.0
 20
0.0
 30
0.0
  9
$PUCSORGLEFT
 10
0.0
 20
0.0
 30
0.0
  9
$PUCSORGRIGHT
 10
0.0
 20
0.0
 30
0.0
  9
$PUCSORGFRONT
 10
0.0
 20
0.0
 30
0.0
  9
$PUCSORGBACK
 10
0.0
 20
0.0
 30
0.0
  9
$USERI1
 70
     0
  9
$USERI2
 70
     0
  9
$USERI3
 70
     0
  9
$USERI4
 70
     0
  9
$USERI5
 70
     0
  9
$USERR1
 40
0.0
  9
$USERR2
 40
0.0
  9
$USERR3
 40
0.0
  9
$USERR4
 40
0.0
  9
$USERR5
 40
0.0
  9
$WORLDVIEW
 70
     1
  9
$SHADEDGE
 70
     3
  9
$SHADEDIF
 70
    70
  9
$TILEMODE
 70
     1
  9
$MAXACTVP
 70
    16
  9
$PINSBASE
 10
0.0
 20
0.0
 30
0.0
  9
$PLIMCHECK
 70
     0
  9
$PEXTMIN
 10
1.000000000000000E+20
 20
1.000000000000000E+20
 30
1.000000000000000E+20
  9
$PEXTMAX
 10
-1.000000000000000E+20
 20
-1.000000000000000E+20
 30
-1.000000000000000E+20
  9
$PLIMMIN
 10
0.0
 20
0.0
  9
$PLIMMAX
 10
12.0
 20
9.0
  9
$UNITMODE
 70
     0
  9
$VISRETAIN
 70
     0
  9
$PLINEGEN
 70
     0
  9
$PSLTSCALE
 70
     1
  9
$TREEDEPTH
 70
  3020
  9
$CMLSTYLE
  2
STANDARD
  9
$CMLJUST
 70
     0
  9
$CMLSCALE
 40
1.0
  9
$PROXYGRAPHICS
 70
     1
  9
$MEASUREMENT
 70
     0
  9
$CELWEIGHT
370
    -1
  9
$ENDCAPS
280
     0
  9
$JOINSTYLE
280
     0
  9
$LWDISPLAY
290
     0
  9
$INSUNITS
 70
     0
  9
$HYPERLINKBASE
  1

  9
$STYLESHEET
  1

  9
$XEDIT
290
     1
  9
$CEPSNTYPE
380
     0
  9
$PSTYLEMODE
290
     1
  9
$FINGERPRINTGUID
  2
{AE0E5C04-8196-49C2-8F9D-7D9BF5F3AF68}
  9
$VERSIONGUID
  2
{93C9834B-E471-A64F-9C0E-9E9B4CB08B29}
  9
$EXTNAMES
290
     1
  9
$PSVPSCALE
 40
0.0
  9
$OLESTARTUP
290
     0
  9
$SORTENTS
280
    96
  9
$INDEXCTL
280
     1
  9
$HIDETEXT
280
     0
  9
$XCLIPFRAME
280
     2
  9
$HALOGAP
280
     0
  9
$OBSCOLOR
 70
   257
  9
$OBSLTYPE
280
     0
  9
$INTERSECTIONDISPLAY
280
     0
  9
$INTERSECTIONCOLOR
 70
   257
  9
$DIMASSOC
280
     1
  9
$PROJECTNAME
  1

  9
$CAMERADISPLAY
290
     0
  9
$LENSLENGTH
 40
50.0
  9
$CAMERAHEIGHT
 40
0.0
  9
$STEPSPERSEC
 40
2.0
  9
$STEPSIZE
 40
6.0
  9
$3DDWFPREC
 40
2.0
  9
$PSOLWIDTH
 40
0.25
  9
$PSOLHEIGHT
 40
4.0
  9
$LOFTANG1
 40
1.570796326794896
  9
$LOFTANG2
 40
1.570796326794896
  9
$LOFTMAG1
 40
0.0
  9
$LOFTMAG2
 40
0.0
  9
$LOFTPARAM
 70
     7
  9
$LOFTNORMALS
280
     1
  9
$LATITUDE
 40
37.795
  9
$LONGITUDE
 40
-122.394
  9
$NORTHDIRECTION
 40
0.0
  9
$TIMEZONE
 70
 -8000
  9
$LIGHTGLYPHDISPLAY
280
     1
  9
$TILEMODELIGHTSYNCH
280
     1
  9
$CMATERIAL
347
158F
  9
$SOLIDHIST
280
     0
  9
$SHOWHIST
280
     1
  9
$DWFFRAME
280
     2
  9
$DGNFRAME
280
     0
  9
$REALWORLDSCALE
290
     1
  9
$INTERFERECOLOR
 62
     1
  9
$INTERFEREOBJVS
345
15B1
  9
$INTERFEREVPVS
346
15AE
  9
$CSHADOW
280
     0
  9
$SHADOWPLANELOCATION
 40
0.0
  0
ENDSEC
  0
SECTION
  2
CLASSES
  0
CLASS
  1
LWPOLYLINE
  2
AcDbPolyline
  3
ObjectDBX Classes
 90
        0
 91
        2
280
     0
281
     1
  0
CLASS
  1
DICTIONARYVAR
  2
AcDbDictionaryVar
  3
ObjectDBX Classes
 90
        0
 91
       12
280
     0
281
     0
  0
CLASS
  1
HATCH
  2
AcDbHatch
  3
ObjectDBX Classes
 90
        0
 91
        4
280
     0
281
     1
  0
CLASS
  1
ACDBDICTIONARYWDFLT
  2
AcDbDictionaryWithDefault
  3
ObjectDBX Classes
 90
        0
 91
        1
280
     0
281
     0
  0
CLASS
  1
ACDBPLACEHOLDER
  2
AcDbPlaceHolder
  3
ObjectDBX Classes
 90
        0
 91
        1
280
     0
281
     0
  0
CLASS
  1
LAYOUT
  2
AcDbLayout
  3
ObjectDBX Classes
 90
        0
 91
        2
280
     0
281
     0
  0
CLASS
  1
ACME_DOCUMENT
  2
AcMeDbDoc
  3
AcMeServices
 90
        0
 91
        0
280
     0
281
     0
  0
CLASS
  1
AMGSETTINGSOBJ
  2
AmgSettingsObj
  3
"AcadM|Product Description: AutoCAD Mechanical 2000|Company: Autodesk"
 90
        0
 91
        2
280
     0
281
     0
  0
CLASS
  1
ACMESCOPE
  2
AcMeScope
  3
AcMeServices
 90
        0
 91
        1
280
     0
281
     0
  0
CLASS
  1
ACMECOMMANDHISTORY
  2
AcMeCommandHistory
  3
AcMeServices
 90
        0
 91
        1
280
     0
281
     0
  0
CLASS
  1
ACIMSYSVARMAN
  2
AcImSysVarManager
  3
AcMeServices
 90
        0
 91
        6
280
     0
281
     0
  0
CLASS
  1
ACIMREALSYSVAR
  2
AcImRealSysVar
  3
AcMeServices
 90
        0
 91
       16
280
     0
281
     0
  0
CLASS
  1
ACIMINTSYSVAR
  2
AcImIntSysVar
  3
AcMeServices
 90
        0
 91
       45
280
     0
281
     0
  0
CLASS
  1
ACMEDRAWINGMAN
  2
AcMeDrawingMan
  3
AcMeServices
 90
        0
 91
        1
280
     0
281
     0
  0
CLASS
  1
ACMEVIEW
  2
AcMeView
  3
AcMeServices
 90
        0
 91
        1
280
     0
281
     0
  0
CLASS
  1
ACDBENTITYCACHE
  2
AcMeEntityCache
  3
AcMeServices
 90
        0
 91
        0
280
     0
281
     0
  0
CLASS
  1
GSMANAGER
  2
AcMeGSManager
  3
AcMeServices
 90
        0
 91
        0
280
     0
281
     0
  0
CLASS
  1
AMDTINTERNALREACTOR
  2
AmdtInternalReactor
  3
AcMeServices
 90
        0
 91
        0
280
     0
281
     0
  0
CLASS
  1
ACMESTATEMGR
  2
AcMeStateMgr
  3
AcMeServices
 90
        0
 91
        1
280
     0
281
     0
  0
CLASS
  1
ACGREFMASTER
  2
AcGrefMaster
  3
AcAttribServices
 90
        0
 91
        1
280
     0
281
     0
  0
CLASS
  1
AM_DRAWING_MGR
  2
AcDmDwgMgr
  3
AcMechDwgViewMgmt
 90
        0
 91
        1
280
     0
281
     0
  0
CLASS
  1
AM_DWG_DOCUMENT
  2
AcDmDwgDocument
  3
AcMechDwgViewMgmt
 90
        0
 91
        1
280
     0
281
     0
  0
CLASS
  1
AM_DWG_SHEET
  2
AcDmSheet
  3
AcMechDwgViewMgmt
 90
        0
 91
        1
280
     0
281
     0
  0
CLASS
  1
AM_VIEWDIMPARMAP
  2
AcDmViewDimParMap
  3
AcMechDwgViewMgmt
 90
        0
 91
        1
280
     0
281
     0
  0
CLASS
  1
AM_DWGMGR_NAME
  2
AcDmDwgMgrName
  3
AcMechDwgViewMgmt
 90
        0
 91
        1
280
     0
281
     0
  0
CLASS
  1
ACME_DATABASE
  2
AcMeDbDatabase
  3
AcMeServices
 90
        0
 91
        0
280
     0
281
     0
  0
CLASS
  1
ACRFINSADJUSTERMGR
  2
AcRfInsAdjusterMgr
  3
AcMeServices
 90
        0
 91
        0
280
     0
281
     0
  0
CLASS
  1
ACGREFACADMASTER
  2
AcGrefacadMaster
  3
AcGrefServices
 90
        0
 91
        1
280
     0
281
     0
  0
CLASS
  1
AMDTMENUSTATEMGR
  2
AmdtMenuStateMgr
  3
McadcomServices
 90
        0
 91
        0
280
     0
281
     0
  0
CLASS
  1
AMDTMCOMMENUSTATE
  2
AmdtMcomMenuState
  3
McadcomServices
 90
        0
 91
        0
280
     0
281
     0
  0
CLASS
  1
AMIMASTER
  2
AmiMaster
  3
AmiServices
 90
        0
 91
        1
280
     0
281
     0
  0
CLASS
  1
ASAPP
  2
AcAsAppObject
  3
AutoSurfServices
 90
        0
 91
        1
280
     0
281
     0
  0
CLASS
  1
IM_STATIC_MAN
  2
AcImStaticVarManager
  3
AcMeServices
 90
        0
 91
        1
280
     0
281
     0
  0
CLASS
  1
ACIMSTRSYSVAR
  2
AcImStrSysVar
  3
AcMeServices
 90
        0
 91
        7
280
     0
281
     0
  0
CLASS
  1
ACIMDBLSTATICVAR
  2
AcImDblStaticVar
  3
AcMeServices
 90
        0
 91
       20
280
     0
281
     0
  0
CLASS
  1
ACIMSTRSTATICVAR
  2
AcImStrStaticVar
  3
AcMeServices
 90
        0
 91
       12
280
     0
281
     0
  0
CLASS
  1
ACIMINTSTATICVAR
  2
AcImIntStaticVar
  3
AcMeServices
 90
        0
 91
       17
280
     0
281
     0
  0
CLASS
  1
ACASGREFMASTER
  2
AcAsGrefMaster
  3
AutoSurfResolverServices
 90
        0
 91
        1
280
     0
281
     0
  0
CLASS
  1
ACADGREFMODULE
  2
AcAdGrefModule
  3
AdGrefServices
 90
        0
 91
        1
280
     0
281
     0
  0
CLASS
  1
AMDTMAPISURFMOUDULE
  2
AmdtMApiSurfModule
  3
MApiSurfServices
 90
        0
 91
        1
280
     0
281
     0
  0
CLASS
  1
MAPIAMMOUDLE
  2
MApiAmModule
  3
MApiAmServices
 90
        0
 91
        1
280
     0
281
     0
  0
CLASS
  1
AMDTADMENUSTATE
  2
AmdtAdMenuState
  3
DesignerServices
 90
        0
 91
        0
280
     0
281
     0
  0
CLASS
  1
ADAPPL
  2
AcAdAppl
  3
DesignerServices
 90
        0
 91
        1
280
     0
281
     0
  0
CLASS
  1
DEPMGR
  2
AcAdDepMgr
  3
DesignerServices
 90
        0
 91
        1
280
     0
281
     0
  0
CLASS
  1
PARAMMGR
  2
AcAdParamMgr
  3
DesignerServices
 90
        0
 91
        1
280
     0
281
     0
  0
CLASS
  1
PARAMSCOPE
  2
AcAdParamScope
  3
DesignerServices
 90
        0
 91
        1
280
     0
281
     0
  0
CLASS
  1
NAMEDAPPL
  2
AcAdNamedAppl
  3
DesignerServices
 90
        0
 91
        1
280
     0
281
     0
  0
CLASS
  1
AMDTDMMENUSTATE
  2
AmdtDmMenuState
  3
AcMechDwgViewMgmt
 90
        0
 91
        0
280
     0
281
     0
  0
CLASS
  1
MAPIADMODULE
  2
MApiAdModule
  3
MApiAdServices
 90
        0
 91
        1
280
     0
281
     0
  0
CLASS
  1
AMDTAMMENUSTATE
  2
AmdtAmMenuState
  3
DesignerAssemblies
 90
        0
 91
        0
280
     0
281
     0
  0
CLASS
  1
ACAMPROJECT
  2
AcAmProject
  3
DesignerAssemblies
 90
        0
 91
        1
280
     0
281
     0
  0
CLASS
  1
ACAMGRCOMPDEF
  2
AcAmGrCompDef
  3
DesignerAssemblies
 90
        0
 91
        1
280
     0
281
     0
  0
CLASS
  1
ACCMCONTEXT
  2
AcCmContext
  3
DesignerAssemblies
 90
        0
 91
        1
280
     0
281
     0
  0
CLASS
  1
ACAMCOMPDEF
  2
AcAmCompDef
  3
DesignerAssemblies
 90
        0
 91
        1
280
     0
281
     0
  0
CLASS
  1
ACAMCOMPDEFMGR
  2
AcAmCompDefMgr
  3
DesignerAssemblies
 90
        0
 91
        1
280
     0
281
     0
  0
CLASS
  1
AMCONTEXTMGR
  2
AcAmContextMgr
  3
DesignerAssemblies
 90
        0
 91
        1
280
     0
281
     0
  0
CLASS
  1
ACAMCONTEXTMODELER
  2
AcAmContextModeler
  3
DesignerAssemblies
 90
        0
 91
        1
280
     0
281
     0
  0
CLASS
  1
ACMDATADICTIONARY
  2
AcmDataDictionary
  3
"AcmSymBB|Product Description: AutoCAD Mechanical 2000|Company: Autodesk"
 90
        0
 91
        1
280
     0
281
     0
  0
CLASS
  1
ACMDATAENTRYBLOCK
  2
AcmDataEntryBlock
  3
"AcmSymBB|Product Description: AutoCAD Mechanical 2000|Company: Autodesk"
 90
        0
 91
        1
280
     0
281
     0
  0
CLASS
  1
CATALOGSTATE
  2
AcAmCatalogState
  3
DesignerAssemblies
 90
        0
 91
        1
280
     0
281
     0
  0
CLASS
  1
ACAMGRCOMPDEFSET
  2
AcAmGrCompDefSet
  3
DesignerAssemblies
 90
        0
 91
        0
280
     0
281
     0
  0
CLASS
  1
AMDTBROWSERDBTAB
  2
AmdtBrowserDbTab
  3
McadcomServices
 90
        0
 91
        0
280
     0
281
     0
  0
CLASS
  1
CBROWSERAPPOBJECT
  2
CBrowserAppObject
  3
McadcomServices
 90
        0
 91
        0
280
     0
281
     0
  0
CLASS
  1
DM_PLACEHOLDER
  2
AcDmSelsetPlaceholder
  3
AcMechDwgViewMgmt
 90
        0
 91
        0
280
     0
281
     0
  0
CLASS
  1
ACMSTANDARDANSI
  2
AcmStandardANSI
  3
"Amdt_StdImp|Product Description: AutoCAD Mechanical 2000|Company: Autodesk"
 90
        0
 91
        1
280
     0
281
     0
  0
CLASS
  1
AMGOBJPROPCFG
  2
AmgObjPropCfg
  3
"AmgLay|Product Description: AutoCAD Mechanical 2000|Company: Autodesk"
 90
        1
 91
        1
280
     0
281
     0
  0
CLASS
  1
ACMSURFSTANDARDANSI
  2
AcmSurfTextStdANSI
  3
"Amdt_StdImp|Product Description: AutoCAD Mechanical 2000|Company: Autodesk"
 90
        0
 91
        1
280
     0
281
     0
  0
CLASS
  1
ACMFCFSTANDARDANSI
  2
AcmFCFStdANSI
  3
"Amdt_StdImp|Product Description: AutoCAD Mechanical 2000|Company: Autodesk"
 90
        0
 91
        1
280
     0
281
     0
  0
CLASS
  1
ACMWELDSTANDARDANSI
  2
AcmWeldingStdANSI
  3
"Amdt_StdImp|Product Description: AutoCAD Mechanical 2000|Company: Autodesk"
 90
        0
 91
        1
280
     0
281
     0
  0
CLASS
  1
ACMIDSTANDARDANSI
  2
AcmIdStdANSI
  3
"Amdt_StdImp|Product Description: AutoCAD Mechanical 2000|Company: Autodesk"
 90
        0
 91
        1
280
     0
281
     0
  0
CLASS
  1
ACMDATUMSTANDARDANSI
  2
AcmDatumStdANSI
  3
"Amdt_StdImp|Product Description: AutoCAD Mechanical 2000|Company: Autodesk"
 90
        0
 91
        1
280
     0
281
     0
  0
CLASS
  1
ACMBOMSTANDARDANSI
  2
AcmBOMStdANSI
  3
"Amdt_StdImp|Product Description: AutoCAD Mechanical 2000|Company: Autodesk"
 90
        0
 91
        1
280
     0
281
     0
  0
CLASS
  1
ACMDETAILSTANDARDANSI
  2
AmdtDetailSymStdANSI
  3
"Amdt_StdImp|Product Description: AutoCAD Mechanical 2000|Company: Autodesk"
 90
        0
 91
        1
280
     0
281
     0
  0
CLASS
  1
ACMSECTIONSTANDARDANSI
  2
AmdtSectionSymStdANSI
  3
"Amdt_StdImp|Product Description: AutoCAD Mechanical 2000|Company: Autodesk"
 90
        0
 91
        1
280
     0
281
     0
  0
CLASS
  1
ACMCENTERLINESTANDARDANSI
  2
AmdtCenterLineStdANSI
  3
"Amdt_StdImp|Product Description: AutoCAD Mechanical 2000|Company: Autodesk"
 90
        0
 91
        1
280
     0
281
     0
  0
CLASS
  1
ACMTHREADLINESTANDARDANSI
  2
AmdtThreadLineStdANSI
  3
"Amdt_StdImp|Product Description: AutoCAD Mechanical 2000|Company: Autodesk"
 90
        0
 91
        1
280
     0
281
     0
  0
CLASS
  1
ACMNOTESTANDARDANSI
  2
AmdtNoteStdANSI
  3
"Amdt_StdImp|Product Description: AutoCAD Mechanical 2000|Company: Autodesk"
 90
        0
 91
        1
280
     0
281
     0
  0
CLASS
  1
ACAMGLAYSTD
  2
AcAmgLayStd
  3
"AcAmgLayStd|Product Description: AutoCAD Mechanical 2000|Company: Autodesk"
 90
        0
 91
        2
280
     0
281
     0
  0
CLASS
  1
ACAMGDIMSTD
  2
AcAmgDimStd
  3
"AcAmgDimStd|Product Description: AutoCAD Mechanical 2000|Company: Autodesk"
 90
        0
 91
        2
280
     0
281
     0
  0
CLASS
  1
ACAMGHOLECHARTSTDANSI
  2
AcAmgHoleChartStdANSI
  3
ACMSYMBB_MODULE_NAME
 90
        0
 91
        1
280
     0
281
     0
  0
CLASS
  1
ACAMGTITLESTD
  2
AcAmgTitleStd
  3
"TITLEAPP"
 90
        0
 91
        2
280
     0
281
     0
  0
CLASS
  1
LAYER_INDEX
  2
AcDbLayerIndex
  3
ObjectDBX Classes
 90
        0
 91
        1
280
     0
281
     0
  0
CLASS
  1
IDBUFFER
  2
AcDbIdBuffer
  3
ObjectDBX Classes
 90
        0
 91
       12
280
     0
281
     0
  0
CLASS
  1
ACMSTANDARDISO
  2
AcmStandardISO
  3
"Amdt_StdImp|Product Description: AutoCAD Mechanical 2000|Company: Autodesk"
 90
        0
 91
        1
280
     0
281
     0
  0
CLASS
  1
AMDTEDGESTANDARDISO
  2
AmdtEdgeStdISO
  3
"Amdt_StdImp|Product Description: AutoCAD Mechanical 2000|Company: Autodesk"
 90
        0
 91
        1
280
     0
281
     0
  0
CLASS
  1
ACMSURFSTANDARDISO
  2
AcmSurfTextStdISO
  3
"Amdt_StdImp|Product Description: AutoCAD Mechanical 2000|Company: Autodesk"
 90
        0
 91
        1
280
     0
281
     0
  0
CLASS
  1
ACMFCFSTANDARDISO
  2
AcmFCFStdISO
  3
"Amdt_StdImp|Product Description: AutoCAD Mechanical 2000|Company: Autodesk"
 90
        0
 91
        1
280
     0
281
     0
  0
CLASS
  1
ACMWELDSTANDARDISO
  2
AcmWeldingStdISO
  3
"Amdt_StdImp|Product Description: AutoCAD Mechanical 2000|Company: Autodesk"
 90
        0
 91
        1
280
     0
281
     0
  0
CLASS
  1
ACMIDSTANDARDISO
  2
AcmIdStdISO
  3
"Amdt_StdImp|Product Description: AutoCAD Mechanical 2000|Company: Autodesk"
 90
        0
 91
        1
280
     0
281
     0
  0
CLASS
  1
ACMDATUMSTANDARDISO
  2
AcmDatumStdISO
  3
"Amdt_StdImp|Product Description: AutoCAD Mechanical 2000|Company: Autodesk"
 90
        0
 91
        1
280
     0
281
     0
  0
CLASS
  1
ACMBOMSTANDARDISO
  2
AcmBOMStdISO
  3
"Amdt_StdImp|Product Description: AutoCAD Mechanical 2000|Company: Autodesk"
 90
        0
 91
        1
280
     0
281
     0
  0
CLASS
  1
ACMDETAILSTANDARDISO
  2
AmdtDetailSymStdISO
  3
"Amdt_StdImp|Product Description: AutoCAD Mechanical 2000|Company: Autodesk"
 90
        0
 91
        1
280
     0
281
     0
  0
CLASS
  1
ACMSECTIONSTANDARDISO
  2
AmdtSectionSymStdISO
  3
"Amdt_StdImp|Product Description: AutoCAD Mechanical 2000|Company: Autodesk"
 90
        0
 91
        1
280
     0
281
     0
  0
CLASS
  1
ACMCENTERLINESTANDARDISO
  2
AmdtCenterLineStdISO
  3
"Amdt_StdImp|Product Description: AutoCAD Mechanical 2000|Company: Autodesk"
 90
        0
 91
        1
280
     0
281
     0
  0
CLASS
  1
ACMTHREADLINESTANDARDISO
  2
AmdtThreadLineStdISO
  3
"Amdt_StdImp|Product Description: AutoCAD Mechanical 2000|Company: Autodesk"
 90
        0
 91
        1
280
     0
281
     0
  0
CLASS
  1
ACMNOTESTANDARDISO
  2
AmdtNoteStdISO
  3
"Amdt_StdImp|Product Description: AutoCAD Mechanical 2000|Company: Autodesk"
 90
        0
 91
        1
280
     0
281
     0
  0
CLASS
  1
ACAMGHOLECHARTSTDISO
  2
AcAmgHoleChartStdISO
  3
ACMSYMBB_MODULE_NAME
 90
        0
 91
        1
280
     0
281
     0
  0
CLASS
  1
ACAMGFILTERDAT
  2
AcAmgFilterDat
  3
"AcadM|Product Description: AutoCAD Mechanical 2000|Company: Autodesk"
 90
        0
 91
        6
280
     0
281
     0
  0
CLASS
  1
AMDTFORMULAUPDATEDISPATCHER
  2
AmdtFormulaUpdateDispatcher
  3
AcMeServices
 90
        0
 91
        1
280
     0
281
     0
  0
CLASS
  1
MATERIAL
  2
AcDbMaterial
  3
ObjectDBX Classes
 90
     1153
 91
        3
280
     0
281
     0
  0
CLASS
  1
VISUALSTYLE
  2
AcDbVisualStyle
  3
ObjectDBX Classes
 90
     4095
 91
       24
280
     0
281
     0
  0
CLASS
  1
TABLESTYLE
  2
AcDbTableStyle
  3
ObjectDBX Classes
 90
     4095
 91
        1
280
     0
281
     0
  0
CLASS
  1
SCALE
  2
AcDbScale
  3
ObjectDBX Classes
 90
     1153
 91
       17
280
     0
281
     0
  0
CLASS
  1
MLEADERSTYLE
  2
AcDbMLeaderStyle
  3
ACDB_MLEADERSTYLE_CLASS
 90
     4095
 91
        1
280
     0
281
     0
  0
CLASS
  1
ACDBSECTIONVIEWSTYLE
  2
AcDbSectionViewStyle
  3
ObjectDBX Classes
 90
     1025
 91
        1
280
     0
281
     0
  0
CLASS
  1
ACDBDETAILVIEWSTYLE
  2
AcDbDetailViewStyle
  3
ObjectDBX Classes
 90
     1025
 91
        1
280
     0
281
     0
  0
CLASS
  1
CELLSTYLEMAP
  2
AcDbCellStyleMap
  3
ObjectDBX Classes
 90
     1152
 91
        4
280
     0
281
     0
  0
ENDSEC
  0
SECTION
  2
TABLES
  0
TABLE
  2
VPORT
  5
3CD
330
0
100
AcDbSymbolTable
 70
     1
1001
ACAD
1000
DbSaveVer
1071
      105
  0
VPORT
  5
158C
330
3CD
100
AcDbSymbolTableRecord
100
AcDbViewportTableRecord
  2
*Active
 70
     0
 10
0.0
 20
0.0
 11
1.0
 21
1.0
 12
62.53218792184759
 22
-60.07664759684809
 13
0.0
 23
0.0
 14
0.25
 24
0.25
 15
0.5
 25
0.5
 16
0.0
 26
0.0
 36
1.0
 17
165.3695628009208
 27
99.02728232633585
 37
0.0
 40
357.6506731714819
 41
1.627400768245838
 42
50.0
 43
0.0
 44
0.0
 50
0.0
 51
0.0
 71
     0
 72
 20000
 73
     1
 74
     1
 75
     0
 76
     0
 77
     0
 78
     0
281
     0
 65
     0
110
0.0
120
0.0
130
0.0
111
1.0
121
0.0
131
0.0
112
0.0
122
1.0
132
0.0
 79
     0
146
0.0
348
15AD
 60
     3
 61
     5
292
     1
282
     1
141
0.0
142
0.0
 63
   250
421
  3355443
1001
ACAD_NAV_VCDISPLAY
1070
     3
  0
ENDTAB
  0
TABLE
  2
LTYPE
  5
3CA
330
0
100
AcDbSymbolTable
 70
    45
  0
LTYPE
  5
3D7
330
3CA
100
AcDbSymbolTableRecord
100
AcDbLinetypeTableRecord
  2
BYBLOCK
 70
     0
  3

 72
    65
 73
     0
 40
0.0
  0
LTYPE
  5
3D8
330
3CA
100
AcDbSymbolTableRecord
100
AcDbLinetypeTableRecord
  2
BYLAYER
 70
     0
  3

 72
    65
 73
     0
 40
0.0
  0
LTYPE
  5
3D9
330
3CA
100
AcDbSymbolTableRecord
100
AcDbLinetypeTableRecord
  2
CONTINUOUS
 70
     0
  3
Solid line
 72
    65
 73
     0
 40
0.0
  0
LTYPE
  5
3F5
330
3CA
100
AcDbSymbolTableRecord
100
AcDbLinetypeTableRecord
  2
BORDER
 70
     0
  3
__ __ . __ __ . __ __ . __ __ . __ __ . __ __ .
 72
    65
 73
     6
 40
1.75
 49
0.5
 74
     0
 49
-0.25
 74
     0
 49
0.5
 74
     0
 49
-0.25
 74
     0
 49
0.0
 74
     0
 49
-0.25
 74
     0
  0
LTYPE
  5
3F6
330
3CA
100
AcDbSymbolTableRecord
100
AcDbLinetypeTableRecord
  2
BORDER2
 70
     0
  3
__.__.__.__.__.__.__.__.__.__.__.__.__.__.__.__
 72
    65
 73
     6
 40
0.875
 49
0.25
 74
     0
 49
-0.125
 74
     0
 49
0.25
 74
     0
 49
-0.125
 74
     0
 49
0.0
 74
     0
 49
-0.125
 74
     0
  0
LTYPE
  5
3F7
330
3CA
100
AcDbSymbolTableRecord
100
AcDbLinetypeTableRecord
  2
BORDERX2
 70
     0
  3
____  ____  .  ____  ____  .  ____  ____  .  __
 72
    65
 73
     6
 40
3.5
 49
1.0
 74
     0
 49
-0.5
 74
     0
 49
1.0
 74
     0
 49
-0.5
 74
     0
 49
0.0
 74
     0
 49
-0.5
 74
     0
  0
LTYPE
  5
3F8
330
3CA
100
AcDbSymbolTableRecord
100
AcDbLinetypeTableRecord
  2
CENTER
 70
     0
  3
____ _ ____ _ ____ _ ____ _ ____ _ ____ _ ____ 
 72
    65
 73
     4
 40
2.0
 49
1.25
 74
     0
 49
-0.25
 74
     0
 49
0.25
 74
     0
 49
-0.25
 74
     0
  0
LTYPE
  5
3F9
330
3CA
100
AcDbSymbolTableRecord
100
AcDbLinetypeTableRecord
  2
CENTER2
 70
     0
  3
___ _ ___ _ ___ _ ___ _ ___ _ ___ _ ___ _ ___ _
 72
    65
 73
     4
 40
1.125
 49
0.75
 74
     0
 49
-0.125
 74
     0
 49
0.125
 74
     0
 49
-0.125
 74
     0
  0
LTYPE
  5
3FA
330
3CA
100
AcDbSymbolTableRecord
100
AcDbLinetypeTableRecord
  2
CENTERX2
 70
     0
  3
________  __  ________  __  ________  __  _____
 72
    65
 73
     4
 40
4.0
 49
2.5
 74
     0
 49
-0.5
 74
     0
 49
0.5
 74
     0
 49
-0.5
 74
     0
  0
LTYPE
  5
3FB
330
3CA
100
AcDbSymbolTableRecord
100
AcDbLinetypeTableRecord
  2
DASHDOT
 70
     0
  3
__ . __ . __ . __ . __ . __ . __ . __ . __ . __
 72
    65
 73
     4
 40
1.0
 49
0.5
 74
     0
 49
-0.25
 74
     0
 49
0.0
 74
     0
 49
-0.25
 74
     0
  0
LTYPE
  5
3FC
330
3CA
100
AcDbSymbolTableRecord
100
AcDbLinetypeTableRecord
  2
DASHDOT2
 70
     0
  3
_._._._._._._._._._._._._._._._._._._._._._._._
 72
    65
 73
     4
 40
0.5
 49
0.25
 74
     0
 49
-0.125
 74
     0
 49
0.0
 74
     0
 49
-0.125
 74
     0
  0
LTYPE
  5
3FD
330
3CA
100
AcDbSymbolTableRecord
100
AcDbLinetypeTableRecord
  2
DASHDOTX2
 70
     0
  3
____  .  ____  .  ____  .  ____  .  ____  .  __
 72
    65
 73
     4
 40
2.0
 49
1.0
 74
     0
 49
-0.5
 74
     0
 49
0.0
 74
     0
 49
-0.5
 74
     0
  0
LTYPE
  5
3FE
330
3CA
100
AcDbSymbolTableRecord
100
AcDbLinetypeTableRecord
  2
DASHED
 70
     0
  3
__ __ __ __ __ __ __ __ __ __ __ __ __ __ __ __
 72
    65
 73
     2
 40
0.75
 49
0.5
 74
     0
 49
-0.25
 74
     0
  0
LTYPE
  5
3FF
330
3CA
100
AcDbSymbolTableRecord
100
AcDbLinetypeTableRecord
  2
DASHED2
 70
     0
  3
_ _ _ _ _ _ _ _ _ _ _ _ _ _ _ _ _ _ _ _ _ _ _ _
 72
    65
 73
     2
 40
0.375
 49
0.25
 74
     0
 49
-0.125
 74
     0
  0
LTYPE
  5
400
330
3CA
100
AcDbSymbolTableRecord
100
AcDbLinetypeTableRecord
  2
DASHEDX2
 70
     0
  3
____  ____  ____  ____  ____  ____  ____  ____ 
 72
    65
 73
     2
 40
1.5
 49
1.0
 74
     0
 49
-0.5
 74
     0
  0
LTYPE
  5
401
330
3CA
100
AcDbSymbolTableRecord
100
AcDbLinetypeTableRecord
  2
DIVIDE
 70
     0
  3
____ . . ____ . . ____ . . ____ . . ____ . . __
 72
    65
 73
     6
 40
1.25
 49
0.5
 74
     0
 49
-0.25
 74
     0
 49
0.0
 74
     0
 49
-0.25
 74
     0
 49
0.0
 74
     0
 49
-0.25
 74
     0
  0
LTYPE
  5
402
330
3CA
100
AcDbSymbolTableRecord
100
AcDbLinetypeTableRecord
  2
DIVIDE2
 70
     0
  3
__..__..__..__..__..__..__..__..__..__..__..__.
 72
    65
 73
     6
 40
0.625
 49
0.25
 74
     0
 49
-0.125
 74
     0
 49
0.0
 74
     0
 49
-0.125
 74
     0
 49
0.0
 74
     0
 49
-0.125
 74
     0
  0
LTYPE
  5
403
330
3CA
100
AcDbSymbolTableRecord
100
AcDbLinetypeTableRecord
  2
DIVIDEX2
 70
     0
  3
________  .  .  ________  .  .  ________  .  . 
 72
    65
 73
     6
 40
2.5
 49
1.0
 74
     0
 49
-0.5
 74
     0
 49
0.0
 74
     0
 49
-0.5
 74
     0
 49
0.0
 74
     0
 49
-0.5
 74
     0
  0
LTYPE
  5
404
330
3CA
100
AcDbSymbolTableRecord
100
AcDbLinetypeTableRecord
  2
DOT
 70
     0
  3
. . . . . . . . . . . . . . . . . . . . . . . .
 72
    65
 73
     2
 40
0.25
 49
0.0
 74
     0
 49
-0.25
 74
     0
  0
LTYPE
  5
405
330
3CA
100
AcDbSymbolTableRecord
100
AcDbLinetypeTableRecord
  2
DOT2
 70
     0
  3
...............................................
 72
    65
 73
     2
 40
0.125
 49
0.0
 74
     0
 49
-0.125
 74
     0
  0
LTYPE
  5
406
330
3CA
100
AcDbSymbolTableRecord
100
AcDbLinetypeTableRecord
  2
DOTX2
 70
     0
  3
.  .  .  .  .  .  .  .  .  .  .  .  .  .  .  . 
 72
    65
 73
     2
 40
0.5
 49
0.0
 74
     0
 49
-0.5
 74
     0
  0
LTYPE
  5
407
330
3CA
100
AcDbSymbolTableRecord
100
AcDbLinetypeTableRecord
  2
HIDDEN
 70
     0
  3
__ __ __ __ __ __ __ __ __ __ __ __ __ __ __ __
 72
    65
 73
     2
 40
0.375
 49
0.25
 74
     0
 49
-0.125
 74
     0
  0
LTYPE
  5
408
330
3CA
100
AcDbSymbolTableRecord
100
AcDbLinetypeTableRecord
  2
HIDDEN2
 70
     0
  3
_ _ _ _ _ _ _ _ _ _ _ _ _ _ _ _ _ _ _ _ _ _ _ _
 72
    65
 73
     2
 40
0.1875
 49
0.125
 74
     0
 49
-0.0625
 74
     0
  0
LTYPE
  5
409
330
3CA
100
AcDbSymbolTableRecord
100
AcDbLinetypeTableRecord
  2
HIDDENX2
 70
     0
  3
____ ____ ____ ____ ____ ____ ____ ____ ____ __
 72
    65
 73
     2
 40
0.75
 49
0.5
 74
     0
 49
-0.25
 74
     0
  0
LTYPE
  5
40A
330
3CA
100
AcDbSymbolTableRecord
100
AcDbLinetypeTableRecord
  2
PHANTOM
 70
     0
  3
______  __  __  ______  __  __  ______  __  __ 
 72
    65
 73
     6
 40
2.5
 49
1.25
 74
     0
 49
-0.25
 74
     0
 49
0.25
 74
     0
 49
-0.25
 74
     0
 49
0.25
 74
     0
 49
-0.25
 74
     0
  0
LTYPE
  5
40B
330
3CA
100
AcDbSymbolTableRecord
100
AcDbLinetypeTableRecord
  2
PHANTOM2
 70
     0
  3
___ _ _ ___ _ _ ___ _ _ ___ _ _ ___ _ _ ___ _ _
 72
    65
 73
     6
 40
1.25
 49
0.625
 74
     0
 49
-0.125
 74
     0
 49
0.125
 74
     0
 49
-0.125
 74
     0
 49
0.125
 74
     0
 49
-0.125
 74
     0
  0
LTYPE
  5
40C
330
3CA
100
AcDbSymbolTableRecord
100
AcDbLinetypeTableRecord
  2
PHANTOMX2
 70
     0
  3
____________    ____    ____    ____________   
 72
    65
 73
     6
 40
5.0
 49
2.5
 74
     0
 49
-0.5
 74
     0
 49
0.5
 74
     0
 49
-0.5
 74
     0
 49
0.5
 74
     0
 49
-0.5
 74
     0
  0
LTYPE
  5
40D
330
3CA
100
AcDbSymbolTableRecord
100
AcDbLinetypeTableRecord
  2
TENSEN
 70
     0
  3

 72
    65
 73
     2
 40
4.0
 49
3.0
 74
     0
 49
-1.0
 74
     0
  0
LTYPE
  5
40E
330
3CA
100
AcDbSymbolTableRecord
100
AcDbLinetypeTableRecord
  2
ITTEN
 70
     0
  3

 72
    65
 73
     4
 40
8.0
 49
5.0
 74
     0
 49
-1.0
 74
     0
 49
1.0
 74
     0
 49
-1.0
 74
     0
  0
LTYPE
  5
40F
330
3CA
100
AcDbSymbolTableRecord
100
AcDbLinetypeTableRecord
  2
TENSEN3
 70
     0
  3

 72
    65
 73
     2
 40
4.0
 49
3.0
 74
     0
 49
-1.0
 74
     0
  0
LTYPE
  5
410
330
3CA
100
AcDbSymbolTableRecord
100
AcDbLinetypeTableRecord
  2
ITTEN1
 70
     0
  3

 72
    65
 73
     4
 40
8.199999999999999
 49
5.0
 74
     0
 49
-1.0
 74
     0
 49
1.199999999999999
 74
     0
 49
-1.0
 74
     0
  0
LTYPE
  5
11A5
330
3CA
100
AcDbSymbolTableRecord
100
AcDbLinetypeTableRecord
  2
TENSEN2
 70
     0
  3

 72
    65
 73
     2
 40
2.1
 49
1.5
 74
     0
 49
-0.6
 74
     0
  0
LTYPE
  5
13C3
330
3CA
100
AcDbSymbolTableRecord
100
AcDbLinetypeTableRecord
  2
ASULTYPE
 70
     0
  3
実線
 72
    65
 73
     2
 40
3.0
 49
2.5
 74
     0
 49
0.5
 74
     0
  0
LTYPE
  5
13C4
330
3CA
100
AcDbSymbolTableRecord
100
AcDbLinetypeTableRecord
  2
ASVLTYPE
 70
     0
  3
__ __ __ __ __ __ __ __ __ __ __ __ __ __ __ __ __ __ __ __ __
 72
    65
 73
     2
 40
0.75
 49
0.5
 74
     0
 49
-0.25
 74
     0
  0
LTYPE
  5
1408
330
3CA
100
AcDbSymbolTableRecord
100
AcDbLinetypeTableRecord
  2
AM_ISO02W050
 70
     0
  3
__ __ __ __ __ __ __ __ __ __ __ __ __ __ __
 72
    65
 73
     2
 40
7.5
 49
6.0
 74
     0
 49
-1.5
 74
     0
  0
LTYPE
  5
1409
330
3CA
100
AcDbSymbolTableRecord
100
AcDbLinetypeTableRecord
  2
AM_ISO08W050
 70
     0
  3
____ . ____ . ____ . ____ . ____ . ____ . ____
 72
    65
 73
     4
 40
18.0
 49
12.0
 74
     0
 49
-1.5
 74
     0
 49
3.0
 74
     0
 49
-1.5
 74
     0
  0
LTYPE
  5
140A
330
3CA
100
AcDbSymbolTableRecord
100
AcDbLinetypeTableRecord
  2
AM_ISO09W050
 70
     0
  3
_____ . . _____ . . _____ . . ____ .. ____
 72
    65
 73
     6
 40
22.5
 49
12.0
 74
     0
 49
-1.5
 74
     0
 49
3.0
 74
     0
 49
-1.5
 74
     0
 49
3.0
 74
     0
 49
-1.5
 74
     0
  0
LTYPE
  5
140B
330
3CA
100
AcDbSymbolTableRecord
100
AcDbLinetypeTableRecord
  2
Amconstr
 70
     0
  3
_______________________
 72
    65
 73
     2
 40
9999.0
 49
9999.0
 74
     0
 49
0.0
 74
     0
  0
LTYPE
  5
140C
330
3CA
100
AcDbSymbolTableRecord
100
AcDbLinetypeTableRecord
  2
AM_ISO08W050x2
 70
     0
  3
__ . __ . __ . __ . __ . __
 72
    65
 73
     4
 40
9.0
 49
6.0
 74
     0
 49
-0.75
 74
     0
 49
1.5
 74
     0
 49
-0.75
 74
     0
  0
LTYPE
  5
140D
330
3CA
100
AcDbSymbolTableRecord
100
AcDbLinetypeTableRecord
  2
AM_ISO02W050x2
 70
     0
  3
 _ _ _ _ _ _ _ _ _ _ _ _
 72
    65
 73
     2
 40
3.75
 49
3.0
 74
     0
 49
-0.75
 74
     0
  0
LTYPE
  5
1410
330
3CA
100
AcDbSymbolTableRecord
100
AcDbLinetypeTableRecord
  2
Amzigzag
 70
     0
  3
/\/-/\/-/\/-/\/-/\/-/\/
 72
    65
 73
     2
 40
11.0001
 49
0.0001
 74
     4
 75
   135
340
140F
 46
0.04
 50
0.0
 44
0.0
 45
0.0
 49
-11.0
 74
     0
  0
LTYPE
  5
1411
330
3CA
100
AcDbSymbolTableRecord
100
AcDbLinetypeTableRecord
  2
Amzigzag2
 70
     0
  3
/\/-/\/-/\/-/\/-/\/-/\/
 72
    65
 73
     2
 40
0.4401
 49
0.0001
 74
     4
 75
   135
340
140F
 46
0.0016
 50
0.0
 44
0.0
 45
0.0
 49
-0.4400000000000001
 74
     0
  0
LTYPE
  5
141F
330
3CA
100
AcDbSymbolTableRecord
100
AcDbLinetypeTableRecord
  2
ACANSTGB
 70
     0
  3
__ . . __ . .
 72
    65
 73
     6
 40
0.35433070866
 49
0.15748031496
 74
     0
 49
-0.03937007874
 74
     0
 49
0.03937007874
 74
     0
 49
-0.03937007874
 74
     0
 49
0.03937007874
 74
     0
 49
-0.03937007874
 74
     0
  0
LTYPE
  5
1420
330
3CA
100
AcDbSymbolTableRecord
100
AcDbLinetypeTableRecord
  2
ACANSTGL
 70
     0
  3
_ _ _ _ _
 72
    65
 73
     2
 40
0.11811023622
 49
0.07874015748
 74
     0
 49
-0.03937007874
 74
     0
  0
LTYPE
  5
149A
330
3CA
100
AcDbSymbolTableRecord
100
AcDbLinetypeTableRecord
  2
ACISOWELD
 70
     0
  3
_ _ _ _ _
 72
    65
 73
     2
 40
2.0
 49
2.0
 74
     0
 49
-1.0
 74
     0
  0
LTYPE
  5
149B
330
3CA
100
AcDbSymbolTableRecord
100
AcDbLinetypeTableRecord
  2
ACISOTGB
 70
     0
  3
__ . . __ . .
 72
    65
 73
     6
 40
9.0
 49
4.0
 74
     0
 49
-1.0
 74
     0
 49
1.0
 74
     0
 49
-1.0
 74
     0
 49
1.0
 74
     0
 49
-1.0
 74
     0
  0
LTYPE
  5
149C
330
3CA
100
AcDbSymbolTableRecord
100
AcDbLinetypeTableRecord
  2
ACISOTGL
 70
     0
  3
_ _ _ _ _
 72
    65
 73
     2
 40
3.0
 49
2.0
 74
     0
 49
-1.0
 74
     0
  0
ENDTAB
  0
TABLE
  2
LAYER
  5
3C7
102
{ACAD_XDICTIONARY
360
161C
102
}
330
0
100
AcDbSymbolTable
 70
    12
  0
LAYER
  5
3D4
102
{ACAD_XDICTIONARY
360
15F0
102
}
330
3C7
100
AcDbSymbolTableRecord
100
AcDbLayerTableRecord
  2
0
 70
     0
 62
     7
  6
CONTINUOUS
370
    -3
390
1327
347
159F
348
0
  0
LAYER
  5
416
102
{ACAD_XDICTIONARY
360
15F2
102
}
330
3C7
100
AcDbSymbolTableRecord
100
AcDbLayerTableRecord
  2
DAI
 70
     0
 62
     8
  6
CONTINUOUS
370
    -3
390
1327
347
159F
348
0
  0
LAYER
  5
417
102
{ACAD_XDICTIONARY
360
15F4
102
}
330
3C7
100
AcDbSymbolTableRecord
100
AcDbLayerTableRecord
  2
1
 70
     0
 62
     1
  6
ITTEN1
370
    25
390
1327
347
159F
348
0
  0
LAYER
  5
418
102
{ACAD_XDICTIONARY
360
15F6
102
}
330
3C7
100
AcDbSymbolTableRecord
100
AcDbLayerTableRecord
  2
2
 70
     0
 62
     7
  6
TENSEN
370
    40
390
1327
347
159F
348
0
  0
LAYER
  5
419
102
{ACAD_XDICTIONARY
360
15F8
102
}
330
3C7
100
AcDbSymbolTableRecord
100
AcDbLayerTableRecord
  2
3
 70
     0
 62
     5
  6
CONTINUOUS
370
    50
390
1327
347
159F
348
0
  0
LAYER
  5
41A
102
{ACAD_XDICTIONARY
360
15FA
102
}
330
3C7
100
AcDbSymbolTableRecord
100
AcDbLayerTableRecord
  2
4
 70
     0
 62
     6
  6
CONTINUOUS
370
    -3
390
1327
347
159F
348
0
  0
LAYER
  5
41B
102
{ACAD_XDICTIONARY
360
15FC
102
}
330
3C7
100
AcDbSymbolTableRecord
100
AcDbLayerTableRecord
  2
5
 70
     0
 62
     6
  6
TENSEN3
370
    -3
390
1327
347
159F
348
0
  0
LAYER
  5
41C
102
{ACAD_XDICTIONARY
360
15FE
102
}
330
3C7
100
AcDbSymbolTableRecord
100
AcDbLayerTableRecord
  2
6
 70
     0
 62
     6
  6
ITTEN
370
    -3
390
1327
347
159F
348
0
  0
LAYER
  5
41D
102
{ACAD_XDICTIONARY
360
1600
102
}
330
3C7
100
AcDbSymbolTableRecord
100
AcDbLayerTableRecord
  2
7
 70
     0
 62
     3
  6
TENSEN
370
    -3
390
1327
347
159F
348
0
  0
LAYER
  5
41E
102
{ACAD_XDICTIONARY
360
1602
102
}
330
3C7
100
AcDbSymbolTableRecord
100
AcDbLayerTableRecord
  2
8
 70
     0
 62
     3
  6
ITTEN1
370
    -3
390
1327
347
159F
348
0
  0
LAYER
  5
41F
330
3C7
100
AcDbSymbolTableRecord
100
AcDbLayerTableRecord
  2
DEFPOINTS
 70
     0
 62
     7
  6
CONTINUOUS
290
     0
370
    -3
390
1327
347
159F
348
0
  0
LAYER
  5
420
102
{ACAD_XDICTIONARY
360
1604
102
}
330
3C7
100
AcDbSymbolTableRecord
100
AcDbLayerTableRecord
  2
ASHADE
 70
     0
 62
     7
  6
CONTINUOUS
370
    -3
390
1327
347
159F
348
0
  0
ENDTAB
  0
TABLE
  2
STYLE
  5
3C8
330
0
100
AcDbSymbolTable
 70
    25
  0
STYLE
  5
3D5
330
3C8
100
AcDbSymbolTableRecord
100
AcDbTextStyleTableRecord
  2
STANDARD
 70
     0
 40
0.0
 41
1.0
 50
0.0
 71
     0
 42
0.2
  3
txt
  4

  0
STYLE
  5
3E2
330
3C8
100
AcDbSymbolTableRecord
100
AcDbTextStyleTableRecord
  2
TEXT-1
 70
     0
 40
0.0
 41
1.0
 50
0.0
 71
     0
 42
0.2
  3
italicc.shx
  4

  0
STYLE
  5
3E3
330
3C8
100
AcDbSymbolTableRecord
100
AcDbTextStyleTableRecord
  2
TEST1
 70
     0
 40
0.0
 41
1.0
 50
0.0
 71
     0
 42
0.2
  3
italicc.shx
  4

  0
STYLE
  5
3E4
330
3C8
100
AcDbSymbolTableRecord
100
AcDbTextStyleTableRecord
  2
TEST2
 70
     0
 40
10.0
 41
1.0
 50
0.0
 71
     0
 42
10.0
  3
txt
  4
extfont
  0
STYLE
  5
3E5
330
3C8
100
AcDbSymbolTableRecord
100
AcDbTextStyleTableRecord
  2
BIGFONT
 70
     0
 40
5.0
 41
0.7
 50
0.0
 71
     0
 42
5.0
  3
txt.shx
  4
bigfont.shx
  0
STYLE
  5
3E6
330
3C8
100
AcDbSymbolTableRecord
100
AcDbTextStyleTableRecord
  2
ROMAND
 70
     0
 40
4.0
 41
0.6
 50
0.0
 71
     0
 42
4.0
  3
romand
  4

  0
STYLE
  5
3E7
330
3C8
100
AcDbSymbolTableRecord
100
AcDbTextStyleTableRecord
  2
EXTFONT
 70
     0
 40
3.5
 41
0.5
 50
0.0
 71
     0
 42
3.5
  3
txt.shx
  4
extfont
  0
STYLE
  5
3E8
330
3C8
100
AcDbSymbolTableRecord
100
AcDbTextStyleTableRecord
  2
ROMANS
 70
     0
 40
2.5
 41
0.6
 50
0.0
 71
     0
 42
2.5
  3
romans
  4

  0
STYLE
  5
3E9
330
3C8
100
AcDbSymbolTableRecord
100
AcDbTextStyleTableRecord
  2
SCRIPTC
 70
     0
 40
20.0
 41
1.0
 50
0.0
 71
     0
 42
20.0
  3
extfont.shx
  4

  0
STYLE
  5
3EA
330
3C8
100
AcDbSymbolTableRecord
100
AcDbTextStyleTableRecord
  2
SCRIPTS
 70
     0
 40
20.0
 41
1.0
 50
0.0
 71
     0
 42
20.0
  3
scripts
  4

  0
STYLE
  5
3EB
330
3C8
100
AcDbSymbolTableRecord
100
AcDbTextStyleTableRecord
  2
ROMANT
 70
     0
 40
20.0
 41
1.0
 50
0.0
 71
     0
 42
20.0
  3
romant
  4

  0
STYLE
  5
3EC
330
3C8
100
AcDbSymbolTableRecord
100
AcDbTextStyleTableRecord
  2
GOTHICE
 70
     0
 40
20.0
 41
1.0
 50
0.0
 71
     0
 42
20.0
  3
gothice
  4

  0
STYLE
  5
3ED
330
3C8
100
AcDbSymbolTableRecord
100
AcDbTextStyleTableRecord
  2
GOTHICG
 70
     0
 40
20.0
 41
1.0
 50
0.0
 71
     0
 42
20.0
  3
gothicg
  4

  0
STYLE
  5
3EE
330
3C8
100
AcDbSymbolTableRecord
100
AcDbTextStyleTableRecord
  2
SANSSERIF
 70
     0
 40
20.0
 41
1.0
 50
0.0
 71
     0
 42
20.0
  3
sas_____.pfb
  4

  0
STYLE
  5
3EF
330
3C8
100
AcDbSymbolTableRecord
100
AcDbTextStyleTableRecord
  2
TECHNICBOLD
 70
     0
 40
20.0
 41
1.0
 50
0.0
 71
     0
 42
20.0
  3
teb_____.pfb
  4

  0
STYLE
  5
3F0
330
3C8
100
AcDbSymbolTableRecord
100
AcDbTextStyleTableRecord
  2
TXT
 70
     0
 40
20.0
 41
1.0
 50
0.0
 71
     0
 42
20.0
  3
txt
  4

  0
STYLE
  5
3F1
330
3C8
100
AcDbSymbolTableRecord
100
AcDbTextStyleTableRecord
  2
MONOTXT
 70
     0
 40
20.0
 41
1.0
 50
0.0
 71
     0
 42
20.0
  3
monotxt
  4

  0
STYLE
  5
3F2
330
3C8
100
AcDbSymbolTableRecord
100
AcDbTextStyleTableRecord
  2
TECHNICLIGHT
 70
     0
 40
3.6
 41
0.8
 50
0.0
 71
     0
 42
3.6
  3
tel_____.pfb
  4

  0
STYLE
  5
3F3
330
3C8
100
AcDbSymbolTableRecord
100
AcDbTextStyleTableRecord
  2
GREEKS
 70
     0
 40
20.0
 41
1.0
 50
0.0
 71
     0
 42
20.0
  3
greeks
  4

  0
STYLE
  5
3F4
330
3C8
100
AcDbSymbolTableRecord
100
AcDbTextStyleTableRecord
  2
ASHADE
 70
     0
 40
0.2
 41
1.0
 50
0.0
 71
     0
 42
5.0
  3
simplex
  4

  0
STYLE
  5
140F
330
3C8
100
AcDbSymbolTableRecord
100
AcDbTextStyleTableRecord
  2

 70
     1
 40
0.0
 41
1.0
 50
0.0
 71
     0
 42
5.0
  3
ltypeshp.shx
  4

  0
STYLE
  5
1412
330
3C8
100
AcDbSymbolTableRecord
100
AcDbTextStyleTableRecord
  2
ACANSTS
 70
     0
 40
1.0
 41
1.0
 50
0.0
 71
     0
 42
5.0
  3
romans.shx
  4
extfont.shx
  0
STYLE
  5
141E
330
3C8
100
AcDbSymbolTableRecord
100
AcDbTextStyleTableRecord
  2
ACANSGDT
 70
     0
 40
0.0
 41
1.0
 50
0.0
 71
     0
 42
5.0
  3
amgdtans.shx
  4

  0
STYLE
  5
149D
330
3C8
100
AcDbSymbolTableRecord
100
AcDbTextStyleTableRecord
  2
ACISOTS
 70
     0
 40
1.0
 41
1.0
 50
0.0
 71
     0
 42
10.0
  3
isocp.shx
  4
extfont.shx
  0
STYLE
  5
149E
330
3C8
100
AcDbSymbolTableRecord
100
AcDbTextStyleTableRecord
  2
ACISOGDT
 70
     0
 40
0.0
 41
1.0
 50
0.0
 71
     0
 42
10.0
  3
amgdt.shx
  4

  0
ENDTAB
  0
TABLE
  2
VIEW
  5
3CB
330
0
100
AcDbSymbolTable
 70
     2
  0
VIEW
  5
411
330
3CB
100
AcDbSymbolTableRecord
100
AcDbViewTableRecord
  2
OLE1
 70
     0
 40
108.5
 10
105.3186106346483
 20
217.75
 41
173.6372212692967
 11
0.0
 21
0.0
 31
1.0
 12
0.0
 22
0.0
 32
0.0
 42
50.0
 43
0.0
 44
0.0
 50
0.0
 71
     0
281
     0
 72
     0
 73
     0
348
15AD
  0
ENDTAB
  0
TABLE
  2
UCS
  5
3CC
330
0
100
AcDbSymbolTable
 70
     0
  0
ENDTAB
  0
TABLE
  2
APPID
  5
3CE
330
0
100
AcDbSymbolTable
 70
    15
  0
APPID
  5
3D6
330
3CE
100
AcDbSymbolTableRecord
100
AcDbRegAppTableRecord
  2
ACAD
 70
     0
  0
APPID
  5
414
330
3CE
100
AcDbSymbolTableRecord
100
AcDbRegAppTableRecord
  2
AVE_RENDER
 70
     0
  0
APPID
  5
1340
330
3CE
100
AcDbSymbolTableRecord
100
AcDbRegAppTableRecord
  2
GENIUS_GENDIM_13
 70
     0
  0
APPID
  5
1341
330
3CE
100
AcDbSymbolTableRecord
100
AcDbRegAppTableRecord
  2
GENIUS_GENDTOL_13
 70
     0
  0
APPID
  5
1342
330
3CE
100
AcDbSymbolTableRecord
100
AcDbRegAppTableRecord
  2
GENIUS_GE3DTOL_13
 70
     0
  0
APPID
  5
1345
330
3CE
100
AcDbSymbolTableRecord
100
AcDbRegAppTableRecord
  2
MCAD_NO_VIS
 70
     0
  0
APPID
  5
1346
330
3CE
100
AcDbSymbolTableRecord
100
AcDbRegAppTableRecord
  2
ACAD_TEMP_GRAPHIC
 70
     0
  0
APPID
  5
1376
330
3CE
100
AcDbSymbolTableRecord
100
AcDbRegAppTableRecord
  2
AD_DRAW
 70
     0
  0
APPID
  5
1379
330
3CE
100
AcDbSymbolTableRecord
100
AcDbRegAppTableRecord
  2
ACATTRIBSERVICES
 70
     0
  0
APPID
  5
13C5
330
3CE
100
AcDbSymbolTableRecord
100
AcDbRegAppTableRecord
  2
ASURF_PCURVE_APPNAME
 70
     0
  0
APPID
  5
13CA
330
3CE
100
AcDbSymbolTableRecord
100
AcDbRegAppTableRecord
  2
AMG_3D2D_5.0
 70
     0
  0
APPID
  5
13F5
330
3CE
100
AcDbSymbolTableRecord
100
AcDbRegAppTableRecord
  2
DESIGNERASSEMBLIES
 70
     0
  0
APPID
  5
13FD
330
3CE
100
AcDbSymbolTableRecord
100
AcDbRegAppTableRecord
  2
ACADM_DIM_EDIT
 70
     0
  0
APPID
  5
13FE
330
3CE
100
AcDbSymbolTableRecord
100
AcDbRegAppTableRecord
  2
AMDT_DM_ADJ
 70
     0
  0
APPID
  5
160F
330
3CE
100
AcDbSymbolTableRecord
100
AcDbRegAppTableRecord
  2
ACAD_NAV_VCDISPLAY
 70
     0
  0
ENDTAB
  0
TABLE
  2
DIMSTYLE
  5
3CF
330
0
100
AcDbSymbolTable
 70
    14
100
AcDbDimStyleTable
 71
     1
340
425
  0
DIMSTYLE
105
425
330
3CF
100
AcDbSymbolTableRecord
100
AcDbDimStyleTableRecord
  2
STANDARD
 70
     0
340
3D5
  0
DIMSTYLE
105
1423
330
3CF
100
AcDbSymbolTableRecord
100
AcDbDimStyleTableRecord
  2
AM_ANSI
 70
     0
  4
mm
 41
0.1
 42
0.05
 43
0.5
 44
0.1
 47
0.1
 48
0.1
 78
     7
 79
     2
140
0.12
141
0.0
146
0.71
147
0.06
176
   256
177
   256
178
     2
274
     4
284
     7
340
3D5
371
    -1
372
    -1
  0
DIMSTYLE
105
1424
330
3CF
100
AcDbSymbolTableRecord
100
AcDbDimStyleTableRecord
  2
AM_ANSI$3
 70
     0
  4
mm
 41
0.1
 42
0.05
 43
0.5
 44
0.1
 47
0.1
 48
0.1
 78
     7
 79
     2
140
0.12
141
0.0
146
0.71
147
0.06
176
   256
177
   256
178
     2
274
     4
284
     7
288
     1
289
     0
340
3D5
371
    -1
372
    -1
  0
DIMSTYLE
105
1425
330
3CF
100
AcDbSymbolTableRecord
100
AcDbDimStyleTableRecord
  2
AM_ANSI$4
 70
     0
  4
mm
 41
0.1
 42
0.05
 43
0.5
 44
0.1
 47
0.1
 48
0.1
 78
     7
 79
     2
140
0.12
141
0.0
146
0.71
147
0.06
176
   256
177
   256
178
     2
274
     4
284
     7
288
     1
289
     0
340
3D5
371
    -1
372
    -1
  0
DIMSTYLE
105
1426
330
3CF
100
AcDbSymbolTableRecord
100
AcDbDimStyleTableRecord
  2
AM_ANSI$7
 70
     0
  4
mm
 41
0.1
 42
0.05
 43
0.5
 44
0.1
 47
0.1
 48
0.1
 78
     7
 79
     2
140
0.24
141
0.0
146
0.71
147
0.06
176
   256
177
   256
178
     2
274
     4
284
     7
340
3D5
371
    -1
372
    -1
  0
DIMSTYLE
105
1427
330
3CF
100
AcDbSymbolTableRecord
100
AcDbDimStyleTableRecord
  2
AM_ANSI$SF
 70
     0
  4
mm
 41
0.1
 42
0.05
 43
0.5
 44
0.1
 47
0.1
 48
0.1
 75
     1
 76
     1
 78
     7
 79
     2
140
0.12
141
0.0
146
0.71
147
0.06
176
   256
177
   256
178
     2
274
     4
284
     7
340
3D5
371
    -1
372
    -1
  0
DIMSTYLE
105
142C
330
3CF
100
AcDbSymbolTableRecord
100
AcDbDimStyleTableRecord
  2
AM_ANSI$SH
 70
     0
  4
mm
 41
0.1
 42
0.05
 43
0.5
 44
0.1
 47
0.1
 48
0.1
 75
     1
 76
     1
 78
     7
 79
     2
140
0.12
141
0.0
146
0.71
147
0.06
173
     1
176
   256
177
   256
178
     2
274
     4
284
     7
340
3D5
343
1428
371
    -1
372
    -1
  0
DIMSTYLE
105
149F
330
3CF
100
AcDbSymbolTableRecord
100
AcDbDimStyleTableRecord
  2
AM_ISO
 70
     0
  4
"
 40
0.0
 41
2.5
 42
1.0
 43
10.0
 44
1.0
 47
0.1
 48
0.1
 73
     0
 78
     8
 79
     2
140
5.0
141
0.0
143
0.0393701
146
0.71
147
1.5
176
   256
177
   256
178
     7
271
     2
272
     3
274
     4
283
     0
284
     8
288
     1
340
3D5
371
    -1
372
    -1
  0
DIMSTYLE
105
14A0
330
3CF
100
AcDbSymbolTableRecord
100
AcDbDimStyleTableRecord
  2
AM_ISO$3
 70
     0
  4
"
 41
2.5
 42
1.0
 43
10.0
 44
1.0
 47
0.1
 48
0.1
 73
     0
 77
     1
 78
     8
 79
     2
140
3.5
141
0.0
143
0.0393701
146
0.71
147
1.5
176
   256
177
   256
178
     2
271
     2
272
     3
274
     4
283
     0
284
     8
288
     1
289
     0
340
3D5
371
    -1
372
    -1
  0
DIMSTYLE
105
14A1
330
3CF
100
AcDbSymbolTableRecord
100
AcDbDimStyleTableRecord
  2
AM_ISO$4
 70
     0
  4
"
 41
2.5
 42
1.0
 43
10.0
 44
1.0
 47
0.1
 48
0.1
 73
     0
 77
     1
 78
     8
 79
     2
140
3.5
141
0.0
143
0.0393701
146
0.71
147
1.5
176
   256
177
   256
178
     2
271
     2
272
     3
274
     4
283
     0
284
     8
288
     1
289
     0
340
3D5
371
    -1
372
    -1
  0
DIMSTYLE
105
14A2
330
3CF
100
AcDbSymbolTableRecord
100
AcDbDimStyleTableRecord
  2
AM_ISO$6
 70
     0
  4
"
 41
2.5
 42
1.0
 43
10.0
 44
1.0
 47
0.1
 48
0.1
 73
     0
 74
     0
 78
     8
 79
     2
140
3.5
141
0.0
143
0.0393701
146
0.71
147
1.5
172
     1
176
   256
177
   256
178
     2
271
     2
272
     3
274
     4
283
     0
284
     8
340
3D5
371
    -1
372
    -1
  0
DIMSTYLE
105
14A3
330
3CF
100
AcDbSymbolTableRecord
100
AcDbDimStyleTableRecord
  2
AM_ISO$7
 70
     0
  4
"
 41
2.5
 42
1.0
 43
10.0
 44
1.0
 47
0.1
 48
0.1
 73
     0
 74
     0
 77
     1
 78
     8
 79
     2
140
5.0
141
0.0
143
0.0393701
146
0.71
147
1.5
172
     1
176
   256
177
   256
178
     2
271
     2
272
     3
274
     4
283
     0
284
     8
340
3D5
371
    -1
372
    -1
  0
DIMSTYLE
105
14A4
330
3CF
100
AcDbSymbolTableRecord
100
AcDbDimStyleTableRecord
  2
AM_ISO$SF
 70
     0
  4
"
 41
2.5
 42
1.0
 43
10.0
 44
1.0
 47
0.1
 48
0.1
 73
     0
 74
     0
 75
     1
 76
     1
 77
     1
 78
     8
 79
     2
140
3.5
141
0.0
143
0.0393701
146
0.71
147
1.5
172
     1
176
   256
177
   256
178
     2
271
     2
272
     3
274
     4
283
     0
284
     8
340
3D5
371
    -1
372
    -1
  0
DIMSTYLE
105
14A5
330
3CF
100
AcDbSymbolTableRecord
100
AcDbDimStyleTableRecord
  2
AM_ISO$SH
 70
     0
  4
"
 41
2.5
 42
1.0
 43
10.0
 44
1.0
 47
0.1
 48
0.1
 73
     0
 74
     0
 75
     1
 76
     1
 77
     1
 78
     8
 79
     2
140
3.5
141
0.0
143
0.0393701
144
2.0
146
0.71
147
1.5
172
     1
173
     1
176
   256
177
   256
178
     2
271
     2
272
     3
274
     4
283
     0
284
     8
340
3D5
341
1428
343
1428
371
    -1
372
    -1
  0
ENDTAB
  0
TABLE
  2
BLOCK_RECORD
  5
3C6
330
0
100
AcDbSymbolTable
 70
    22
  0
BLOCK_RECORD
  5
3DD
102
{ACAD_XDICTIONARY
360
1430
102
}
330
3C6
100
AcDbSymbolTableRecord
100
AcDbBlockTableRecord
  2
*MODEL_SPACE
340
132A
 70
     0
280
     1
281
     0
  0
BLOCK_RECORD
  5
3DA
330
3C6
100
AcDbSymbolTableRecord
100
AcDbBlockTableRecord
  2
*PAPER_SPACE
340
132B
 70
     0
280
     1
281
     0
  0
BLOCK_RECORD
  5
3E1
330
3C6
100
AcDbSymbolTableRecord
100
AcDbBlockTableRecord
  2
AVE_RENDER
340
0
102
{BLKREFS
331
F8
331
F9
331
FA
102
}
 70
     0
280
     1
281
     0
  0
BLOCK_RECORD
  5
891
330
3C6
100
AcDbSymbolTableRecord
100
AcDbBlockTableRecord
  2
A$C72680864
340
0
 70
     0
280
     1
281
     0
  0
BLOCK_RECORD
  5
8D1
330
3C6
100
AcDbSymbolTableRecord
100
AcDbBlockTableRecord
  2
A$C12D4094E
340
0
 70
     0
280
     1
281
     0
  0
BLOCK_RECORD
  5
912
330
3C6
100
AcDbSymbolTableRecord
100
AcDbBlockTableRecord
  2
A$C33B15D82
340
0
 70
     0
280
     1
281
     0
  0
BLOCK_RECORD
  5
956
330
3C6
100
AcDbSymbolTableRecord
100
AcDbBlockTableRecord
  2
A$C2DD13992
340
0
 70
     0
280
     1
281
     0
  0
BLOCK_RECORD
  5
E32
330
3C6
100
AcDbSymbolTableRecord
100
AcDbBlockTableRecord
  2
A$C466C3814
340
0
 70
     0
280
     1
281
     0
  0
BLOCK_RECORD
  5
10E6
330
3C6
100
AcDbSymbolTableRecord
100
AcDbBlockTableRecord
  2
*D6
340
0
 70
     0
280
     1
281
     0
  0
BLOCK_RECORD
  5
110F
330
3C6
100
AcDbSymbolTableRecord
100
AcDbBlockTableRecord
  2
*D7
340
0
 70
     0
280
     1
281
     0
  0
BLOCK_RECORD
  5
114B
330
3C6
100
AcDbSymbolTableRecord
100
AcDbBlockTableRecord
  2
*D8
340
0
 70
     0
280
     1
281
     0
  0
BLOCK_RECORD
  5
116E
330
3C6
100
AcDbSymbolTableRecord
100
AcDbBlockTableRecord
  2
A$C56F94115
340
0
 70
     0
280
     1
281
     0
  0
BLOCK_RECORD
  5
11A6
330
3C6
100
AcDbSymbolTableRecord
100
AcDbBlockTableRecord
  2
A$C09015F73
340
0
 70
     0
280
     1
281
     0
  0
BLOCK_RECORD
  5
122A
330
3C6
100
AcDbSymbolTableRecord
100
AcDbBlockTableRecord
  2
*D11
340
0
 70
     0
280
     1
281
     0
  0
BLOCK_RECORD
  5
1238
330
3C6
100
AcDbSymbolTableRecord
100
AcDbBlockTableRecord
  2
*D12
340
0
 70
     0
280
     1
281
     0
  0
BLOCK_RECORD
  5
1246
330
3C6
100
AcDbSymbolTableRecord
100
AcDbBlockTableRecord
  2
*D13
340
0
 70
     0
280
     1
281
     0
  0
BLOCK_RECORD
  5
1293
330
3C6
100
AcDbSymbolTableRecord
100
AcDbBlockTableRecord
  2
*D14
340
0
 70
     0
280
     1
281
     0
  0
BLOCK_RECORD
  5
12A1
330
3C6
100
AcDbSymbolTableRecord
100
AcDbBlockTableRecord
  2
*D15
340
0
 70
     0
280
     1
281
     0
  0
BLOCK_RECORD
  5
12AF
330
3C6
100
AcDbSymbolTableRecord
100
AcDbBlockTableRecord
  2
*D16
340
0
 70
     0
280
     1
281
     0
  0
BLOCK_RECORD
  5
1303
330
3C6
100
AcDbSymbolTableRecord
100
AcDbBlockTableRecord
  2
*D17
340
0
 70
     0
280
     1
281
     0
  0
BLOCK_RECORD
  5
1312
330
3C6
100
AcDbSymbolTableRecord
100
AcDbBlockTableRecord
  2
*D18
340
0
 70
     0
280
     1
281
     0
  0
BLOCK_RECORD
  5
13EC
330
3C6
100
AcDbSymbolTableRecord
100
AcDbBlockTableRecord
  2
*U19
340
0
 70
     0
280
     1
281
     0
  0
BLOCK_RECORD
  5
1428
330
3C6
100
AcDbSymbolTableRecord
100
AcDbBlockTableRecord
  2
GENAXEH
340
0
 70
     0
280
     1
281
     0
  0
BLOCK_RECORD
  5
14CE
330
3C6
100
AcDbSymbolTableRecord
100
AcDbBlockTableRecord
  2
*D21
340
0
 70
     0
280
     1
281
     0
  0
ENDTAB
  0
ENDSEC
  0
SECTION
  2
BLOCKS
  0
BLOCK
  5
423
330
3DD
100
AcDbEntity
  8
0
100
AcDbBlockBegin
  2
*MODEL_SPACE
 70
     0
 10
0.0
 20
0.0
 30
0.0
  3
*MODEL_SPACE
  1

  0
ENDBLK
  5
424
330
3DD
100
AcDbEntity
  8
0
100
AcDbBlockEnd
  0
BLOCK
  5
421
330
3DA
100
AcDbEntity
 67
     1
  8
0
100
AcDbBlockBegin
  2
*PAPER_SPACE
 70
     0
 10
0.0
 20
0.0
 30
0.0
  3
*PAPER_SPACE
  1

  0
ENDBLK
  5
422
330
3DA
100
AcDbEntity
 67
     1
  8
0
100
AcDbBlockEnd
  0
BLOCK
  5
F6
330
3E1
100
AcDbEntity
  8
0
100
AcDbBlockBegin
  2
AVE_RENDER
 70
     0
 10
0.0
 20
0.0
 30
0.0
  3
AVE_RENDER
  1
AVE_RENDER
  0
ENDBLK
  5
F7
330
3E1
100
AcDbEntity
  8
0
100
AcDbBlockEnd
  0
BLOCK
  5
8CD
330
891
100
AcDbEntity
  8
0
100
AcDbBlockBegin
  2
A$C72680864
 70
     0
 10
0.0
 20
0.0
 30
0.0
  3
A$C72680864
  1

  0
LINE
  5
892
330
891
100
AcDbEntity
  8
1
100
AcDbLine
 10
82.06510217236246
 20
87.49999965528898
 30
0.0
 11
190.0651021723616
 21
87.49999965528903
 31
0.0
  0
ARC
  5
893
330
891
100
AcDbEntity
  8
0
100
AcDbCircle
 10
155.0651021723625
 20
124.999999655289
 30
0.0
 40
50.0
100
AcDbArc
 50
247.2659834292881
 51
304.3912652729007
  0
ARC
  5
894
330
891
100
AcDbEntity
  8
0
100
AcDbCircle
 10
155.0651021723625
 20
49.999999655289
 30
0.0
 40
50.0
100
AcDbArc
 50
55.60873472709928
 51
112.7340165707119
  0
ARC
  5
895
330
891
100
AcDbEntity
  8
0
100
AcDbCircle
 10
155.0651021723625
 20
-20.000000344711
 30
0.0
 40
50.0
100
AcDbArc
 50
55.60873472709928
 51
112.7340165707119
  0
ARC
  5
896
330
891
100
AcDbEntity
  8
0
100
AcDbCircle
 10
155.0651021723625
 20
54.999999655289
 30
0.0
 40
50.0
100
AcDbArc
 50
247.2659834292881
 51
304.3912652729007
  0
LINE
  5
897
330
891
100
AcDbEntity
  8
1
100
AcDbLine
 10
82.06510217236246
 20
17.49999965528897
 30
0.0
 11
190.0651021723616
 21
17.49999965528835
 31
0.0
  0
LINE
  5
898
330
891
100
AcDbEntity
  8
0
100
AcDbLine
 10
105.0651021723624
 20
10.999999655289
 30
0.0
 11
105.0651021723624
 21
23.999999655289
 31
0.0
  0
LINE
  5
899
330
891
100
AcDbEntity
  8
1
100
AcDbLine
 10
17.4999995885712
 20
34.999999655289
 30
0.0
 11
17.4999995885712
 21
-0.0000003447109975
 31
0.0
  0
LINE
  5
89A
330
891
100
AcDbEntity
  8
0
100
AcDbLine
 10
115.6591258526016
 20
25.499999655289
 30
0.0
 11
115.6591258526017
 21
9.499999655289059
 31
0.0
  0
ARC
  5
89B
330
891
100
AcDbEntity
  8
0
100
AcDbCircle
 10
104.6651021723625
 20
22.89999965528898
 30
0.0
 40
0.4
100
AcDbArc
 50
270.0000000000001
 51
0.0
  0
CIRCLE
  5
89C
330
891
100
AcDbEntity
  8
0
100
AcDbCircle
 10
17.4999995885712
 20
17.499999655289
 30
0.0
 40
8.0
  0
CIRCLE
  5
89D
330
891
100
AcDbEntity
  8
0
100
AcDbCircle
 10
17.4999995885712
 20
17.499999655289
 30
0.0
 40
12.5
  0
LINE
  5
89E
330
891
100
AcDbEntity
  8
1
100
AcDbLine
 10
34.9999995885712
 20
17.499999655289
 30
0.0
 11
-0.0000004114288004
 21
17.499999655289
 31
0.0
  0
LINE
  5
89F
330
891
100
AcDbEntity
  8
0
100
AcDbLine
 10
12.90484817895243
 20
10.999999655289
 30
0.0
 11
22.09834105681638
 21
10.999999655289
 31
0.0
  0
CIRCLE
  5
8A0
330
891
100
AcDbEntity
  8
3
100
AcDbCircle
 10
17.4999995885712
 20
17.499999655289
 30
0.0
 40
4.187999999999999
  0
CIRCLE
  5
8A1
330
891
100
AcDbEntity
  8
0
100
AcDbCircle
 10
17.4999995885712
 20
17.499999655289
 30
0.0
 40
5.0
  0
LINE
  5
8A2
330
891
100
AcDbEntity
  8
0
100
AcDbLine
 10
115.6591258526016
 20
9.499999655289059
 30
0.0
 11
113.0651021723624
 21
9.499999655289045
 31
0.0
  0
LINE
  5
8A3
330
891
100
AcDbEntity
  8
0
100
AcDbLine
 10
88.56510217236246
 20
22.499999655289
 30
0.0
 11
104.6651021723625
 21
22.49999965528898
 31
0.0
  0
LINE
  5
8A4
330
891
100
AcDbEntity
  8
3
100
AcDbLine
 10
87.75310217236253
 20
21.6879996552891
 30
0.0
 11
103.5651021723636
 21
21.6879996552891
 31
0.0
  0
LINE
  5
8A5
330
891
100
AcDbEntity
  8
3
100
AcDbLine
 10
87.75310217236253
 20
13.3119996552889
 30
0.0
 11
103.5651021723636
 21
13.31199965528895
 31
0.0
  0
LINE
  5
8A6
330
891
100
AcDbEntity
  8
0
100
AcDbLine
 10
88.56510217236246
 20
12.49999965528902
 30
0.0
 11
104.6651021723625
 21
12.49999965528903
 31
0.0
  0
LINE
  5
8A7
330
891
100
AcDbEntity
  8
0
100
AcDbLine
 10
88.56510217236248
 20
12.49999965528902
 30
0.0
 11
88.56510217236246
 21
22.499999655289
 31
0.0
  0
LINE
  5
8A8
330
891
100
AcDbEntity
  8
0
100
AcDbLine
 10
87.06510217236246
 20
13.99999965528901
 30
0.0
 11
87.06510217236246
 21
20.999999655289
 31
0.0
  0
LINE
  5
8A9
330
891
100
AcDbEntity
  8
0
100
AcDbLine
 10
87.06510217236246
 20
13.99999965528901
 30
0.0
 11
88.56510217236246
 21
12.49999965528902
 31
0.0
  0
LINE
  5
8AA
330
891
100
AcDbEntity
  8
0
100
AcDbLine
 10
87.06510217236246
 20
20.999999655289
 30
0.0
 11
88.56510217236246
 21
22.499999655289
 31
0.0
  0
LINE
  5
8AB
330
891
100
AcDbEntity
  8
0
100
AcDbLine
 10
105.0651021723624
 20
10.999999655289
 30
0.0
 11
113.0651021723624
 21
10.999999655289
 31
0.0
  0
LINE
  5
8AC
330
891
100
AcDbEntity
  8
0
100
AcDbLine
 10
113.0651021723624
 20
10.999999655289
 30
0.0
 11
113.0651021723624
 21
9.499999655289002
 31
0.0
  0
LINE
  5
8AD
330
891
100
AcDbEntity
  8
0
100
AcDbLine
 10
103.5651021723636
 20
12.499999655289
 30
0.0
 11
103.5651021723636
 21
22.49999965528898
 31
0.0
  0
ARC
  5
8AE
330
891
100
AcDbEntity
  8
0
100
AcDbCircle
 10
104.6651021723625
 20
12.09999965528902
 30
0.0
 40
0.4
100
AcDbArc
 50
0.0
 51
89.99999999999994
  0
ARC
  5
8AF
330
891
100
AcDbEntity
  8
0
100
AcDbCircle
 10
124.8651021723624
 20
-18.000000344711
 30
0.0
 40
29.0
100
AcDbArc
 50
67.97210838648379
 51
108.5086280769457
  0
LINE
  5
8B0
330
891
100
AcDbEntity
  8
0
100
AcDbLine
 10
12.9041223763634
 20
23.999999655289
 30
0.0
 11
22.0968170359605
 21
23.999999655289
 31
0.0
  0
LINE
  5
8B1
330
891
100
AcDbEntity
  8
0
100
AcDbLine
 10
115.6591258526016
 20
25.49999965528895
 30
0.0
 11
113.0651021723624
 21
25.49999965528895
 31
0.0
  0
LINE
  5
8B2
330
891
100
AcDbEntity
  8
0
100
AcDbLine
 10
105.0651021723624
 20
23.999999655289
 30
0.0
 11
113.0651021723624
 21
23.999999655289
 31
0.0
  0
LINE
  5
8B3
330
891
100
AcDbEntity
  8
0
100
AcDbLine
 10
113.0651021723624
 20
23.999999655289
 30
0.0
 11
113.0651021723624
 21
25.499999655289
 31
0.0
  0
ARC
  5
8B4
330
891
100
AcDbEntity
  8
0
100
AcDbCircle
 10
124.8651021723624
 20
52.999999655289
 30
0.0
 40
29.0
100
AcDbArc
 50
251.4913719230543
 51
292.0278916135162
  0
LINE
  5
8B5
330
891
100
AcDbEntity
  8
0
100
AcDbLine
 10
115.6591258526016
 20
79.49999965528906
 30
0.0
 11
105.0651021723625
 21
79.499999655289
 31
0.0
  0
LINE
  5
8B6
330
891
100
AcDbEntity
  8
0
100
AcDbLine
 10
115.6591258526016
 20
95.49999965528895
 30
0.0
 11
105.0651021723625
 21
95.499999655289
 31
0.0
  0
LINE
  5
8B7
330
891
100
AcDbEntity
  8
0
100
AcDbLine
 10
105.0651021723624
 20
91.99999965528901
 30
0.0
 11
113.0651021723624
 21
82.999999655289
 31
0.0
  0
LINE
  5
8B8
330
891
100
AcDbEntity
  8
0
100
AcDbLine
 10
105.0651021723624
 20
82.999999655289
 30
0.0
 11
113.0651021723624
 21
91.99999965528901
 31
0.0
  0
LINE
  5
8B9
330
891
100
AcDbEntity
  8
0
100
AcDbLine
 10
113.0651021723624
 20
91.99999965528901
 30
0.0
 11
113.0651021723624
 21
82.999999655289
 31
0.0
  0
LINE
  5
8BA
330
891
100
AcDbEntity
  8
0
100
AcDbLine
 10
105.0651021723624
 20
79.49999965528903
 30
0.0
 11
105.0651021723624
 21
95.499999655289
 31
0.0
  0
LINE
  5
8BB
330
891
100
AcDbEntity
  8
0
100
AcDbLine
 10
87.06510217236246
 20
83.999999655289
 30
0.0
 11
87.06510217236246
 21
90.99999965528899
 31
0.0
  0
LINE
  5
8BC
330
891
100
AcDbEntity
  8
0
100
AcDbLine
 10
88.56510217236248
 20
82.499999655289
 30
0.0
 11
88.56510217236246
 21
92.499999655289
 31
0.0
  0
LINE
  5
8BD
330
891
100
AcDbEntity
  8
0
100
AcDbLine
 10
103.5651021723636
 20
82.499999655289
 30
0.0
 11
103.5651021723636
 21
92.49999965528898
 31
0.0
  0
LINE
  5
8BE
330
891
100
AcDbEntity
  8
0
100
AcDbLine
 10
88.56510217236246
 20
82.499999655289
 30
0.0
 11
104.6651021723625
 21
82.49999965528903
 31
0.0
  0
LINE
  5
8BF
330
891
100
AcDbEntity
  8
3
100
AcDbLine
 10
87.75310217236253
 20
83.3119996552889
 30
0.0
 11
103.5651021723636
 21
83.31199965528895
 31
0.0
  0
LINE
  5
8C0
330
891
100
AcDbEntity
  8
0
100
AcDbLine
 10
87.06510217236246
 20
83.999999655289
 30
0.0
 11
88.56510217236246
 21
82.499999655289
 31
0.0
  0
LINE
  5
8C1
330
891
100
AcDbEntity
  8
0
100
AcDbLine
 10
113.0651021723624
 20
82.999999655289
 30
0.0
 11
105.0651021723624
 21
82.999999655289
 31
0.0
  0
ARC
  5
8C2
330
891
100
AcDbEntity
  8
0
100
AcDbCircle
 10
104.6651021723625
 20
82.09999965528902
 30
0.0
 40
0.4
100
AcDbArc
 50
0.0
 51
89.99999999999994
  0
LINE
  5
8C3
330
891
100
AcDbEntity
  8
3
100
AcDbLine
 10
87.75310217236253
 20
91.6879996552891
 30
0.0
 11
103.5651021723636
 21
91.6879996552891
 31
0.0
  0
LINE
  5
8C4
330
891
100
AcDbEntity
  8
0
100
AcDbLine
 10
88.56510217236246
 20
92.499999655289
 30
0.0
 11
104.6651021723625
 21
92.49999965528898
 31
0.0
  0
LINE
  5
8C5
330
891
100
AcDbEntity
  8
0
100
AcDbLine
 10
87.06510217236246
 20
90.99999965528899
 30
0.0
 11
88.56510217236246
 21
92.499999655289
 31
0.0
  0
LINE
  5
8C6
330
891
100
AcDbEntity
  8
0
100
AcDbLine
 10
105.0651021723624
 20
91.99999965528901
 30
0.0
 11
113.0651021723624
 21
91.99999965528901
 31
0.0
  0
ARC
  5
8C7
330
891
100
AcDbEntity
  8
0
100
AcDbCircle
 10
104.6651021723625
 20
92.89999965528897
 30
0.0
 40
0.4
100
AcDbArc
 50
270.0000000000001
 51
0.0
  0
LINE
  5
8C8
330
891
100
AcDbEntity
  8
0
100
AcDbLine
 10
115.6591258526016
 20
95.499999655289
 30
0.0
 11
115.6591258526017
 21
79.49999965528906
 31
0.0
  0
ARC
  5
8C9
330
891
100
AcDbEntity
  8
0
100
AcDbCircle
 10
124.8651021723624
 20
51.999999655289
 30
0.0
 40
29.0
100
AcDbArc
 50
67.97210838648379
 51
108.5086280769457
  0
ARC
  5
8CA
330
891
100
AcDbEntity
  8
0
100
AcDbCircle
 10
124.8651021723624
 20
122.999999655289
 30
0.0
 40
29.0
100
AcDbArc
 50
251.4913719230543
 51
292.0278916135162
  0
ARC
  5
8CB
330
891
100
AcDbEntity
  8
0
100
AcDbCircle
 10
180.1651021723623
 20
17.499999655289
 30
0.0
 40
4.9
100
AcDbArc
 50
309.8841081155567
 51
50.11589188444339
  0
ARC
  5
8CC
330
891
100
AcDbEntity
  8
0
100
AcDbCircle
 10
180.1651021723623
 20
87.499999655289
 30
0.0
 40
4.9
100
AcDbArc
 50
309.8841081155567
 51
50.11589188444339
  0
ENDBLK
  5
8CE
330
891
100
AcDbEntity
  8
0
100
AcDbBlockEnd
  0
BLOCK
  5
90E
330
8D1
100
AcDbEntity
  8
0
100
AcDbBlockBegin
  2
A$C12D4094E
 70
     0
 10
0.0
 20
0.0
 30
0.0
  3
A$C12D4094E
  1

  0
LINE
  5
8D2
330
8D1
100
AcDbEntity
  8
1
100
AcDbLine
 10
66.89302773921053
 20
91.65781000821732
 30
0.0
 11
196.8930277392106
 21
91.65781000821736
 31
0.0
  0
ARC
  5
8D3
330
8D1
100
AcDbEntity
  8
0
100
AcDbCircle
 10
155.8930277392105
 20
130.6578100082173
 30
0.0
 40
55.0
100
AcDbArc
 50
246.1685383277898
 51
308.3930379102669
  0
ARC
  5
8D4
330
8D1
100
AcDbEntity
  8
0
100
AcDbCircle
 10
155.8930277392105
 20
52.65781000821732
 30
0.0
 40
55.0
100
AcDbArc
 50
51.60696208973314
 51
113.8314616722102
  0
ARC
  5
8D5
330
8D1
100
AcDbEntity
  8
0
100
AcDbCircle
 10
155.8930277392105
 20
-18.11389212505965
 30
0.0
 40
55.0
100
AcDbArc
 50
51.60696208973314
 51
113.8314616722102
  0
ARC
  5
8D6
330
8D1
100
AcDbEntity
  8
0
100
AcDbCircle
 10
155.8930277392105
 20
59.88610787494036
 30
0.0
 40
55.0
100
AcDbArc
 50
246.1685383277898
 51
308.3930379102669
  0
LINE
  5
8D7
330
8D1
100
AcDbEntity
  8
1
100
AcDbLine
 10
66.89302773921053
 20
20.88610787494037
 30
0.0
 11
196.8930277392106
 21
20.88610787494037
 31
0.0
  0
LINE
  5
8D8
330
8D1
100
AcDbEntity
  8
0
100
AcDbLine
 10
91.89302773921054
 20
12.49942150798665
 30
0.0
 11
91.89302773921054
 21
29.49942150798666
 31
0.0
  0
LINE
  5
8D9
330
8D1
100
AcDbEntity
  8
1
100
AcDbLine
 10
20.99999991746664
 20
42.00000003952337
 30
0.0
 11
20.99999991746662
 21
0.000000039523357
 31
0.0
  0
LINE
  5
8DA
330
8D1
100
AcDbEntity
  8
0
100
AcDbLine
 10
105.063222649234
 20
30.88610787494037
 30
0.0
 11
105.063222649234
 21
10.88610787494035
 31
0.0
  0
LINE
  5
8DB
330
8D1
100
AcDbEntity
  8
0
100
AcDbLine
 10
89.89302773921053
 20
14.88610787494035
 30
0.0
 11
89.89302773921053
 21
26.88610787494037
 31
0.0
  0
LINE
  5
8DC
330
8D1
100
AcDbEntity
  8
0
100
AcDbLine
 10
73.89302773921054
 20
14.88610787494033
 30
0.0
 11
73.89302773921054
 21
26.88610787494034
 31
0.0
  0
LINE
  5
8DD
330
8D1
100
AcDbEntity
  8
0
100
AcDbLine
 10
71.89302773921053
 20
16.88610787494033
 30
0.0
 11
71.89302773921053
 21
24.88610787494037
 31
0.0
  0
CIRCLE
  5
8DE
330
8D1
100
AcDbEntity
  8
3
100
AcDbCircle
 10
20.99999991746664
 20
21.00000003952337
 30
0.0
 40
5.052999999999999
  0
CIRCLE
  5
8DF
330
8D1
100
AcDbEntity
  8
0
100
AcDbCircle
 10
20.99999991746664
 20
21.00000003952337
 30
0.0
 40
6.0
  0
CIRCLE
  5
8E0
330
8D1
100
AcDbEntity
  8
0
100
AcDbCircle
 10
20.99999991746664
 20
21.00000003952337
 30
0.0
 40
10.0
  0
CIRCLE
  5
8E1
330
8D1
100
AcDbEntity
  8
0
100
AcDbCircle
 10
20.99999991746664
 20
21.00000003952337
 30
0.0
 40
16.0
  0
LINE
  5
8E2
330
8D1
100
AcDbEntity
  8
0
100
AcDbLine
 10
15.73728711484894
 20
12.49942150798665
 30
0.0
 11
26.26605267599034
 21
12.49942150798665
 31
0.0
  0
LINE
  5
8E3
330
8D1
100
AcDbEntity
  8
1
100
AcDbLine
 10
41.99999991746664
 20
21.00000003952337
 30
0.0
 11
-0.0000000825333615
 21
21.00000003952337
 31
0.0
  0
LINE
  5
8E4
330
8D1
100
AcDbEntity
  8
3
100
AcDbLine
 10
72.94602773921056
 20
15.83310787494031
 30
0.0
 11
89.89302773921053
 21
15.83310787494031
 31
0.0
  0
LINE
  5
8E5
330
8D1
100
AcDbEntity
  8
0
100
AcDbLine
 10
73.89302773921054
 20
14.88610787494033
 30
0.0
 11
91.49302773921053
 21
14.88610787494035
 31
0.0
  0
LINE
  5
8E6
330
8D1
100
AcDbEntity
  8
0
100
AcDbLine
 10
73.89302773921054
 20
14.88610787494033
 30
0.0
 11
71.89302773921053
 21
16.88610787494033
 31
0.0
  0
ARC
  5
8E7
330
8D1
100
AcDbEntity
  8
0
100
AcDbCircle
 10
117.6330277392105
 20
-27.61389212505965
 30
0.0
 40
40.49999999999999
100
AcDbArc
 50
66.67260015260321
 51
108.0812620738558
  0
LINE
  5
8E8
330
8D1
100
AcDbEntity
  8
0
100
AcDbLine
 10
101.9618307081894
 20
12.49942150798665
 30
0.0
 11
101.9618307081894
 21
10.89942150798666
 31
0.0
  0
LINE
  5
8E9
330
8D1
100
AcDbEntity
  8
0
100
AcDbLine
 10
101.9618307081894
 20
10.88610787494035
 30
0.0
 11
105.063222649234
 21
10.88610787494035
 31
0.0
  0
LINE
  5
8EA
330
8D1
100
AcDbEntity
  8
0
100
AcDbLine
 10
91.86183070818939
 20
12.49942150798665
 30
0.0
 11
101.9618307081894
 21
12.49942150798665
 31
0.0
  0
ARC
  5
8EB
330
8D1
100
AcDbEntity
  8
0
100
AcDbCircle
 10
91.49302773921053
 20
14.48610787494034
 30
0.0
 40
0.4
100
AcDbArc
 50
0.0
 51
90.0
  0
LINE
  5
8EC
330
8D1
100
AcDbEntity
  8
0
100
AcDbLine
 10
15.74459286925422
 20
29.49942150798666
 30
0.0
 11
26.26367283348752
 21
29.49942150798666
 31
0.0
  0
LINE
  5
8ED
330
8D1
100
AcDbEntity
  8
0
100
AcDbLine
 10
73.89302773921054
 20
85.65781000821729
 30
0.0
 11
91.49302773921053
 21
85.65781000821733
 31
0.0
  0
LINE
  5
8EE
330
8D1
100
AcDbEntity
  8
3
100
AcDbLine
 10
72.94602773921056
 20
86.60481000821727
 30
0.0
 11
89.89302773921053
 21
86.60481000821727
 31
0.0
  0
LINE
  5
8EF
330
8D1
100
AcDbEntity
  8
3
100
AcDbLine
 10
72.94602773921056
 20
96.71081000821732
 30
0.0
 11
89.89302773921053
 21
96.71081000821732
 31
0.0
  0
LINE
  5
8F0
330
8D1
100
AcDbEntity
  8
0
100
AcDbLine
 10
73.89302773921054
 20
97.65781000821732
 30
0.0
 11
91.49302773921053
 21
97.65781000821732
 31
0.0
  0
LINE
  5
8F1
330
8D1
100
AcDbEntity
  8
0
100
AcDbLine
 10
73.89302773921054
 20
26.88610787494037
 30
0.0
 11
91.49302773921053
 21
26.88610787494037
 31
0.0
  0
LINE
  5
8F2
330
8D1
100
AcDbEntity
  8
3
100
AcDbLine
 10
72.94602773921056
 20
25.93910787494036
 30
0.0
 11
89.89302773921053
 21
25.93910787494036
 31
0.0
  0
LINE
  5
8F3
330
8D1
100
AcDbEntity
  8
0
100
AcDbLine
 10
71.89302773921053
 20
24.88610787494037
 30
0.0
 11
73.89302773921054
 21
26.88610787494037
 31
0.0
  0
LINE
  5
8F4
330
8D1
100
AcDbEntity
  8
0
100
AcDbLine
 10
73.89302773921054
 20
85.65781000821729
 30
0.0
 11
73.89302773921054
 21
97.6578100082173
 31
0.0
  0
LINE
  5
8F5
330
8D1
100
AcDbEntity
  8
0
100
AcDbLine
 10
73.89302773921054
 20
85.65781000821729
 30
0.0
 11
71.89302773921053
 21
87.6578100082173
 31
0.0
  0
LINE
  5
8F6
330
8D1
100
AcDbEntity
  8
0
100
AcDbLine
 10
71.89302773921053
 20
95.65781000821733
 30
0.0
 11
73.89302773921054
 21
97.65781000821732
 31
0.0
  0
LINE
  5
8F7
330
8D1
100
AcDbEntity
  8
0
100
AcDbLine
 10
71.89302773921053
 20
87.6578100082173
 30
0.0
 11
71.89302773921053
 21
95.65781000821733
 31
0.0
  0
ARC
  5
8F8
330
8D1
100
AcDbEntity
  8
0
100
AcDbCircle
 10
117.6330277392105
 20
69.38610787494036
 30
0.0
 40
40.49999999999999
100
AcDbArc
 50
251.9187379261442
 51
293.3273998473968
  0
LINE
  5
8F9
330
8D1
100
AcDbEntity
  8
0
100
AcDbLine
 10
91.86183070818939
 20
29.49942150798666
 30
0.0
 11
101.9618307081894
 21
29.49942150798666
 31
0.0
  0
ARC
  5
8FA
330
8D1
100
AcDbEntity
  8
0
100
AcDbCircle
 10
91.49302773921053
 20
27.28610787494034
 30
0.0
 40
0.4
100
AcDbArc
 50
270.0
 51
0.0
  0
LINE
  5
8FB
330
8D1
100
AcDbEntity
  8
0
100
AcDbLine
 10
101.9618307081894
 20
30.88610787494037
 30
0.0
 11
105.063222649234
 21
30.88610787494037
 31
0.0
  0
LINE
  5
8FC
330
8D1
100
AcDbEntity
  8
0
100
AcDbLine
 10
101.9618307081894
 20
29.49942150798666
 30
0.0
 11
101.9618307081894
 21
30.89942150798666
 31
0.0
  0
ARC
  5
8FD
330
8D1
100
AcDbEntity
  8
0
100
AcDbCircle
 10
117.6330277392105
 20
43.15781000821732
 30
0.0
 40
40.49999999999999
100
AcDbArc
 50
66.67260015260321
 51
108.0812620738558
  0
ARC
  5
8FE
330
8D1
100
AcDbEntity
  8
0
100
AcDbCircle
 10
117.6330277392105
 20
140.1578100082173
 30
0.0
 40
40.49999999999999
100
AcDbArc
 50
251.9187379261442
 51
293.3273998473968
  0
LINE
  5
8FF
330
8D1
100
AcDbEntity
  8
0
100
AcDbLine
 10
89.89302773921053
 20
85.65781000821733
 30
0.0
 11
89.89302773921053
 21
97.65781000821732
 31
0.0
  0
LINE
  5
900
330
8D1
100
AcDbEntity
  8
0
100
AcDbLine
 10
91.89302773921054
 20
81.65781000821732
 30
0.0
 11
91.89302773921054
 21
101.6578100082173
 31
0.0
  0
LINE
  5
901
330
8D1
100
AcDbEntity
  8
0
100
AcDbLine
 10
105.063222649234
 20
101.6578100082173
 30
0.0
 11
105.063222649234
 21
81.65781000821732
 31
0.0
  0
LINE
  5
902
330
8D1
100
AcDbEntity
  8
0
100
AcDbLine
 10
91.89302773921054
 20
81.65781000821732
 30
0.0
 11
105.063222649234
 21
81.65781000821732
 31
0.0
  0
ARC
  5
903
330
8D1
100
AcDbEntity
  8
0
100
AcDbCircle
 10
91.49302773921053
 20
85.25781000821728
 30
0.0
 40
0.4
100
AcDbArc
 50
0.0
 51
90.0
  0
LINE
  5
904
330
8D1
100
AcDbEntity
  8
0
100
AcDbLine
 10
91.86183070818939
 20
96.79942150798666
 30
0.0
 11
102.9618307081894
 21
86.59942150798668
 31
0.0
  0
LINE
  5
905
330
8D1
100
AcDbEntity
  8
0
100
AcDbLine
 10
91.86183070818939
 20
86.59942150798668
 30
0.0
 11
102.9618307081894
 21
96.79942150798666
 31
0.0
  0
LINE
  5
906
330
8D1
100
AcDbEntity
  8
0
100
AcDbLine
 10
102.9618307081894
 20
86.59942150798668
 30
0.0
 11
91.86183070818939
 21
86.59942150798668
 31
0.0
  0
LINE
  5
907
330
8D1
100
AcDbEntity
  8
0
100
AcDbLine
 10
102.9618307081894
 20
96.79942150798666
 30
0.0
 11
91.86183070818939
 21
96.79942150798666
 31
0.0
  0
LINE
  5
908
330
8D1
100
AcDbEntity
  8
0
100
AcDbLine
 10
102.9618307081894
 20
91.69942150798666
 30
0.0
 11
102.9618307081894
 21
86.59942150798668
 31
0.0
  0
LINE
  5
909
330
8D1
100
AcDbEntity
  8
0
100
AcDbLine
 10
102.9618307081894
 20
91.69942150798666
 30
0.0
 11
102.9618307081894
 21
96.79942150798666
 31
0.0
  0
LINE
  5
90A
330
8D1
100
AcDbEntity
  8
0
100
AcDbLine
 10
91.89302773921054
 20
101.6578100082173
 30
0.0
 11
105.063222649234
 21
101.6578100082173
 31
0.0
  0
ARC
  5
90B
330
8D1
100
AcDbEntity
  8
0
100
AcDbCircle
 10
91.49302773921053
 20
98.05781000821731
 30
0.0
 40
0.4
100
AcDbArc
 50
270.0
 51
0.0
  0
ARC
  5
90C
330
8D1
100
AcDbEntity
  8
0
100
AcDbCircle
 10
186.3930277392105
 20
20.88610787494037
 30
0.0
 40
5.5
100
AcDbArc
 50
311.6877675374706
 51
48.3122324625294
  0
ARC
  5
90D
330
8D1
100
AcDbEntity
  8
0
100
AcDbCircle
 10
186.3930277392105
 20
91.65781000821732
 30
0.0
 40
5.5
100
AcDbArc
 50
311.6877675374706
 51
48.3122324625294
  0
ENDBLK
  5
90F
330
8D1
100
AcDbEntity
  8
0
100
AcDbBlockEnd
  0
BLOCK
  5
952
330
912
100
AcDbEntity
  8
0
100
AcDbBlockBegin
  2
A$C33B15D82
 70
     0
 10
0.0
 20
0.0
 30
0.0
  3
A$C33B15D82
  1

  0
LINE
  5
913
330
912
100
AcDbEntity
  8
1
100
AcDbLine
 10
84.04644502404064
 20
103.0000004103746
 30
0.0
 11
228.0464450240398
 21
103.0000004103747
 31
0.0
  0
ARC
  5
914
330
912
100
AcDbEntity
  8
0
100
AcDbCircle
 10
181.0464450240407
 20
153.0000004103747
 30
0.0
 40
68.0
100
AcDbArc
 50
246.6383592228672
 51
305.5937968957112
  0
ARC
  5
915
330
912
100
AcDbEntity
  8
0
100
AcDbCircle
 10
181.0464450240407
 20
53.00000041037472
 30
0.0
 40
68.0
100
AcDbArc
 50
54.40620310428876
 51
113.3616407771328
  0
ARC
  5
916
330
912
100
AcDbEntity
  8
0
100
AcDbCircle
 10
181.0464450240407
 20
-26.99999958962528
 30
0.0
 40
68.0
100
AcDbArc
 50
54.40620310428876
 51
113.3616407771328
  0
ARC
  5
917
330
912
100
AcDbEntity
  8
0
100
AcDbCircle
 10
181.0464450240407
 20
73.00000041037472
 30
0.0
 40
68.0
100
AcDbArc
 50
246.6383592228672
 51
305.5937968957112
  0
LINE
  5
918
330
912
100
AcDbEntity
  8
1
100
AcDbLine
 10
84.04644502404064
 20
23.0000004103747
 30
0.0
 11
228.0464450240398
 21
23.0000004103747
 31
0.0
  0
LINE
  5
919
330
912
100
AcDbEntity
  8
0
100
AcDbLine
 10
111.0464450240407
 20
13.50000041037469
 30
0.0
 11
111.0464450240406
 21
32.5000004103747
 31
0.0
  0
LINE
  5
91A
330
912
100
AcDbEntity
  8
1
100
AcDbLine
 10
22.99999956433328
 20
46.00000041037469
 30
0.0
 11
22.99999956433327
 21
0.000000410374696
 31
0.0
  0
LINE
  5
91B
330
912
100
AcDbEntity
  8
0
100
AcDbLine
 10
125.027334383367
 20
34.00000041037472
 30
0.0
 11
125.027334383367
 21
12.00000041037472
 31
0.0
  0
LINE
  5
91C
330
912
100
AcDbEntity
  8
0
100
AcDbLine
 10
89.04644502404066
 20
17.00000041037472
 30
0.0
 11
89.04644502404062
 21
29.00000041037472
 31
0.0
  0
LINE
  5
91D
330
912
100
AcDbEntity
  8
0
100
AcDbLine
 10
91.04644502404065
 20
15.00000041037472
 30
0.0
 11
91.04644502404065
 21
31.0000004103747
 31
0.0
  0
LINE
  5
91E
330
912
100
AcDbEntity
  8
0
100
AcDbLine
 10
109.0464450240388
 20
15.00000041037472
 30
0.0
 11
109.0464450240388
 21
31.00000041037473
 31
0.0
  0
CIRCLE
  5
91F
330
912
100
AcDbEntity
  8
0
100
AcDbCircle
 10
22.99999956433328
 20
23.0000004103747
 30
0.0
 40
18.0
  0
CIRCLE
  5
920
330
912
100
AcDbEntity
  8
0
100
AcDbCircle
 10
22.99999956433328
 20
23.0000004103747
 30
0.0
 40
11.0
  0
CIRCLE
  5
921
330
912
100
AcDbEntity
  8
0
100
AcDbCircle
 10
22.99999956433328
 20
23.0000004103747
 30
0.0
 40
8.0
  0
CIRCLE
  5
922
330
912
100
AcDbEntity
  8
3
100
AcDbCircle
 10
22.99999956433328
 20
23.0000004103747
 30
0.0
 40
6.9175
  0
LINE
  5
923
330
912
100
AcDbEntity
  8
1
100
AcDbLine
 10
45.99999956433328
 20
23.0000004103747
 30
0.0
 11
-0.0000004356667205
 21
23.0000004103747
 31
0.0
  0
LINE
  5
924
330
912
100
AcDbEntity
  8
0
100
AcDbLine
 10
28.49999956433328
 20
13.50000041037469
 30
0.0
 11
17.49999956433328
 21
13.50000041037469
 31
0.0
  0
LINE
  5
925
330
912
100
AcDbEntity
  8
0
100
AcDbLine
 10
17.50258975469044
 20
13.5002382096643
 30
0.0
 11
17.46434769355935
 21
13.5002382096643
 31
0.0
  0
LINE
  5
926
330
912
100
AcDbEntity
  8
0
100
AcDbLine
 10
28.49933175886248
 20
13.49968389598042
 30
0.0
 11
28.53827822704143
 21
13.49968389598042
 31
0.0
  0
LINE
  5
927
330
912
100
AcDbEntity
  8
3
100
AcDbLine
 10
89.96394502404072
 20
16.08250041037465
 30
0.0
 11
109.0464450240388
 21
16.08250041037465
 31
0.0
  0
LINE
  5
928
330
912
100
AcDbEntity
  8
0
100
AcDbLine
 10
91.04644502404065
 20
15.00000041037472
 30
0.0
 11
110.6464450240407
 21
15.00000041037472
 31
0.0
  0
LINE
  5
929
330
912
100
AcDbEntity
  8
0
100
AcDbLine
 10
89.04644502404066
 20
17.00000041037472
 30
0.0
 11
91.04644502404065
 21
15.00000041037472
 31
0.0
  0
ARC
  5
92A
330
912
100
AcDbEntity
  8
0
100
AcDbCircle
 10
137.6764450240407
 20
-26.99999958962528
 30
0.0
 40
41.0
100
AcDbArc
 50
66.41308310027593
 51
107.9697538633715
  0
LINE
  5
92B
330
912
100
AcDbEntity
  8
0
100
AcDbLine
 10
110.9999995643333
 20
13.50000041037469
 30
0.0
 11
121.9999995643332
 21
13.50000041037469
 31
0.0
  0
ARC
  5
92C
330
912
100
AcDbEntity
  8
0
100
AcDbCircle
 10
110.6464450240407
 20
14.60000041037472
 30
0.0
 40
0.4
100
AcDbArc
 50
0.0
 51
90.0
  0
LINE
  5
92D
330
912
100
AcDbEntity
  8
0
100
AcDbLine
 10
125.027334383367
 20
12.00000041037472
 30
0.0
 11
121.9999995643332
 21
12.00000041037472
 31
0.0
  0
LINE
  5
92E
330
912
100
AcDbEntity
  8
0
100
AcDbLine
 10
121.9999995643332
 20
13.50000041037469
 30
0.0
 11
121.9999995643332
 21
12.00000041037469
 31
0.0
  0
LINE
  5
92F
330
912
100
AcDbEntity
  8
0
100
AcDbLine
 10
28.49999956433328
 20
32.5000004103747
 30
0.0
 11
17.49999956433328
 21
32.5000004103747
 31
0.0
  0
LINE
  5
930
330
912
100
AcDbEntity
  8
0
100
AcDbLine
 10
17.50188534764258
 20
32.50024266951576
 30
0.0
 11
17.46485131168235
 21
32.50024266951576
 31
0.0
  0
LINE
  5
931
330
912
100
AcDbEntity
  8
0
100
AcDbLine
 10
28.49835579302279
 20
32.49985907210558
 30
0.0
 11
28.53440892571077
 21
32.49985907210558
 31
0.0
  0
LINE
  5
932
330
912
100
AcDbEntity
  8
0
100
AcDbLine
 10
111.0464450240407
 20
92.00000041037469
 30
0.0
 11
111.0464450240406
 21
114.0000004103747
 31
0.0
  0
LINE
  5
933
330
912
100
AcDbEntity
  8
0
100
AcDbLine
 10
125.027334383367
 20
114.0000004103747
 30
0.0
 11
125.027334383367
 21
92.00000041037473
 31
0.0
  0
ARC
  5
934
330
912
100
AcDbEntity
  8
0
100
AcDbCircle
 10
137.6764450240407
 20
153.0000004103747
 30
0.0
 40
41.0
100
AcDbArc
 50
252.0302461366284
 51
293.5869168997241
  0
LINE
  5
935
330
912
100
AcDbEntity
  8
0
100
AcDbLine
 10
91.04644502404065
 20
95.00000041037472
 30
0.0
 11
110.6464450240407
 21
95.00000041037472
 31
0.0
  0
LINE
  5
936
330
912
100
AcDbEntity
  8
3
100
AcDbLine
 10
89.96394502404072
 20
96.08250041037464
 30
0.0
 11
109.0464450240388
 21
96.08250041037464
 31
0.0
  0
LINE
  5
937
330
912
100
AcDbEntity
  8
3
100
AcDbLine
 10
89.96394502404067
 20
109.9175004103747
 30
0.0
 11
109.0464450240388
 21
109.9175004103747
 31
0.0
  0
LINE
  5
938
330
912
100
AcDbEntity
  8
0
100
AcDbLine
 10
91.04644502404061
 20
111.0000004103747
 30
0.0
 11
110.6464450240407
 21
111.0000004103747
 31
0.0
  0
LINE
  5
939
330
912
100
AcDbEntity
  8
0
100
AcDbLine
 10
91.04644502404061
 20
31.00000041037473
 30
0.0
 11
110.6464450240407
 21
31.00000041037473
 31
0.0
  0
LINE
  5
93A
330
912
100
AcDbEntity
  8
3
100
AcDbLine
 10
89.96394502404067
 20
29.91750041037474
 30
0.0
 11
109.0464450240388
 21
29.91750041037474
 31
0.0
  0
LINE
  5
93B
330
912
100
AcDbEntity
  8
0
100
AcDbLine
 10
89.04644502404062
 20
29.00000041037472
 30
0.0
 11
91.04644502404061
 21
31.00000041037473
 31
0.0
  0
LINE
  5
93C
330
912
100
AcDbEntity
  8
0
100
AcDbLine
 10
91.04644502404065
 20
95.00000041037472
 30
0.0
 11
91.04644502404065
 21
111.0000004103747
 31
0.0
  0
LINE
  5
93D
330
912
100
AcDbEntity
  8
0
100
AcDbLine
 10
89.04644502404066
 20
97.00000041037473
 30
0.0
 11
89.04644502404062
 21
109.0000004103747
 31
0.0
  0
LINE
  5
93E
330
912
100
AcDbEntity
  8
0
100
AcDbLine
 10
89.04644502404066
 20
97.00000041037473
 30
0.0
 11
91.04644502404065
 21
95.00000041037472
 31
0.0
  0
LINE
  5
93F
330
912
100
AcDbEntity
  8
0
100
AcDbLine
 10
89.04644502404062
 20
109.0000004103747
 30
0.0
 11
91.04644502404061
 21
111.0000004103747
 31
0.0
  0
ARC
  5
940
330
912
100
AcDbEntity
  8
0
100
AcDbCircle
 10
137.6764450240407
 20
73.00000041037472
 30
0.0
 40
41.0
100
AcDbArc
 50
252.0302461366284
 51
293.5869168997241
  0
LINE
  5
941
330
912
100
AcDbEntity
  8
0
100
AcDbLine
 10
110.9999995643333
 20
32.5000004103747
 30
0.0
 11
121.9999995643332
 21
32.5000004103747
 31
0.0
  0
ARC
  5
942
330
912
100
AcDbEntity
  8
0
100
AcDbCircle
 10
110.6464450240407
 20
31.40000041037467
 30
0.0
 40
0.4
100
AcDbArc
 50
270.0
 51
0.0
  0
LINE
  5
943
330
912
100
AcDbEntity
  8
0
100
AcDbLine
 10
125.027334383367
 20
34.00000041037472
 30
0.0
 11
121.9999995643332
 21
34.00000041037472
 31
0.0
  0
LINE
  5
944
330
912
100
AcDbEntity
  8
0
100
AcDbLine
 10
121.9999995643332
 20
32.5000004103747
 30
0.0
 11
121.9999995643332
 21
34.0000004103747
 31
0.0
  0
ARC
  5
945
330
912
100
AcDbEntity
  8
0
100
AcDbCircle
 10
137.6764450240407
 20
53.00000041037472
 30
0.0
 40
41.0
100
AcDbArc
 50
66.41308310027593
 51
107.9697538633715
  0
LINE
  5
946
330
912
100
AcDbEntity
  8
0
100
AcDbLine
 10
110.9999995643333
 20
108.5000004103747
 30
0.0
 11
121.9999995643332
 21
97.5000004103747
 31
0.0
  0
LINE
  5
947
330
912
100
AcDbEntity
  8
0
100
AcDbLine
 10
110.9999995643333
 20
97.5000004103747
 30
0.0
 11
121.9999995643332
 21
108.5000004103747
 31
0.0
  0
LINE
  5
948
330
912
100
AcDbEntity
  8
0
100
AcDbLine
 10
121.9999995643332
 20
97.5000004103747
 30
0.0
 11
110.9999995643333
 21
97.5000004103747
 31
0.0
  0
LINE
  5
949
330
912
100
AcDbEntity
  8
0
100
AcDbLine
 10
110.9999995643333
 20
108.5000004103747
 30
0.0
 11
121.9999995643332
 21
108.5000004103747
 31
0.0
  0
LINE
  5
94A
330
912
100
AcDbEntity
  8
0
100
AcDbLine
 10
125.027334383367
 20
92.00000041037473
 30
0.0
 11
111.0464450240407
 21
92.00000041037473
 31
0.0
  0
LINE
  5
94B
330
912
100
AcDbEntity
  8
0
100
AcDbLine
 10
109.0464450240388
 20
95.00000041037472
 30
0.0
 11
109.0464450240388
 21
111.0000004103747
 31
0.0
  0
ARC
  5
94C
330
912
100
AcDbEntity
  8
0
100
AcDbCircle
 10
110.6464450240407
 20
94.60000041037472
 30
0.0
 40
0.4
100
AcDbArc
 50
0.0
 51
90.0
  0
ARC
  5
94D
330
912
100
AcDbEntity
  8
0
100
AcDbCircle
 10
110.6464450240407
 20
111.4000004103746
 30
0.0
 40
0.4
100
AcDbArc
 50
270.0
 51
0.0
  0
LINE
  5
94E
330
912
100
AcDbEntity
  8
0
100
AcDbLine
 10
121.9999995643332
 20
108.5000004103747
 30
0.0
 11
121.9999995643332
 21
97.5000004103747
 31
0.0
  0
LINE
  5
94F
330
912
100
AcDbEntity
  8
0
100
AcDbLine
 10
125.027334383367
 20
114.0000004103747
 30
0.0
 11
111.0464450240407
 21
114.0000004103747
 31
0.0
  0
ARC
  5
950
330
912
100
AcDbEntity
  8
0
100
AcDbCircle
 10
216.0464450240407
 20
23.00000041037472
 30
0.0
 40
7.0
100
AcDbArc
 50
310.8479331720854
 51
49.15206682791457
  0
ARC
  5
951
330
912
100
AcDbEntity
  8
0
100
AcDbCircle
 10
216.0464450240407
 20
103.0000004103747
 30
0.0
 40
7.0
100
AcDbArc
 50
310.8479331720854
 51
49.15206682791457
  0
ENDBLK
  5
953
330
912
100
AcDbEntity
  8
0
100
AcDbBlockEnd
  0
BLOCK
  5
987
330
956
100
AcDbEntity
  8
0
100
AcDbBlockBegin
  2
A$C2DD13992
 70
     0
 10
0.0
 20
0.0
 30
0.0
  3
A$C2DD13992
  1

  0
LINE
  5
957
330
956
100
AcDbEntity
  8
1
100
AcDbLine
 10
35.99999991738139
 20
37.49999986382182
 30
0.0
 11
81.99999991736714
 21
37.49999986382182
 31
0.0
  0
ARC
  5
958
330
956
100
AcDbEntity
  8
0
100
AcDbCircle
 10
67.49999991736683
 20
22.49999986382182
 30
0.0
 40
20.0
100
AcDbArc
 50
56.34913821498738
 51
114.2046153308625
  0
ARC
  5
959
330
956
100
AcDbEntity
  8
0
100
AcDbCircle
 10
67.49999991736683
 20
52.49999986382182
 30
0.0
 40
20.0
100
AcDbArc
 50
245.7953846691375
 51
304.0460181701035
  0
ARC
  5
95A
330
956
100
AcDbEntity
  8
0
100
AcDbCircle
 10
67.49999991736683
 20
22.49999986382182
 30
0.0
 40
20.0
100
AcDbArc
 50
245.7953846691375
 51
304.0460181701035
  0
ARC
  5
95B
330
956
100
AcDbEntity
  8
0
100
AcDbCircle
 10
67.49999991736683
 20
-7.500000136178194
 30
0.0
 40
20.0
100
AcDbArc
 50
56.34913821498738
 51
114.2046153308625
  0
LINE
  5
95C
330
956
100
AcDbEntity
  8
1
100
AcDbLine
 10
35.99999991738139
 20
7.499999863821813
 30
0.0
 11
81.99999991736735
 21
7.499999863821813
 31
0.0
  0
LINE
  5
95D
330
956
100
AcDbEntity
  8
1
100
AcDbLine
 10
7.499999917381387
 20
14.99999986382181
 30
0.0
 11
7.499999917381387
 21
-0.0000001361781869
 31
0.0
  0
ARC
  5
95E
330
956
100
AcDbEntity
  8
0
100
AcDbCircle
 10
55.61999991736688
 20
-4.500000136178194
 30
0.0
 40
9.5
100
AcDbArc
 50
67.20868922631935
 51
116.5253520166086
  0
LINE
  5
95F
330
956
100
AcDbEntity
  8
0
100
AcDbLine
 10
47.49999991736683
 20
10.99999986382181
 30
0.0
 11
47.49999991736683
 21
3.999999863821813
 31
0.0
  0
LINE
  5
960
330
956
100
AcDbEntity
  8
0
100
AcDbLine
 10
51.37735923024781
 20
10.99999986382181
 30
0.0
 11
51.37735923024803
 21
3.999999863821813
 31
0.0
  0
CIRCLE
  5
961
330
956
100
AcDbEntity
  8
0
100
AcDbCircle
 10
7.499999917381387
 20
7.499999863821813
 30
0.0
 40
3.5
  0
CIRCLE
  5
962
330
956
100
AcDbEntity
  8
0
100
AcDbCircle
 10
7.499999917381387
 20
7.499999863821813
 30
0.0
 40
5.0
  0
LINE
  5
963
330
956
100
AcDbEntity
  8
0
100
AcDbLine
 10
51.37735923024781
 20
3.999999863821813
 30
0.0
 11
47.49999991736683
 21
3.999999863821813
 31
0.0
  0
LINE
  5
964
330
956
100
AcDbEntity
  8
1
100
AcDbLine
 10
14.99999991738139
 20
7.499999863821813
 30
0.0
 11
-0.0000000826186124
 21
7.499999863821813
 31
0.0
  0
CIRCLE
  5
965
330
956
100
AcDbEntity
  8
3
100
AcDbCircle
 10
7.499999917381387
 20
7.499999863821813
 30
0.0
 40
1.620999999999999
  0
CIRCLE
  5
966
330
956
100
AcDbEntity
  8
0
100
AcDbCircle
 10
7.499999917381387
 20
7.499999863821813
 30
0.0
 40
2.0
  0
LINE
  5
967
330
956
100
AcDbEntity
  8
0
100
AcDbLine
 10
47.09999991736682
 20
9.499999863821813
 30
0.0
 11
39.29999991738103
 21
9.499999863821813
 31
0.0
  0
LINE
  5
968
330
956
100
AcDbEntity
  8
3
100
AcDbLine
 10
46.69999991736664
 20
9.12099986383555
 30
0.0
 11
38.92099991739477
 21
9.12099986383555
 31
0.0
  0
LINE
  5
969
330
956
100
AcDbEntity
  8
3
100
AcDbLine
 10
46.69999991736664
 20
5.878999863808076
 30
0.0
 11
38.92099991739477
 21
5.878999863808076
 31
0.0
  0
LINE
  5
96A
330
956
100
AcDbEntity
  8
0
100
AcDbLine
 10
47.09999991736682
 20
5.499999863821813
 30
0.0
 11
39.29999991738103
 21
5.499999863821813
 31
0.0
  0
LINE
  5
96B
330
956
100
AcDbEntity
  8
0
100
AcDbLine
 10
39.29999991738103
 20
9.499999863821813
 30
0.0
 11
38.49999991738139
 21
8.699999863822171
 31
0.0
  0
LINE
  5
96C
330
956
100
AcDbEntity
  8
0
100
AcDbLine
 10
39.29999991738103
 20
5.499999863821813
 30
0.0
 11
38.49999991738139
 21
6.299999863821454
 31
0.0
  0
LINE
  5
96D
330
956
100
AcDbEntity
  8
0
100
AcDbLine
 10
38.49999991738139
 20
8.699999863822171
 30
0.0
 11
38.49999991738139
 21
6.299999863821454
 31
0.0
  0
LINE
  5
96E
330
956
100
AcDbEntity
  8
0
100
AcDbLine
 10
39.29999991738105
 20
9.499999863821813
 30
0.0
 11
39.29999991738103
 21
5.499999863821813
 31
0.0
  0
ARC
  5
96F
330
956
100
AcDbEntity
  8
0
100
AcDbCircle
 10
55.61999991736688
 20
19.49999986382181
 30
0.0
 40
9.5
100
AcDbArc
 50
243.4746479833914
 51
292.7913107736807
  0
LINE
  5
970
330
956
100
AcDbEntity
  8
0
100
AcDbLine
 10
46.69999991736662
 20
9.499999863821813
 30
0.0
 11
46.69999991736662
 21
5.499999863821813
 31
0.0
  0
ARC
  5
971
330
956
100
AcDbEntity
  8
0
100
AcDbCircle
 10
47.09999991736682
 20
5.099999863821807
 30
0.0
 40
0.4
100
AcDbArc
 50
0.0
 51
90.00000000000003
  0
ARC
  5
972
330
956
100
AcDbEntity
  8
0
100
AcDbCircle
 10
47.09999991736682
 20
9.899999863821818
 30
0.0
 40
0.4
100
AcDbArc
 50
270.0
 51
0.0
  0
LINE
  5
973
330
956
100
AcDbEntity
  8
0
100
AcDbLine
 10
51.37735923024781
 20
10.99999986382181
 30
0.0
 11
47.49999991736683
 21
10.99999986382181
 31
0.0
  0
LINE
  5
974
330
956
100
AcDbEntity
  8
0
100
AcDbLine
 10
47.09999991736682
 20
35.49999986382181
 30
0.0
 11
39.29999991738103
 21
35.49999986382181
 31
0.0
  0
LINE
  5
975
330
956
100
AcDbEntity
  8
3
100
AcDbLine
 10
46.69999991736664
 20
35.87899986380808
 30
0.0
 11
38.92099991739477
 21
35.87899986380808
 31
0.0
  0
LINE
  5
976
330
956
100
AcDbEntity
  8
3
100
AcDbLine
 10
46.69999991736664
 20
39.12099986383555
 30
0.0
 11
38.92099991739477
 21
39.12099986383555
 31
0.0
  0
LINE
  5
977
330
956
100
AcDbEntity
  8
0
100
AcDbLine
 10
47.09999991736682
 20
39.49999986382181
 30
0.0
 11
39.29999991738103
 21
39.49999986382181
 31
0.0
  0
LINE
  5
978
330
956
100
AcDbEntity
  8
0
100
AcDbLine
 10
39.29999991738105
 20
39.49999986382181
 30
0.0
 11
39.29999991738103
 21
35.49999986382181
 31
0.0
  0
LINE
  5
979
330
956
100
AcDbEntity
  8
0
100
AcDbLine
 10
38.49999991738139
 20
38.69999986382217
 30
0.0
 11
38.49999991738139
 21
36.29999986382145
 31
0.0
  0
LINE
  5
97A
330
956
100
AcDbEntity
  8
0
100
AcDbLine
 10
39.29999991738103
 20
35.49999986382181
 30
0.0
 11
38.49999991738139
 21
36.29999986382145
 31
0.0
  0
LINE
  5
97B
330
956
100
AcDbEntity
  8
0
100
AcDbLine
 10
39.29999991738103
 20
39.49999986382181
 30
0.0
 11
38.49999991738139
 21
38.69999986382217
 31
0.0
  0
LINE
  5
97C
330
956
100
AcDbEntity
  8
0
100
AcDbLine
 10
46.69999991736662
 20
39.49999986382181
 30
0.0
 11
46.69999991736662
 21
35.49999986382181
 31
0.0
  0
LINE
  5
97D
330
956
100
AcDbEntity
  8
0
100
AcDbLine
 10
51.37735923024781
 20
40.99999986382181
 30
0.0
 11
51.37735923024803
 21
33.99999986382181
 31
0.0
  0
LINE
  5
97E
330
956
100
AcDbEntity
  8
0
100
AcDbLine
 10
47.49999991736683
 20
40.99999986382181
 30
0.0
 11
47.49999991736683
 21
33.99999986382181
 31
0.0
  0
ARC
  5
97F
330
956
100
AcDbEntity
  8
0
100
AcDbCircle
 10
55.61999991736688
 20
25.49999986382181
 30
0.0
 40
9.5
100
AcDbArc
 50
67.20868922631935
 51
116.5253520166086
  0
LINE
  5
980
330
956
100
AcDbEntity
  8
0
100
AcDbLine
 10
51.37735923024781
 20
33.99999986382181
 30
0.0
 11
47.49999991736683
 21
33.99999986382181
 31
0.0
  0
ARC
  5
981
330
956
100
AcDbEntity
  8
0
100
AcDbCircle
 10
47.09999991736682
 20
35.09999986382181
 30
0.0
 40
0.4
100
AcDbArc
 50
0.0
 51
90.00000000000003
  0
ARC
  5
982
330
956
100
AcDbEntity
  8
0
100
AcDbCircle
 10
55.61999991736688
 20
49.49999986382181
 30
0.0
 40
9.5
100
AcDbArc
 50
243.4746479833914
 51
292.7913107736807
  0
LINE
  5
983
330
956
100
AcDbEntity
  8
0
100
AcDbLine
 10
51.37735923024781
 20
40.99999986382181
 30
0.0
 11
47.49999991736683
 21
40.99999986382181
 31
0.0
  0
ARC
  5
984
330
956
100
AcDbEntity
  8
0
100
AcDbCircle
 10
47.09999991736682
 20
39.89999986382182
 30
0.0
 40
0.4
100
AcDbArc
 50
270.0
 51
0.0
  0
ARC
  5
985
330
956
100
AcDbEntity
  8
0
100
AcDbCircle
 10
77.55999991736723
 20
7.499999863821813
 30
0.0
 40
1.939999999999999
100
AcDbArc
 50
305.8857538126675
 51
58.18887385755107
  0
ARC
  5
986
330
956
100
AcDbEntity
  8
0
100
AcDbCircle
 10
77.55999991736723
 20
37.49999986382182
 30
0.0
 40
1.939999999999999
100
AcDbArc
 50
305.8857538126675
 51
58.18887385755107
  0
ENDBLK
  5
988
330
956
100
AcDbEntity
  8
0
100
AcDbBlockEnd
  0
BLOCK
  5
EC4
330
E32
100
AcDbEntity
  8
0
100
AcDbBlockBegin
  2
A$C466C3814
 70
     0
 10
0.0
 20
0.0
 30
0.0
  3
A$C466C3814
  1

  0
LINE
  5
E33
330
E32
100
AcDbEntity
  8
0
100
AcDbLine
 10
14.74999961984361
 20
0.0000000562141054
 30
0.0
 11
14.74999961984361
 21
6.000000056214105
 31
0.0
  0
LINE
  5
E34
330
E32
100
AcDbEntity
  8
4
100
AcDbLine
 10
2.249999619843606
 20
6.000000056214105
 30
0.0
 11
-0.0000003801563935
 21
3.000000056214105
 31
0.0
  0
LINE
  5
E35
330
E32
100
AcDbEntity
  8
4
100
AcDbLine
 10
2.249999619843606
 20
6.000000056214105
 30
0.0
 11
2.249999619843606
 21
0.0000000562141054
 31
0.0
  0
LINE
  5
E36
330
E32
100
AcDbEntity
  8
2
100
AcDbLine
 10
21.24999961984361
 20
4.000000056214105
 30
0.0
 11
21.24999961984361
 21
2.000000056214105
 31
0.0
  0
LINE
  5
E37
330
E32
100
AcDbEntity
  8
2
100
AcDbLine
 10
21.24999961984361
 20
4.000000056214105
 30
0.0
 11
22.24999961984361
 21
3.000000056214105
 31
0.0
  0
LINE
  5
E38
330
E32
100
AcDbEntity
  8
2
100
AcDbLine
 10
14.74999961984361
 20
6.000000056214105
 30
0.0
 11
14.74999961984361
 21
0.0000000562141054
 31
0.0
  0
LINE
  5
E39
330
E32
100
AcDbEntity
  8
2
100
AcDbLine
 10
18.74999961984361
 20
4.500000056214105
 30
0.0
 11
18.74999961984361
 21
1.500000056214105
 31
0.0
  0
LINE
  5
E3A
330
E32
100
AcDbEntity
  8
2
100
AcDbLine
 10
15.24999961984361
 20
4.000000056214105
 30
0.0
 11
15.24999961984361
 21
2.000000056214105
 31
0.0
  0
LINE
  5
E3B
330
E32
100
AcDbEntity
  8
2
100
AcDbLine
 10
19.24999961984361
 20
4.000000056214105
 30
0.0
 11
19.24999961984361
 21
2.000000056214105
 31
0.0
  0
LINE
  5
E3C
330
E32
100
AcDbEntity
  8
2
100
AcDbLine
 10
6.749999619843606
 20
3.000000056214105
 30
0.0
 11
6.749999619843606
 21
5.750000056214105
 31
0.0
  0
LINE
  5
E3D
330
E32
100
AcDbEntity
  8
2
100
AcDbLine
 10
3.749999619843606
 20
5.750000056214105
 30
0.0
 11
3.749999619843606
 21
0.2500000562141054
 31
0.0
  0
LINE
  5
E3E
330
E32
100
AcDbEntity
  8
2
100
AcDbLine
 10
2.249999619843606
 20
6.000000056214105
 30
0.0
 11
2.249999619843606
 21
0.0000000562141054
 31
0.0
  0
LINE
  5
E3F
330
E32
100
AcDbEntity
  8
2
100
AcDbLine
 10
2.249999619843606
 20
6.000000056214105
 30
0.0
 11
-0.0000003801563935
 21
3.000000056214105
 31
0.0
  0
LINE
  5
E40
330
E32
100
AcDbEntity
  8
2
100
AcDbLine
 10
24.74999961984361
 20
3.000000056214105
 30
0.0
 11
24.74999961984361
 21
6.000000056214105
 31
0.0
  0
LINE
  5
E41
330
E32
100
AcDbEntity
  8
0
100
AcDbLine
 10
24.74999961984361
 20
0.0000000562141054
 30
0.0
 11
14.74999961984361
 21
0.0000000562141054
 31
0.0
  0
LINE
  5
E42
330
E32
100
AcDbEntity
  8
4
100
AcDbLine
 10
2.249999619843606
 20
0.0000000562141054
 30
0.0
 11
24.24999961984361
 21
0.0000000562141054
 31
0.0
  0
LINE
  5
E43
330
E32
100
AcDbEntity
  8
2
100
AcDbLine
 10
14.74999961984361
 20
0.0000000562141054
 30
0.0
 11
24.74999961984361
 21
0.0000000562141054
 31
0.0
  0
LINE
  5
E44
330
E32
100
AcDbEntity
  8
2
100
AcDbLine
 10
15.24999961984361
 20
2.000000056214105
 30
0.0
 11
14.74999961984361
 21
1.500000056214105
 31
0.0
  0
LINE
  5
E45
330
E32
100
AcDbEntity
  8
2
100
AcDbLine
 10
18.74999961984361
 20
1.500000056214105
 30
0.0
 11
6.749999619843606
 21
1.500000056214105
 31
0.0
  0
LINE
  5
E46
330
E32
100
AcDbEntity
  8
2
100
AcDbLine
 10
3.749999619843606
 20
0.2500000562141054
 30
0.0
 11
6.749999619843606
 21
0.2500000562141054
 31
0.0
  0
LINE
  5
E47
330
E32
100
AcDbEntity
  8
2
100
AcDbLine
 10
2.249999619843606
 20
0.0000000562141054
 30
0.0
 11
14.74999961984361
 21
0.0000000562141054
 31
0.0
  0
LINE
  5
E48
330
E32
100
AcDbEntity
  8
4
100
AcDbLine
 10
-0.0000003801563935
 20
3.000000056214105
 30
0.0
 11
2.249999619843606
 21
0.0000000562141054
 31
0.0
  0
LINE
  5
E49
330
E32
100
AcDbEntity
  8
2
100
AcDbLine
 10
-0.0000003801563935
 20
3.000000056214105
 30
0.0
 11
2.249999619843606
 21
0.0000000562141054
 31
0.0
  0
LINE
  5
E4A
330
E32
100
AcDbEntity
  8
0
100
AcDbLine
 10
8.502155112681521
 20
0.0000000562141054
 30
0.0
 11
9.502155112681506
 21
1.000000056214091
 31
0.0
  0
LINE
  5
E4B
330
E32
100
AcDbEntity
  8
0
100
AcDbLine
 10
8.678931807978145
 20
0.0000000562141054
 30
0.0
 11
9.678931807978145
 21
1.000000056214091
 31
0.0
  0
LINE
  5
E4C
330
E32
100
AcDbEntity
  8
0
100
AcDbLine
 10
8.855708503274783
 20
0.0000000562141054
 30
0.0
 11
9.855708503274783
 21
1.000000056214091
 31
0.0
  0
LINE
  5
E4D
330
E32
100
AcDbEntity
  8
3
100
AcDbLine
 10
6.999999619843606
 20
0.0000000562141054
 30
0.0
 11
14.74999961984361
 21
0.0000000562141054
 31
0.0
  0
LINE
  5
E4E
330
E32
100
AcDbEntity
  8
3
100
AcDbLine
 10
14.74999961984361
 20
1.000000056214105
 30
0.0
 11
6.999999619843606
 21
1.000000056214105
 31
0.0
  0
LINE
  5
E4F
330
E32
100
AcDbEntity
  8
0
100
AcDbLine
 10
9.032485198571421
 20
0.0000000562141054
 30
0.0
 11
10.03248519857142
 21
1.000000056214091
 31
0.0
  0
LINE
  5
E50
330
E32
100
AcDbEntity
  8
0
100
AcDbLine
 10
9.20926189386806
 20
0.0000000562141054
 30
0.0
 11
10.20926189386806
 21
1.000000056214091
 31
0.0
  0
LINE
  5
E51
330
E32
100
AcDbEntity
  8
0
100
AcDbLine
 10
9.386038589164698
 20
0.0000000562141054
 30
0.0
 11
10.38603858916468
 21
1.000000056214091
 31
0.0
  0
LINE
  5
E52
330
E32
100
AcDbEntity
  8
3
100
AcDbLine
 10
6.999999619843606
 20
1.000000056214105
 30
0.0
 11
6.999999619843606
 21
0.0000000562141054
 31
0.0
  0
LINE
  5
E53
330
E32
100
AcDbEntity
  8
0
100
AcDbLine
 10
7.087941550308414
 20
0.0000000562141196
 30
0.0
 11
8.087941550308414
 21
1.000000056214105
 31
0.0
  0
LINE
  5
E54
330
E32
100
AcDbEntity
  8
0
100
AcDbLine
 10
7.264718245605052
 20
0.0000000562141196
 30
0.0
 11
8.264718245605038
 21
1.000000056214105
 31
0.0
  0
LINE
  5
E55
330
E32
100
AcDbEntity
  8
0
100
AcDbLine
 10
7.441494940901691
 20
0.0000000562141054
 30
0.0
 11
8.441494940901677
 21
1.000000056214105
 31
0.0
  0
LINE
  5
E56
330
E32
100
AcDbEntity
  8
0
100
AcDbLine
 10
7.618271636198329
 20
0.0000000562141054
 30
0.0
 11
8.618271636198315
 21
1.000000056214105
 31
0.0
  0
LINE
  5
E57
330
E32
100
AcDbEntity
  8
0
100
AcDbLine
 10
7.795048331494967
 20
0.0000000562141054
 30
0.0
 11
8.795048331494953
 21
1.000000056214105
 31
0.0
  0
LINE
  5
E58
330
E32
100
AcDbEntity
  8
0
100
AcDbLine
 10
7.971825026791606
 20
0.0000000562141054
 30
0.0
 11
8.971825026791591
 21
1.000000056214091
 31
0.0
  0
LINE
  5
E59
330
E32
100
AcDbEntity
  8
0
100
AcDbLine
 10
8.148601722088244
 20
0.0000000562141054
 30
0.0
 11
9.14860172208823
 21
1.000000056214091
 31
0.0
  0
LINE
  5
E5A
330
E32
100
AcDbEntity
  8
0
100
AcDbLine
 10
8.325378417384882
 20
0.0000000562141054
 30
0.0
 11
9.325378417384868
 21
1.000000056214091
 31
0.0
  0
LINE
  5
E5B
330
E32
100
AcDbEntity
  8
2
100
AcDbLine
 10
6.749999619843606
 20
0.2500000562141054
 30
0.0
 11
6.749999619843606
 21
3.000000056214105
 31
0.0
  0
LINE
  5
E5C
330
E32
100
AcDbEntity
  8
0
100
AcDbLine
 10
6.999999619843606
 20
0.9727182975290986
 30
0.0
 11
7.027281378528584
 21
1.000000056214091
 31
0.0
  0
LINE
  5
E5D
330
E32
100
AcDbEntity
  8
0
100
AcDbLine
 10
6.999999619843606
 20
0.7959416022324604
 30
0.0
 11
7.204058073825223
 21
1.000000056214091
 31
0.0
  0
LINE
  5
E5E
330
E32
100
AcDbEntity
  8
0
100
AcDbLine
 10
6.999999619843606
 20
0.6191649069358221
 30
0.0
 11
7.380834769121861
 21
1.000000056214091
 31
0.0
  0
LINE
  5
E5F
330
E32
100
AcDbEntity
  8
0
100
AcDbLine
 10
6.999999619843606
 20
0.4423882116391838
 30
0.0
 11
7.557611464418499
 21
1.000000056214091
 31
0.0
  0
LINE
  5
E60
330
E32
100
AcDbEntity
  8
0
100
AcDbLine
 10
6.999999619843606
 20
0.2656115163425454
 30
0.0
 11
7.734388159715138
 21
1.000000056214091
 31
0.0
  0
LINE
  5
E61
330
E32
100
AcDbEntity
  8
0
100
AcDbLine
 10
6.999999619843606
 20
0.0888348210459071
 30
0.0
 11
7.911164855011776
 21
1.000000056214105
 31
0.0
  0
LINE
  5
E62
330
E32
100
AcDbEntity
  8
3
100
AcDbLine
 10
14.74999961984361
 20
0.0000000562141054
 30
0.0
 11
14.74999961984361
 21
1.000000056214105
 31
0.0
  0
LINE
  5
E63
330
E32
100
AcDbEntity
  8
0
100
AcDbLine
 10
10.09314537035125
 20
0.0000000562141054
 30
0.0
 11
11.09314537035124
 21
1.000000056214091
 31
0.0
  0
LINE
  5
E64
330
E32
100
AcDbEntity
  8
0
100
AcDbLine
 10
10.26992206564789
 20
0.0000000562141054
 30
0.0
 11
11.26992206564787
 21
1.000000056214091
 31
0.0
  0
LINE
  5
E65
330
E32
100
AcDbEntity
  8
0
100
AcDbLine
 10
10.44669876094453
 20
0.0000000562141054
 30
0.0
 11
11.44669876094451
 21
1.000000056214105
 31
0.0
  0
LINE
  5
E66
330
E32
100
AcDbEntity
  8
0
100
AcDbLine
 10
10.62347545624115
 20
0.0000000562141196
 30
0.0
 11
11.62347545624114
 21
1.000000056214105
 31
0.0
  0
LINE
  5
E67
330
E32
100
AcDbEntity
  8
0
100
AcDbLine
 10
10.80025215153779
 20
0.0000000562141196
 30
0.0
 11
11.80025215153778
 21
1.000000056214105
 31
0.0
  0
LINE
  5
E68
330
E32
100
AcDbEntity
  8
0
100
AcDbLine
 10
10.97702884683443
 20
0.0000000562141054
 30
0.0
 11
11.97702884683441
 21
1.000000056214105
 31
0.0
  0
LINE
  5
E69
330
E32
100
AcDbEntity
  8
0
100
AcDbLine
 10
11.15380554213107
 20
0.0000000562141054
 30
0.0
 11
12.15380554213105
 21
1.000000056214105
 31
0.0
  0
LINE
  5
E6A
330
E32
100
AcDbEntity
  8
0
100
AcDbLine
 10
11.3305822374277
 20
0.0000000562141054
 30
0.0
 11
12.33058223742769
 21
1.000000056214105
 31
0.0
  0
LINE
  5
E6B
330
E32
100
AcDbEntity
  8
0
100
AcDbLine
 10
11.50735893272434
 20
0.0000000562141054
 30
0.0
 11
12.50735893272434
 21
1.000000056214119
 31
0.0
  0
LINE
  5
E6C
330
E32
100
AcDbEntity
  8
0
100
AcDbLine
 10
11.68413562802098
 20
0.0000000562141054
 30
0.0
 11
12.68413562802098
 21
1.000000056214119
 31
0.0
  0
LINE
  5
E6D
330
E32
100
AcDbEntity
  8
0
100
AcDbLine
 10
11.86091232331762
 20
0.0000000562141054
 30
0.0
 11
12.86091232331761
 21
1.000000056214091
 31
0.0
  0
LINE
  5
E6E
330
E32
100
AcDbEntity
  8
0
100
AcDbLine
 10
12.03768901861426
 20
0.0000000562141054
 30
0.0
 11
13.03768901861424
 21
1.000000056214091
 31
0.0
  0
LINE
  5
E6F
330
E32
100
AcDbEntity
  8
0
100
AcDbLine
 10
12.21446571391088
 20
0.0000000562141054
 30
0.0
 11
13.21446571391088
 21
1.000000056214091
 31
0.0
  0
LINE
  5
E70
330
E32
100
AcDbEntity
  8
0
100
AcDbLine
 10
12.39124240920752
 20
0.0000000562141054
 30
0.0
 11
13.39124240920752
 21
1.000000056214091
 31
0.0
  0
LINE
  5
E71
330
E32
100
AcDbEntity
  8
0
100
AcDbLine
 10
12.56801910450416
 20
0.0000000562141054
 30
0.0
 11
13.56801910450416
 21
1.000000056214091
 31
0.0
  0
LINE
  5
E72
330
E32
100
AcDbEntity
  8
0
100
AcDbLine
 10
12.7447957998008
 20
0.0000000562141054
 30
0.0
 11
13.7447957998008
 21
1.000000056214091
 31
0.0
  0
LINE
  5
E73
330
E32
100
AcDbEntity
  8
0
100
AcDbLine
 10
12.92157249509743
 20
0.0000000562141054
 30
0.0
 11
13.92157249509742
 21
1.000000056214091
 31
0.0
  0
LINE
  5
E74
330
E32
100
AcDbEntity
  8
0
100
AcDbLine
 10
13.09834919039407
 20
0.0000000562141054
 30
0.0
 11
14.09834919039406
 21
1.000000056214091
 31
0.0
  0
LINE
  5
E75
330
E32
100
AcDbEntity
  8
0
100
AcDbLine
 10
13.27512588569071
 20
0.0000000562141054
 30
0.0
 11
14.27512588569072
 21
1.000000056214105
 31
0.0
  0
LINE
  5
E76
330
E32
100
AcDbEntity
  8
0
100
AcDbLine
 10
13.45190258098735
 20
0.0000000562141054
 30
0.0
 11
14.45190258098733
 21
1.000000056214091
 31
0.0
  0
LINE
  5
E77
330
E32
100
AcDbEntity
  8
0
100
AcDbLine
 10
13.62867927628399
 20
0.0000000562141054
 30
0.0
 11
14.62867927628397
 21
1.000000056214091
 31
0.0
  0
LINE
  5
E78
330
E32
100
AcDbEntity
  8
0
100
AcDbLine
 10
13.80545597158063
 20
0.0000000562141054
 30
0.0
 11
14.74999961984362
 21
0.9445437044770983
 31
0.0
  0
LINE
  5
E79
330
E32
100
AcDbEntity
  8
0
100
AcDbLine
 10
13.98223266687726
 20
0.0000000562141054
 30
0.0
 11
14.74999961984362
 21
0.7677670091804601
 31
0.0
  0
LINE
  5
E7A
330
E32
100
AcDbEntity
  8
0
100
AcDbLine
 10
14.15900936217389
 20
0.0000000562141196
 30
0.0
 11
14.74999961984359
 21
0.5909903138838218
 31
0.0
  0
LINE
  5
E7B
330
E32
100
AcDbEntity
  8
0
100
AcDbLine
 10
14.33578605747053
 20
0.0000000562141196
 30
0.0
 11
14.74999961984359
 21
0.4142136185871835
 31
0.0
  0
LINE
  5
E7C
330
E32
100
AcDbEntity
  8
0
100
AcDbLine
 10
14.51256275276717
 20
0.0000000562141054
 30
0.0
 11
14.74999961984359
 21
0.2374369232905451
 31
0.0
  0
LINE
  5
E7D
330
E32
100
AcDbEntity
  8
0
100
AcDbLine
 10
9.562815284461336
 20
0.0000000562141054
 30
0.0
 11
10.56281528446132
 21
1.000000056214091
 31
0.0
  0
LINE
  5
E7E
330
E32
100
AcDbEntity
  8
0
100
AcDbLine
 10
9.739591979757975
 20
0.0000000562141054
 30
0.0
 11
10.73959197975796
 21
1.000000056214091
 31
0.0
  0
LINE
  5
E7F
330
E32
100
AcDbEntity
  8
0
100
AcDbLine
 10
9.916368675054613
 20
0.0000000562141054
 30
0.0
 11
10.9163686750546
 21
1.000000056214091
 31
0.0
  0
LINE
  5
E80
330
E32
100
AcDbEntity
  8
0
100
AcDbLine
 10
14.6893394480638
 20
0.0000000562141054
 30
0.0
 11
14.74999961984359
 21
0.0606602279939068
 31
0.0
  0
LINE
  5
E81
330
E32
100
AcDbEntity
  8
2
100
AcDbLine
 10
21.24999961984361
 20
2.000000056214105
 30
0.0
 11
15.24999961984361
 21
2.000000056214105
 31
0.0
  0
LINE
  5
E82
330
E32
100
AcDbEntity
  8
2
100
AcDbLine
 10
19.24999961984361
 20
2.000000056214105
 30
0.0
 11
18.74999961984361
 21
1.500000056214105
 31
0.0
  0
LINE
  5
E83
330
E32
100
AcDbEntity
  8
2
100
AcDbLine
 10
22.24999961984361
 20
3.000000056214105
 30
0.0
 11
21.24999961984361
 21
2.000000056214105
 31
0.0
  0
LINE
  5
E84
330
E32
100
AcDbEntity
  8
0
100
AcDbLine
 10
14.74999961984361
 20
6.000000056214105
 30
0.0
 11
24.74999961984361
 21
6.000000056214105
 31
0.0
  0
LINE
  5
E85
330
E32
100
AcDbEntity
  8
4
100
AcDbLine
 10
24.24999961984361
 20
6.000000056214105
 30
0.0
 11
2.249999619843606
 21
6.000000056214105
 31
0.0
  0
LINE
  5
E86
330
E32
100
AcDbEntity
  8
2
100
AcDbLine
 10
24.74999961984361
 20
6.000000056214105
 30
0.0
 11
14.74999961984361
 21
6.000000056214105
 31
0.0
  0
LINE
  5
E87
330
E32
100
AcDbEntity
  8
2
100
AcDbLine
 10
14.74999961984361
 20
4.500000056214105
 30
0.0
 11
15.24999961984361
 21
4.000000056214105
 31
0.0
  0
LINE
  5
E88
330
E32
100
AcDbEntity
  8
2
100
AcDbLine
 10
14.74999961984361
 20
4.500000056214105
 30
0.0
 11
18.74999961984361
 21
4.500000056214105
 31
0.0
  0
LINE
  5
E89
330
E32
100
AcDbEntity
  8
3
100
AcDbLine
 10
6.999999619843606
 20
6.000000056214105
 30
0.0
 11
14.9999996198436
 21
6.000000056214105
 31
0.0
  0
LINE
  5
E8A
330
E32
100
AcDbEntity
  8
2
100
AcDbLine
 10
6.749999619843606
 20
5.750000056214105
 30
0.0
 11
3.749999619843606
 21
5.750000056214105
 31
0.0
  0
LINE
  5
E8B
330
E32
100
AcDbEntity
  8
2
100
AcDbLine
 10
14.74999961984361
 20
6.000000056214105
 30
0.0
 11
2.249999619843606
 21
6.000000056214105
 31
0.0
  0
LINE
  5
E8C
330
E32
100
AcDbEntity
  8
0
100
AcDbLine
 10
8.552407644375676
 20
5.000000056214105
 30
0.0
 11
9.552407644375676
 21
6.000000056214105
 31
0.0
  0
LINE
  5
E8D
330
E32
100
AcDbEntity
  8
0
100
AcDbLine
 10
8.729184339672315
 20
5.000000056214105
 30
0.0
 11
9.729184339672301
 21
6.000000056214105
 31
0.0
  0
LINE
  5
E8E
330
E32
100
AcDbEntity
  8
0
100
AcDbLine
 10
8.905961034968953
 20
5.000000056214105
 30
0.0
 11
9.905961034968939
 21
6.000000056214105
 31
0.0
  0
LINE
  5
E8F
330
E32
100
AcDbEntity
  8
2
100
AcDbLine
 10
14.74999961984361
 20
4.500000056214105
 30
0.0
 11
6.749999619843606
 21
4.500000056214105
 31
0.0
  0
LINE
  5
E90
330
E32
100
AcDbEntity
  8
3
100
AcDbLine
 10
14.74999961984361
 20
5.000000056214105
 30
0.0
 11
6.999999619843606
 21
5.000000056214105
 31
0.0
  0
LINE
  5
E91
330
E32
100
AcDbEntity
  8
0
100
AcDbLine
 10
9.082737730265591
 20
5.000000056214105
 30
0.0
 11
10.08273773026558
 21
6.000000056214105
 31
0.0
  0
LINE
  5
E92
330
E32
100
AcDbEntity
  8
0
100
AcDbLine
 10
9.25951442556223
 20
5.000000056214105
 30
0.0
 11
10.25951442556221
 21
6.000000056214105
 31
0.0
  0
LINE
  5
E93
330
E32
100
AcDbEntity
  8
0
100
AcDbLine
 10
7.314970777299222
 20
5.000000056214105
 30
0.0
 11
8.314970777299208
 21
6.000000056214105
 31
0.0
  0
LINE
  5
E94
330
E32
100
AcDbEntity
  8
0
100
AcDbLine
 10
7.491747472595861
 20
5.000000056214105
 30
0.0
 11
8.491747472595847
 21
6.000000056214105
 31
0.0
  0
LINE
  5
E95
330
E32
100
AcDbEntity
  8
0
100
AcDbLine
 10
7.668524167892499
 20
5.000000056214105
 30
0.0
 11
8.668524167892485
 21
6.000000056214105
 31
0.0
  0
LINE
  5
E96
330
E32
100
AcDbEntity
  8
0
100
AcDbLine
 10
7.845300863189137
 20
5.000000056214105
 30
0.0
 11
8.845300863189123
 21
6.000000056214105
 31
0.0
  0
LINE
  5
E97
330
E32
100
AcDbEntity
  8
0
100
AcDbLine
 10
8.022077558485776
 20
5.000000056214105
 30
0.0
 11
9.022077558485761
 21
6.000000056214105
 31
0.0
  0
LINE
  5
E98
330
E32
100
AcDbEntity
  8
0
100
AcDbLine
 10
8.198854253782414
 20
5.000000056214105
 30
0.0
 11
9.1988542537824
 21
6.000000056214105
 31
0.0
  0
LINE
  5
E99
330
E32
100
AcDbEntity
  8
0
100
AcDbLine
 10
8.375630949079052
 20
5.000000056214105
 30
0.0
 11
9.375630949079038
 21
6.000000056214105
 31
0.0
  0
LINE
  5
E9A
330
E32
100
AcDbEntity
  8
3
100
AcDbLine
 10
6.999999619843606
 20
5.000000056214105
 30
0.0
 11
6.999999619843606
 21
6.000000056214105
 31
0.0
  0
LINE
  5
E9B
330
E32
100
AcDbEntity
  8
0
100
AcDbLine
 10
6.999999619843592
 20
5.922465765834942
 30
0.0
 11
7.077533910222754
 21
6.000000056214076
 31
0.0
  0
LINE
  5
E9C
330
E32
100
AcDbEntity
  8
0
100
AcDbLine
 10
6.999999619843592
 20
5.745689070538304
 30
0.0
 11
7.254310605519393
 21
6.000000056214076
 31
0.0
  0
LINE
  5
E9D
330
E32
100
AcDbEntity
  8
0
100
AcDbLine
 10
6.999999619843592
 20
5.568912375241666
 30
0.0
 11
7.431087300816031
 21
6.000000056214076
 31
0.0
  0
LINE
  5
E9E
330
E32
100
AcDbEntity
  8
0
100
AcDbLine
 10
6.999999619843592
 20
5.392135679945027
 30
0.0
 11
7.607863996112669
 21
6.000000056214105
 31
0.0
  0
LINE
  5
E9F
330
E32
100
AcDbEntity
  8
0
100
AcDbLine
 10
6.999999619843592
 20
5.215358984648389
 30
0.0
 11
7.784640691409308
 21
6.000000056214105
 31
0.0
  0
LINE
  5
EA0
330
E32
100
AcDbEntity
  8
0
100
AcDbLine
 10
6.999999619843592
 20
5.038582289351751
 30
0.0
 11
7.961417386705946
 21
6.000000056214105
 31
0.0
  0
LINE
  5
EA1
330
E32
100
AcDbEntity
  8
0
100
AcDbLine
 10
7.138194082002584
 20
5.000000056214105
 30
0.0
 11
8.138194082002584
 21
6.000000056214105
 31
0.0
  0
LINE
  5
EA2
330
E32
100
AcDbEntity
  8
0
100
AcDbLine
 10
11.20405807382524
 20
5.000000056214105
 30
0.0
 11
12.20405807382522
 21
6.000000056214105
 31
0.0
  0
LINE
  5
EA3
330
E32
100
AcDbEntity
  8
0
100
AcDbLine
 10
11.38083476912187
 20
5.000000056214105
 30
0.0
 11
12.38083476912186
 21
6.000000056214105
 31
0.0
  0
LINE
  5
EA4
330
E32
100
AcDbEntity
  8
0
100
AcDbLine
 10
11.55761146441851
 20
5.000000056214105
 30
0.0
 11
12.5576114644185
 21
6.000000056214105
 31
0.0
  0
LINE
  5
EA5
330
E32
100
AcDbEntity
  8
0
100
AcDbLine
 10
11.73438815971515
 20
5.000000056214105
 30
0.0
 11
12.73438815971514
 21
6.000000056214105
 31
0.0
  0
LINE
  5
EA6
330
E32
100
AcDbEntity
  8
0
100
AcDbLine
 10
11.91116485501179
 20
5.000000056214105
 30
0.0
 11
12.91116485501177
 21
6.000000056214105
 31
0.0
  0
LINE
  5
EA7
330
E32
100
AcDbEntity
  8
0
100
AcDbLine
 10
12.08794155030841
 20
5.000000056214105
 30
0.0
 11
13.08794155030841
 21
6.000000056214105
 31
0.0
  0
LINE
  5
EA8
330
E32
100
AcDbEntity
  8
0
100
AcDbLine
 10
10.14339790204542
 20
5.000000056214105
 30
0.0
 11
11.14339790204541
 21
6.000000056214105
 31
0.0
  0
LINE
  5
EA9
330
E32
100
AcDbEntity
  8
0
100
AcDbLine
 10
10.32017459734204
 20
5.000000056214105
 30
0.0
 11
11.32017459734204
 21
6.000000056214105
 31
0.0
  0
LINE
  5
EAA
330
E32
100
AcDbEntity
  8
0
100
AcDbLine
 10
10.49695129263868
 20
5.000000056214105
 30
0.0
 11
11.49695129263868
 21
6.000000056214105
 31
0.0
  0
LINE
  5
EAB
330
E32
100
AcDbEntity
  8
0
100
AcDbLine
 10
10.67372798793532
 20
5.000000056214105
 30
0.0
 11
11.67372798793532
 21
6.000000056214105
 31
0.0
  0
LINE
  5
EAC
330
E32
100
AcDbEntity
  8
0
100
AcDbLine
 10
10.85050468323196
 20
5.000000056214105
 30
0.0
 11
11.85050468323194
 21
6.000000056214105
 31
0.0
  0
LINE
  5
EAD
330
E32
100
AcDbEntity
  8
0
100
AcDbLine
 10
11.0272813785286
 20
5.000000056214105
 30
0.0
 11
12.02728137852858
 21
6.000000056214105
 31
0.0
  0
LINE
  5
EAE
330
E32
100
AcDbEntity
  8
0
100
AcDbLine
 10
9.436291120858868
 20
5.000000056214105
 30
0.0
 11
10.43629112085885
 21
6.000000056214076
 31
0.0
  0
LINE
  5
EAF
330
E32
100
AcDbEntity
  8
0
100
AcDbLine
 10
9.613067816155506
 20
5.000000056214105
 30
0.0
 11
10.61306781615549
 21
6.000000056214076
 31
0.0
  0
LINE
  5
EB0
330
E32
100
AcDbEntity
  8
0
100
AcDbLine
 10
9.789844511452145
 20
5.000000056214105
 30
0.0
 11
10.78984451145213
 21
6.000000056214076
 31
0.0
  0
LINE
  5
EB1
330
E32
100
AcDbEntity
  8
0
100
AcDbLine
 10
9.966621206748783
 20
5.000000056214105
 30
0.0
 11
10.96662120674877
 21
6.000000056214076
 31
0.0
  0
LINE
  5
EB2
330
E32
100
AcDbEntity
  8
3
100
AcDbLine
 10
14.74999961984361
 20
6.000000056214105
 30
0.0
 11
14.74999961984361
 21
5.000000056214105
 31
0.0
  0
LINE
  5
EB3
330
E32
100
AcDbEntity
  8
0
100
AcDbLine
 10
12.79504833149497
 20
5.000000056214105
 30
0.0
 11
13.79504833149495
 21
6.000000056214076
 31
0.0
  0
LINE
  5
EB4
330
E32
100
AcDbEntity
  8
0
100
AcDbLine
 10
12.97182502679161
 20
5.000000056214105
 30
0.0
 11
13.97182502679157
 21
6.000000056214105
 31
0.0
  0
LINE
  5
EB5
330
E32
100
AcDbEntity
  8
0
100
AcDbLine
 10
13.14860172208824
 20
5.000000056214105
 30
0.0
 11
14.14860172208823
 21
6.000000056214076
 31
0.0
  0
LINE
  5
EB6
330
E32
100
AcDbEntity
  8
0
100
AcDbLine
 10
13.32537841738488
 20
5.000000056214105
 30
0.0
 11
14.32537841738485
 21
6.000000056214105
 31
0.0
  0
LINE
  5
EB7
330
E32
100
AcDbEntity
  8
0
100
AcDbLine
 10
13.50215511268152
 20
5.000000056214105
 30
0.0
 11
14.5021551126815
 21
6.000000056214076
 31
0.0
  0
LINE
  5
EB8
330
E32
100
AcDbEntity
  8
0
100
AcDbLine
 10
13.67893180797816
 20
5.000000056214105
 30
0.0
 11
14.67893180797813
 21
6.000000056214105
 31
0.0
  0
LINE
  5
EB9
330
E32
100
AcDbEntity
  8
0
100
AcDbLine
 10
13.85570850327478
 20
5.000000056214105
 30
0.0
 11
14.74999961984359
 21
5.894291172782942
 31
0.0
  0
LINE
  5
EBA
330
E32
100
AcDbEntity
  8
0
100
AcDbLine
 10
14.03248519857142
 20
5.000000056214105
 30
0.0
 11
14.74999961984361
 21
5.717514477486275
 31
0.0
  0
LINE
  5
EBB
330
E32
100
AcDbEntity
  8
0
100
AcDbLine
 10
14.20926189386806
 20
5.000000056214105
 30
0.0
 11
14.74999961984359
 21
5.540737782189665
 31
0.0
  0
LINE
  5
EBC
330
E32
100
AcDbEntity
  8
0
100
AcDbLine
 10
14.3860385891647
 20
5.000000056214105
 30
0.0
 11
14.74999961984361
 21
5.363961086892999
 31
0.0
  0
LINE
  5
EBD
330
E32
100
AcDbEntity
  8
0
100
AcDbLine
 10
14.56281528446133
 20
5.000000056214105
 30
0.0
 11
14.74999961984359
 21
5.18718439159636
 31
0.0
  0
LINE
  5
EBE
330
E32
100
AcDbEntity
  8
0
100
AcDbLine
 10
14.73959197975797
 20
5.000000056214105
 30
0.0
 11
14.74999961984358
 21
5.010407696299694
 31
0.0
  0
LINE
  5
EBF
330
E32
100
AcDbEntity
  8
0
100
AcDbLine
 10
12.26471824560505
 20
5.000000056214105
 30
0.0
 11
13.26471824560504
 21
6.000000056214105
 31
0.0
  0
LINE
  5
EC0
330
E32
100
AcDbEntity
  8
0
100
AcDbLine
 10
12.44149494090169
 20
5.000000056214105
 30
0.0
 11
13.44149494090167
 21
6.000000056214105
 31
0.0
  0
LINE
  5
EC1
330
E32
100
AcDbEntity
  8
0
100
AcDbLine
 10
12.61827163619833
 20
5.000000056214105
 30
0.0
 11
13.61827163619831
 21
6.000000056214105
 31
0.0
  0
LINE
  5
EC2
330
E32
100
AcDbEntity
  8
2
100
AcDbLine
 10
15.24999961984361
 20
4.000000056214105
 30
0.0
 11
21.24999961984361
 21
4.000000056214105
 31
0.0
  0
LINE
  5
EC3
330
E32
100
AcDbEntity
  8
2
100
AcDbLine
 10
18.74999961984361
 20
4.500000056214105
 30
0.0
 11
19.24999961984361
 21
4.000000056214105
 31
0.0
  0
ENDBLK
  5
EC5
330
E32
100
AcDbEntity
  8
0
100
AcDbBlockEnd
  0
BLOCK
  5
10E7
330
10E6
100
AcDbEntity
  8
0
100
AcDbBlockBegin
  2
*D6
 70
     1
 10
0.0
 20
0.0
 30
0.0
  3
*D6
  1

  0
LINE
  5
10E8
330
10E6
100
AcDbEntity
  8
0
  6
ByBlock
 62
     0
440
 16777216
100
AcDbLine
 10
20.75000000000002
 20
121.25
 30
0.0
 11
22.75000000000003
 21
121.25
 31
0.0
  0
LINE
  5
10E9
330
10E6
100
AcDbEntity
  8
0
  6
ByBlock
 62
     0
440
 16777216
100
AcDbLine
 10
22.75000000000003
 20
121.25
 30
0.0
 11
35.22527142323994
 21
102.7739651073535
 31
0.0
  0
MTEXT
  5
10EA
330
10E6
100
AcDbEntity
  8
0
  6
ByBlock
 62
     0
440
 16777216
100
AcDbMText
 10
13.99333333333336
 20
121.25
 30
0.0
 40
5.0
 41
0.0
 46
0.0
 71
     5
 72
     1
  1
\A1;∅22
 73
     1
 44
1.0
  0
SOLID
  5
10EB
330
10E6
100
AcDbEntity
  8
0
  6
ByBlock
 62
     0
440
 16777216
100
AcDbTrace
 10
35.50152693881312
 20
102.9604966093217
 30
0.0
 11
34.94901590766679
 21
102.5874336053853
 31
0.0
 12
36.34446043504919
 22
101.1164320139145
 32
0.0
 13
36.34446043504919
 23
101.1164320139145
 33
0.0
  0
LINE
  5
10EC
330
10E6
100
AcDbEntity
  8
0
  6
ByBlock
 62
     0
440
 16777216
100
AcDbLine
 10
42.40999999999999
 20
92.0
 30
0.0
 11
42.59
 21
92.0
 31
0.0
  0
LINE
  5
10ED
330
10E6
100
AcDbEntity
  8
0
  6
ByBlock
 62
     0
440
 16777216
100
AcDbLine
 10
42.5
 20
91.91
 30
0.0
 11
42.5
 21
92.09000000000001
 31
0.0
  0
POINT
  5
10EE
330
10E6
100
AcDbEntity
  8
DEFPOINTS
  6
ByBlock
 62
     0
440
 16777216
100
AcDbPoint
 10
36.34446043504919
 20
101.1164320139145
 30
0.0
  0
POINT
  5
10EF
330
10E6
100
AcDbEntity
  8
DEFPOINTS
  6
ByBlock
 62
     0
440
 16777216
100
AcDbPoint
 10
48.6555395649508
 20
82.8835679860855
 30
0.0
  0
ENDBLK
  5
10F0
330
10E6
100
AcDbEntity
  8
0
100
AcDbBlockEnd
  0
BLOCK
  5
1110
330
110F
100
AcDbEntity
  8
0
100
AcDbBlockBegin
  2
*D7
 70
     1
 10
0.0
 20
0.0
 30
0.0
  3
*D7
  1

  0
LINE
  5
1111
330
110F
100
AcDbEntity
  8
0
  6
ByBlock
 62
     0
440
 16777216
100
AcDbLine
 10
172.0
 20
102.5
 30
0.0
 11
172.0
 21
144.25
 31
0.0
  0
LINE
  5
1112
330
110F
100
AcDbEntity
  8
0
  6
ByBlock
 62
     0
440
 16777216
100
AcDbLine
 10
102.0
 20
93.0
 30
0.0
 11
102.0
 21
144.25
 31
0.0
  0
LINE
  5
1113
330
110F
100
AcDbEntity
  8
0
  6
ByBlock
 62
     0
440
 16777216
100
AcDbLine
 10
170.0
 20
143.25
 30
0.0
 11
140.84
 21
143.25
 31
0.0
  0
LINE
  5
1114
330
110F
100
AcDbEntity
  8
0
  6
ByBlock
 62
     0
440
 16777216
100
AcDbLine
 10
104.0
 20
143.25
 30
0.0
 11
133.16
 21
143.25
 31
0.0
  0
SOLID
  5
1115
330
110F
100
AcDbEntity
  8
0
  6
ByBlock
 62
     0
440
 16777216
100
AcDbTrace
 10
170.0
 20
143.5833333333333
 30
0.0
 11
170.0
 21
142.9166666666666
 31
0.0
 12
172.0
 22
143.25
 32
0.0
 13
172.0
 23
143.25
 33
0.0
  0
SOLID
  5
1116
330
110F
100
AcDbEntity
  8
0
  6
ByBlock
 62
     0
440
 16777216
100
AcDbTrace
 10
104.0
 20
143.5833333333333
 30
0.0
 11
104.0
 21
142.9166666666666
 31
0.0
 12
102.0
 22
143.25
 32
0.0
 13
102.0
 23
143.25
 33
0.0
  0
MTEXT
  5
1117
330
110F
100
AcDbEntity
  8
0
  6
ByBlock
 62
     0
440
 16777216
100
AcDbMText
 10
137.0
 20
143.25
 30
0.0
 40
5.0
 41
0.0
 46
0.0
 71
     5
 72
     1
  1
\A1;70
 73
     1
 44
1.0
  0
POINT
  5
1118
330
110F
100
AcDbEntity
  8
DEFPOINTS
  6
ByBlock
 62
     0
440
 16777216
100
AcDbPoint
 10
172.0
 20
101.5
 30
0.0
  0
POINT
  5
1119
330
110F
100
AcDbEntity
  8
DEFPOINTS
  6
ByBlock
 62
     0
440
 16777216
100
AcDbPoint
 10
102.0
 20
92.0
 30
0.0
  0
POINT
  5
111A
330
110F
100
AcDbEntity
  8
DEFPOINTS
  6
ByBlock
 62
     0
440
 16777216
100
AcDbPoint
 10
102.0
 20
143.25
 30
0.0
  0
ENDBLK
  5
111B
330
110F
100
AcDbEntity
  8
0
100
AcDbBlockEnd
  0
BLOCK
  5
114C
330
114B
100
AcDbEntity
  8
0
100
AcDbBlockBegin
  2
*D8
 70
     1
 10
0.0
 20
0.0
 30
0.0
  3
*D8
  1

  0
LINE
  5
114D
330
114B
100
AcDbEntity
  8
0
  6
ByBlock
 62
     0
440
 16777216
100
AcDbLine
 10
142.0
 20
104.0
 30
0.0
 11
142.0
 21
123.1233186842744
 31
0.0
  0
LINE
  5
114E
330
114B
100
AcDbEntity
  8
0
  6
ByBlock
 62
     0
440
 16777216
100
AcDbLine
 10
172.0
 20
102.5
 30
0.0
 11
172.0
 21
123.1233186842744
 31
0.0
  0
LINE
  5
114F
330
114B
100
AcDbEntity
  8
0
  6
ByBlock
 62
     0
440
 16777216
100
AcDbLine
 10
144.0
 20
122.1233186842744
 30
0.0
 11
153.6231088835116
 21
122.1233186842744
 31
0.0
  0
LINE
  5
1150
330
114B
100
AcDbEntity
  8
0
  6
ByBlock
 62
     0
440
 16777216
100
AcDbLine
 10
170.0
 20
122.1233186842744
 30
0.0
 11
161.3031088835116
 21
122.1233186842744
 31
0.0
  0
SOLID
  5
1151
330
114B
100
AcDbEntity
  8
0
  6
ByBlock
 62
     0
440
 16777216
100
AcDbTrace
 10
144.0
 20
122.4566520176078
 30
0.0
 11
144.0
 21
121.7899853509411
 31
0.0
 12
142.0
 22
122.1233186842744
 32
0.0
 13
142.0
 23
122.1233186842744
 33
0.0
  0
SOLID
  5
1152
330
114B
100
AcDbEntity
  8
0
  6
ByBlock
 62
     0
440
 16777216
100
AcDbTrace
 10
170.0
 20
122.4566520176078
 30
0.0
 11
170.0
 21
121.7899853509411
 31
0.0
 12
172.0
 22
122.1233186842744
 32
0.0
 13
172.0
 23
122.1233186842744
 33
0.0
  0
MTEXT
  5
1153
330
114B
100
AcDbEntity
  8
0
  6
ByBlock
 62
     0
440
 16777216
100
AcDbMText
 10
157.4631088835116
 20
122.1233186842744
 30
0.0
 40
5.0
 41
0.0
 46
0.0
 71
     5
 72
     1
  1
\A1;30
 73
     1
 44
1.0
  0
POINT
  5
1154
330
114B
100
AcDbEntity
  8
DEFPOINTS
  6
ByBlock
 62
     0
440
 16777216
100
AcDbPoint
 10
142.0
 20
103.0
 30
0.0
  0
POINT
  5
1155
330
114B
100
AcDbEntity
  8
DEFPOINTS
  6
ByBlock
 62
     0
440
 16777216
100
AcDbPoint
 10
172.0
 20
101.5
 30
0.0
  0
POINT
  5
1156
330
114B
100
AcDbEntity
  8
DEFPOINTS
  6
ByBlock
 62
     0
440
 16777216
100
AcDbPoint
 10
172.0
 20
122.1233186842744
 30
0.0
  0
ENDBLK
  5
1157
330
114B
100
AcDbEntity
  8
0
100
AcDbBlockEnd
  0
BLOCK
  5
1171
330
116E
100
AcDbEntity
  8
0
100
AcDbBlockBegin
  2
A$C56F94115
 70
     0
 10
0.0
 20
0.0
 30
0.0
  3
A$C56F94115
  1

  0
TEXT
  5
116F
330
116E
100
AcDbEntity
  8
0
100
AcDbText
 10
0.000000067757469
 20
5.999999855896305
 30
0.0
 40
5.0
  1
サハシ特殊鋼御中
 41
0.7
  7
BIGFONT
100
AcDbText
  0
TEXT
  5
1170
330
116E
100
AcDbEntity
  8
0
100
AcDbText
 10
0.000000067757469
 20
-0.0000001441036943
 30
0.0
 40
5.0
  1
西川様
 41
0.7
  7
BIGFONT
100
AcDbText
  0
ENDBLK
  5
1172
330
116E
100
AcDbEntity
  8
0
100
AcDbBlockEnd
  0
BLOCK
  5
11E7
330
11A6
100
AcDbEntity
  8
0
100
AcDbBlockBegin
  2
A$C09015F73
 70
     0
 10
0.0
 20
0.0
 30
0.0
  3
A$C09015F73
  1

  0
LINE
  5
11A7
330
11A6
100
AcDbEntity
  8
3
100
AcDbLine
 10
23.31226433173902
 20
16.00000011355189
 30
0.0
 11
33.00000004877416
 21
16.00000011355187
 31
0.0
  0
LINE
  5
11A8
330
11A6
100
AcDbEntity
  8
3
100
AcDbLine
 10
23.10000004877418
 20
12.00000011355189
 30
0.0
 11
33.00000004877416
 21
12.00000011355188
 31
0.0
  0
LINE
  5
11A9
330
11A6
100
AcDbEntity
  8
3
100
AcDbLine
 10
23.10000004877418
 20
4.000000113551877
 30
0.0
 11
33.00000004877416
 21
4.000000113551877
 31
0.0
  0
LINE
  5
11AA
330
11A6
100
AcDbEntity
  8
3
100
AcDbLine
 10
23.10000004877418
 20
0.0000001135518772
 30
0.0
 11
33.00000004877416
 21
0.0000001135518772
 31
0.0
  0
LINE
  5
11AB
330
11A6
100
AcDbEntity
  8
1
100
AcDbLine
 10
0.0000000487741545
 20
8.000000113551891
 30
0.0
 11
59.0000006145201
 21
8.000000113551877
 31
0.0
  0
ARC
  5
11AC
330
11A6
100
AcDbEntity
  8
3
100
AcDbCircle
 10
103.0500000487559
 20
8.000000113551891
 30
0.0
 40
80.04999999998176
100
AcDbArc
 50
177.13580763167
 51
182.8641923683299
  0
LINE
  5
11AD
330
11A6
100
AcDbEntity
  8
3
100
AcDbLine
 10
6.000000614520104
 20
13.00000050963035
 30
0.0
 11
6.000000614520104
 21
8.000000509630353
 31
0.0
  0
LINE
  5
11AE
330
11A6
100
AcDbEntity
  8
3
100
AcDbLine
 10
5.000000614520104
 20
12.00000050963035
 30
0.0
 11
5.000000614520104
 21
8.000000509630353
 31
0.0
  0
LINE
  5
11AF
330
11A6
100
AcDbEntity
  8
3
100
AcDbLine
 10
21.5000006145201
 20
13.00000050963035
 30
0.0
 11
21.5000006145201
 21
8.000000509630353
 31
0.0
  0
LINE
  5
11B0
330
11A6
100
AcDbEntity
  8
3
100
AcDbLine
 10
23.00000004877416
 20
8.000000113551891
 30
0.0
 11
23.00000004877416
 21
14.75000011355189
 31
0.0
  0
LINE
  5
11B1
330
11A6
100
AcDbEntity
  8
3
100
AcDbLine
 10
23.0000006145201
 20
3.000000509630339
 30
0.0
 11
6.000000614520104
 21
3.000000509630353
 31
0.0
  0
LINE
  5
11B2
330
11A6
100
AcDbEntity
  8
3
100
AcDbLine
 10
5.000000614520104
 20
4.000000509630353
 30
0.0
 11
21.5000006145201
 21
4.000000509630339
 31
0.0
  0
LINE
  5
11B3
330
11A6
100
AcDbEntity
  8
3
100
AcDbLine
 10
5.000000614520104
 20
4.000000509630353
 30
0.0
 11
5.000000614520104
 21
8.000000509630353
 31
0.0
  0
LINE
  5
11B4
330
11A6
100
AcDbEntity
  8
3
100
AcDbLine
 10
6.000000614520104
 20
3.000000509630353
 30
0.0
 11
6.000000614520104
 21
8.000000509630353
 31
0.0
  0
LINE
  5
11B5
330
11A6
100
AcDbEntity
  8
3
100
AcDbLine
 10
6.000000614520104
 20
3.000000509630353
 30
0.0
 11
5.000000614520104
 21
4.000000509630353
 31
0.0
  0
SOLID
  5
11B6
330
11A6
100
AcDbEntity
  8
0
100
AcDbTrace
 10
13.41228780782319
 20
1.633823783882689
 30
0.0
 11
14.70000004877417
 21
3.200000113551894
 31
0.0
 12
13.98984295479434
 22
1.300845561394211
 32
0.0
 13
13.98984295479434
 23
1.300845561394211
 33
0.0
1001
ACAD
1000
DSTYLE
1002
{
1070
    78
1070
     8
1070
   288
1070
     1
1070
   284
1070
     8
1070
   140
1040
5.0
1070
   340
1005
3E5
1070
    73
1070
     0
1070
   272
1070
     2
1070
    42
1040
0.5
1070
    44
1040
0.5
1070
   271
1070
     2
1070
    41
1040
2.0
1002
}
  0
ARC
  5
11B7
330
11A6
100
AcDbEntity
  8
3
100
AcDbCircle
 10
43.0500000487697
 20
2.000000113551877
 30
0.0
 40
20.04999999999555
100
AcDbArc
 50
174.2751895477752
 51
185.7248104522247
  0
LINE
  5
11B8
330
11A6
100
AcDbEntity
  8
3
100
AcDbLine
 10
23.00000004877416
 20
1.250000113551891
 30
0.0
 11
23.10000004877418
 21
0.0000001135518914
 31
0.0
  0
LINE
  5
11B9
330
11A6
100
AcDbEntity
  8
3
100
AcDbLine
 10
23.00000004877416
 20
8.000000113551891
 30
0.0
 11
23.00000004877416
 21
1.250000113551706
 31
0.0
  0
LINE
  5
11BA
330
11A6
100
AcDbEntity
  8
3
100
AcDbLine
 10
21.5000006145201
 20
3.000000509630339
 30
0.0
 11
21.5000006145201
 21
8.000000509630353
 31
0.0
  0
LINE
  5
11BB
330
11A6
100
AcDbEntity
  8
3
100
AcDbLine
 10
5.000000614520104
 20
12.00000050963035
 30
0.0
 11
21.5000006145201
 21
12.00000050963035
 31
0.0
  0
LINE
  5
11BC
330
11A6
100
AcDbEntity
  8
3
100
AcDbLine
 10
23.0000006145201
 20
13.00000050963035
 30
0.0
 11
6.000000614520104
 21
13.00000050963035
 31
0.0
  0
LINE
  5
11BD
330
11A6
100
AcDbEntity
  8
3
100
AcDbLine
 10
6.000000614520104
 20
13.00000050963035
 30
0.0
 11
5.000000614520104
 21
12.00000050963035
 31
0.0
  0
POINT
  5
11BE
330
11A6
100
AcDbEntity
  8
DEFPOINTS
  6
ByBlock
 62
     0
100
AcDbPoint
 10
5.000000614520104
 20
12.00000050963035
 30
0.0
  0
LINE
  5
11BF
330
11A6
100
AcDbEntity
  8
3
100
AcDbLine
 10
23.00000004877416
 20
14.75000011355189
 30
0.0
 11
23.31226433173902
 21
16.00000011355189
 31
0.0
  0
POINT
  5
11C0
330
11A6
100
AcDbEntity
  8
DEFPOINTS
  6
ByBlock
 62
     0
100
AcDbPoint
 10
23.10000004877418
 20
16.00000011355189
 30
0.0
  0
POINT
  5
11C1
330
11A6
100
AcDbEntity
  8
DEFPOINTS
  6
ByBlock
 62
     0
100
AcDbPoint
 10
23.00000004877416
 20
14.75000011355189
 30
0.0
  0
POINT
  5
11C2
330
11A6
100
AcDbEntity
  8
DEFPOINTS
  6
ByBlock
 62
     0
100
AcDbPoint
 10
23.00000004877416
 20
14.75000011355189
 30
0.0
  0
POINT
  5
11C3
330
11A6
100
AcDbEntity
  8
DEFPOINTS
  6
ByBlock
 62
     0
100
AcDbPoint
 10
23.00000004877416
 20
14.75000011355189
 30
0.0
  0
LINE
  5
11C4
330
11A6
100
AcDbEntity
  8
3
100
AcDbLine
 10
33.00000004877416
 20
11.90000011355188
 30
0.0
 11
53.0000006145201
 21
11.90000011355188
 31
0.0
  0
LINE
  5
11C5
330
11A6
100
AcDbEntity
  8
3
100
AcDbLine
 10
33.00000004877416
 20
4.100000113551871
 30
0.0
 11
53.0000006145201
 21
4.100000113551871
 31
0.0
  0
LINE
  5
11C6
330
11A6
100
AcDbEntity
  8
3
100
AcDbLine
 10
33.00000004877416
 20
4.100000113551871
 30
0.0
 11
53.0000006145201
 21
4.100000113551871
 31
0.0
  0
LINE
  5
11C7
330
11A6
100
AcDbEntity
  8
2
100
AcDbLine
 10
52.0000006145201
 20
6.500000509630339
 30
0.0
 11
40.0000006145201
 21
6.500000509630339
 31
0.0
  0
LINE
  5
11C8
330
11A6
100
AcDbEntity
  8
2
100
AcDbLine
 10
52.5000006145201
 20
6.000000509630339
 30
0.0
 11
46.0000006145201
 21
6.000000509630339
 31
0.0
  0
LINE
  5
11C9
330
11A6
100
AcDbEntity
  8
2
100
AcDbLine
 10
52.5000006145201
 20
10.00000050963034
 30
0.0
 11
46.0000006145201
 21
10.00000050963034
 31
0.0
  0
LINE
  5
11CA
330
11A6
100
AcDbEntity
  8
2
100
AcDbLine
 10
52.0000006145201
 20
9.500000509630339
 30
0.0
 11
40.0000006145201
 21
9.500000509630339
 31
0.0
  0
LINE
  5
11CB
330
11A6
100
AcDbEntity
  8
3
100
AcDbLine
 10
33.00000004877416
 20
8.000000113551877
 30
0.0
 11
33.00000004877416
 21
11.90000011355188
 31
0.0
  0
LINE
  5
11CC
330
11A6
100
AcDbEntity
  8
2
100
AcDbLine
 10
40.0000006145201
 20
9.500000509630339
 30
0.0
 11
40.0000006145201
 21
8.000000509630339
 31
0.0
  0
LINE
  5
11CD
330
11A6
100
AcDbEntity
  8
2
100
AcDbLine
 10
40.0000006145201
 20
9.500000509630339
 30
0.0
 11
39.0000006145201
 21
8.000000509630339
 31
0.0
  0
LINE
  5
11CE
330
11A6
100
AcDbEntity
  8
2
100
AcDbLine
 10
45.5000006145201
 20
9.500000509630339
 30
0.0
 11
45.5000006145201
 21
8.000000509630339
 31
0.0
  0
LINE
  5
11CF
330
11A6
100
AcDbEntity
  8
2
100
AcDbLine
 10
46.0000006145201
 20
10.00000050963034
 30
0.0
 11
46.0000006145201
 21
8.000000509630339
 31
0.0
  0
LINE
  5
11D0
330
11A6
100
AcDbEntity
  8
3
100
AcDbLine
 10
33.00000004877416
 20
16.00000011355187
 30
0.0
 11
33.00000004877416
 21
8.000000113551877
 31
0.0
  0
LINE
  5
11D1
330
11A6
100
AcDbEntity
  8
3
100
AcDbLine
 10
33.00000004877416
 20
0.0000001135518772
 30
0.0
 11
33.00000004877416
 21
8.000000113551877
 31
0.0
  0
LINE
  5
11D2
330
11A6
100
AcDbEntity
  8
3
100
AcDbLine
 10
33.00000004877416
 20
8.000000113551877
 30
0.0
 11
33.00000004877416
 21
4.100000113551871
 31
0.0
  0
LINE
  5
11D3
330
11A6
100
AcDbEntity
  8
2
100
AcDbLine
 10
40.0000006145201
 20
6.500000509630339
 30
0.0
 11
39.0000006145201
 21
8.000000509630339
 31
0.0
  0
LINE
  5
11D4
330
11A6
100
AcDbEntity
  8
2
100
AcDbLine
 10
40.0000006145201
 20
6.500000509630339
 30
0.0
 11
40.0000006145201
 21
8.000000509630339
 31
0.0
  0
POINT
  5
11D5
330
11A6
100
AcDbEntity
  8
DEFPOINTS
  6
ByBlock
 62
     0
100
AcDbPoint
 10
46.0000006145201
 20
6.000000509630339
 30
0.0
  0
LINE
  5
11D6
330
11A6
100
AcDbEntity
  8
2
100
AcDbLine
 10
46.0000006145201
 20
6.000000509630339
 30
0.0
 11
45.5000006145201
 21
6.500000509630339
 31
0.0
  0
LINE
  5
11D7
330
11A6
100
AcDbEntity
  8
2
100
AcDbLine
 10
46.0000006145201
 20
6.000000509630339
 30
0.0
 11
46.0000006145201
 21
8.000000509630339
 31
0.0
  0
LINE
  5
11D8
330
11A6
100
AcDbEntity
  8
2
100
AcDbLine
 10
45.5000006145201
 20
6.500000509630339
 30
0.0
 11
45.5000006145201
 21
8.000000509630339
 31
0.0
  0
POINT
  5
11D9
330
11A6
100
AcDbEntity
  8
DEFPOINTS
  6
ByBlock
 62
     0
100
AcDbPoint
 10
33.00000004877416
 20
16.00000011355187
 30
0.0
  0
POINT
  5
11DA
330
11A6
100
AcDbEntity
  8
DEFPOINTS
  6
ByBlock
 62
     0
100
AcDbPoint
 10
33.00000004877416
 20
16.00000011355187
 30
0.0
  0
LINE
  5
11DB
330
11A6
100
AcDbEntity
  8
2
100
AcDbLine
 10
46.0000006145201
 20
10.00000050963034
 30
0.0
 11
45.5000006145201
 21
9.500000509630339
 31
0.0
  0
LINE
  5
11DC
330
11A6
100
AcDbEntity
  8
2
100
AcDbLine
 10
52.0000006145201
 20
9.500000509630339
 30
0.0
 11
52.0000006145201
 21
8.000000509630339
 31
0.0
  0
LINE
  5
11DD
330
11A6
100
AcDbEntity
  8
3
100
AcDbLine
 10
53.0000006145201
 20
4.100000113551871
 30
0.0
 11
53.0000006145201
 21
11.90000011355188
 31
0.0
  0
SOLID
  5
11DE
330
11A6
100
AcDbEntity
  8
0
100
AcDbTrace
 10
53.85673505746911
 20
5.750344441079306
 30
0.0
 11
53.30000004877416
 21
7.700000113551894
 31
0.0
 12
54.45896203185509
 22
6.036293939708613
 32
0.0
 13
54.45896203185509
 23
6.036293939708613
 33
0.0
1001
ACAD
1000
DSTYLE
1002
{
1070
    78
1070
     8
1070
   288
1070
     1
1070
   284
1070
     8
1070
   140
1040
5.0
1070
   340
1005
3E5
1070
    73
1070
     0
1070
   272
1070
     2
1070
    42
1040
0.5
1070
    44
1040
0.5
1070
   271
1070
     2
1070
    41
1040
2.0
1002
}
  0
POINT
  5
11DF
330
11A6
100
AcDbEntity
  8
DEFPOINTS
  6
ByBlock
 62
     0
100
AcDbPoint
 10
53.0000006145201
 20
4.100000113551871
 30
0.0
  0
POINT
  5
11E0
330
11A6
100
AcDbEntity
  8
DEFPOINTS
  6
ByBlock
 62
     0
100
AcDbPoint
 10
53.0000006145201
 20
4.100000113551871
 30
0.0
  0
LINE
  5
11E1
330
11A6
100
AcDbEntity
  8
2
100
AcDbLine
 10
53.0000006145201
 20
5.500000509630339
 30
0.0
 11
52.0000006145201
 21
6.500000509630339
 31
0.0
  0
LINE
  5
11E2
330
11A6
100
AcDbEntity
  8
2
100
AcDbLine
 10
52.0000006145201
 20
6.500000509630339
 30
0.0
 11
52.0000006145201
 21
8.000000509630339
 31
0.0
  0
POINT
  5
11E3
330
11A6
100
AcDbEntity
  8
DEFPOINTS
  6
ByBlock
 62
     0
100
AcDbPoint
 10
53.0000006145201
 20
11.90000011355188
 30
0.0
  0
POINT
  5
11E4
330
11A6
100
AcDbEntity
  8
DEFPOINTS
  6
ByBlock
 62
     0
100
AcDbPoint
 10
53.0000006145201
 20
11.90000011355188
 30
0.0
  0
LINE
  5
11E5
330
11A6
100
AcDbEntity
  8
2
100
AcDbLine
 10
53.0000006145201
 20
10.50000050963034
 30
0.0
 11
52.0000006145201
 21
9.500000509630339
 31
0.0
  0
SOLID
  5
11E6
330
11A6
100
AcDbEntity
  8
0
100
AcDbTrace
 10
54.7097988646789
 20
13.74775273363225
 30
0.0
 11
53.40000004877416
 21
12.20000011355189
 31
0.0
 12
54.13702510595527
 22
14.08889004581324
 32
0.0
 13
54.13702510595527
 23
14.08889004581324
 33
0.0
1001
ACAD
1000
DSTYLE
1002
{
1070
    78
1070
     8
1070
   288
1070
     1
1070
   284
1070
     8
1070
   140
1040
5.0
1070
   340
1005
3E5
1070
    73
1070
     0
1070
   272
1070
     2
1070
    42
1040
0.5
1070
    44
1040
0.5
1070
   271
1070
     2
1070
    41
1040
2.0
1002
}
  0
ENDBLK
  5
11E8
330
11A6
100
AcDbEntity
  8
0
100
AcDbBlockEnd
  0
BLOCK
  5
122B
330
122A
100
AcDbEntity
  8
0
100
AcDbBlockBegin
  2
*D11
 70
     1
 10
0.0
 20
0.0
 30
0.0
  3
*D11
  1

  0
LINE
  5
122C
330
122A
100
AcDbEntity
  8
0
  6
ByBlock
 62
     0
440
 16777216
100
AcDbLine
 10
172.0
 20
125.75
 30
0.0
 11
172.0
 21
167.5
 31
0.0
  0
LINE
  5
122D
330
122A
100
AcDbEntity
  8
0
  6
ByBlock
 62
     0
440
 16777216
100
AcDbLine
 10
182.0
 20
123.0
 30
0.0
 11
182.0
 21
167.5
 31
0.0
  0
LINE
  5
122E
330
122A
100
AcDbEntity
  8
0
  6
ByBlock
 62
     0
440
 16777216
100
AcDbLine
 10
174.0
 20
166.5
 30
0.0
 11
174.4933333333333
 21
166.5
 31
0.0
  0
LINE
  5
122F
330
122A
100
AcDbEntity
  8
0
  6
ByBlock
 62
     0
440
 16777216
100
AcDbLine
 10
180.0
 20
166.5
 30
0.0
 11
179.91
 21
166.5
 31
0.0
  0
SOLID
  5
1230
330
122A
100
AcDbEntity
  8
0
  6
ByBlock
 62
     0
440
 16777216
100
AcDbTrace
 10
174.0
 20
166.8333333333333
 30
0.0
 11
174.0
 21
166.1666666666666
 31
0.0
 12
172.0
 22
166.5
 32
0.0
 13
172.0
 23
166.5
 33
0.0
  0
SOLID
  5
1231
330
122A
100
AcDbEntity
  8
0
  6
ByBlock
 62
     0
440
 16777216
100
AcDbTrace
 10
180.0
 20
166.8333333333333
 30
0.0
 11
180.0
 21
166.1666666666666
 31
0.0
 12
182.0
 22
166.5
 32
0.0
 13
182.0
 23
166.5
 33
0.0
  0
MTEXT
  5
1232
330
122A
100
AcDbEntity
  8
0
  6
ByBlock
 62
     0
440
 16777216
100
AcDbMText
 10
177.5
 20
166.5
 30
0.0
 40
5.0
 41
0.0
 46
0.0
 71
     5
 72
     1
  1
\A1;10
 73
     1
 44
1.0
  0
POINT
  5
1233
330
122A
100
AcDbEntity
  8
DEFPOINTS
  6
ByBlock
 62
     0
440
 16777216
100
AcDbPoint
 10
172.0
 20
124.75
 30
0.0
  0
POINT
  5
1234
330
122A
100
AcDbEntity
  8
DEFPOINTS
  6
ByBlock
 62
     0
440
 16777216
100
AcDbPoint
 10
182.0
 20
122.0
 30
0.0
  0
POINT
  5
1235
330
122A
100
AcDbEntity
  8
DEFPOINTS
  6
ByBlock
 62
     0
440
 16777216
100
AcDbPoint
 10
182.0
 20
166.5
 30
0.0
  0
ENDBLK
  5
1236
330
122A
100
AcDbEntity
  8
0
100
AcDbBlockEnd
  0
BLOCK
  5
1239
330
1238
100
AcDbEntity
  8
0
100
AcDbBlockBegin
  2
*D12
 70
     1
 10
0.0
 20
0.0
 30
0.0
  3
*D12
  1

  0
LINE
  5
123A
330
1238
100
AcDbEntity
  8
0
  6
ByBlock
 62
     0
440
 16777216
100
AcDbLine
 10
182.0
 20
123.0
 30
0.0
 11
182.0
 21
167.25
 31
0.0
  0
LINE
  5
123B
330
1238
100
AcDbEntity
  8
0
  6
ByBlock
 62
     0
440
 16777216
100
AcDbLine
 10
199.999999434254
 20
120.2499996039215
 30
0.0
 11
199.999999434254
 21
167.25
 31
0.0
  0
LINE
  5
123C
330
1238
100
AcDbEntity
  8
0
  6
ByBlock
 62
     0
440
 16777216
100
AcDbLine
 10
184.0
 20
166.25
 30
0.0
 11
188.3266666666666
 21
166.25
 31
0.0
  0
LINE
  5
123D
330
1238
100
AcDbEntity
  8
0
  6
ByBlock
 62
     0
440
 16777216
100
AcDbLine
 10
197.999999434254
 20
166.25
 30
0.0
 11
195.1733333333333
 21
166.25
 31
0.0
  0
SOLID
  5
123E
330
1238
100
AcDbEntity
  8
0
  6
ByBlock
 62
     0
440
 16777216
100
AcDbTrace
 10
184.0
 20
166.5833333333333
 30
0.0
 11
184.0
 21
165.9166666666666
 31
0.0
 12
182.0
 22
166.25
 32
0.0
 13
182.0
 23
166.25
 33
0.0
  0
SOLID
  5
123F
330
1238
100
AcDbEntity
  8
0
  6
ByBlock
 62
     0
440
 16777216
100
AcDbTrace
 10
197.999999434254
 20
166.5833333333333
 30
0.0
 11
197.999999434254
 21
165.9166666666666
 31
0.0
 12
199.999999434254
 22
166.25
 32
0.0
 13
199.999999434254
 23
166.25
 33
0.0
  0
MTEXT
  5
1240
330
1238
100
AcDbEntity
  8
0
  6
ByBlock
 62
     0
440
 16777216
100
AcDbMText
 10
191.75
 20
166.25
 30
0.0
 40
5.0
 41
0.0
 46
0.0
 71
     5
 72
     1
  1
\A1;18
 73
     1
 44
1.0
  0
POINT
  5
1241
330
1238
100
AcDbEntity
  8
DEFPOINTS
  6
ByBlock
 62
     0
440
 16777216
100
AcDbPoint
 10
182.0
 20
122.0
 30
0.0
  0
POINT
  5
1242
330
1238
100
AcDbEntity
  8
DEFPOINTS
  6
ByBlock
 62
     0
440
 16777216
100
AcDbPoint
 10
199.999999434254
 20
119.2499996039215
 30
0.0
  0
POINT
  5
1243
330
1238
100
AcDbEntity
  8
DEFPOINTS
  6
ByBlock
 62
     0
440
 16777216
100
AcDbPoint
 10
199.999999434254
 20
166.25
 30
0.0
  0
ENDBLK
  5
1244
330
1238
100
AcDbEntity
  8
0
100
AcDbBlockEnd
  0
BLOCK
  5
1247
330
1246
100
AcDbEntity
  8
0
100
AcDbBlockBegin
  2
*D13
 70
     1
 10
0.0
 20
0.0
 30
0.0
  3
*D13
  1

  0
LINE
  5
1248
330
1246
100
AcDbEntity
  8
0
  6
ByBlock
 62
     0
440
 16777216
100
AcDbLine
 10
102.0
 20
116.25
 30
0.0
 11
102.0
 21
176.0
 31
0.0
  0
LINE
  5
1249
330
1246
100
AcDbEntity
  8
0
  6
ByBlock
 62
     0
440
 16777216
100
AcDbLine
 10
199.999999434254
 20
120.2499996039215
 30
0.0
 11
199.999999434254
 21
176.0
 31
0.0
  0
LINE
  5
124A
330
1246
100
AcDbEntity
  8
0
  6
ByBlock
 62
     0
440
 16777216
100
AcDbLine
 10
104.0
 20
175.0
 30
0.0
 11
150.7433333333333
 21
175.0
 31
0.0
  0
LINE
  5
124B
330
1246
100
AcDbEntity
  8
0
  6
ByBlock
 62
     0
440
 16777216
100
AcDbLine
 10
197.999999434254
 20
175.0
 30
0.0
 11
159.2566666666666
 21
175.0
 31
0.0
  0
SOLID
  5
124C
330
1246
100
AcDbEntity
  8
0
  6
ByBlock
 62
     0
440
 16777216
100
AcDbTrace
 10
104.0
 20
175.3333333333333
 30
0.0
 11
104.0
 21
174.6666666666666
 31
0.0
 12
102.0
 22
175.0
 32
0.0
 13
102.0
 23
175.0
 33
0.0
  0
SOLID
  5
124D
330
1246
100
AcDbEntity
  8
0
  6
ByBlock
 62
     0
440
 16777216
100
AcDbTrace
 10
197.999999434254
 20
175.3333333333333
 30
0.0
 11
197.999999434254
 21
174.6666666666666
 31
0.0
 12
199.999999434254
 22
175.0
 32
0.0
 13
199.999999434254
 23
175.0
 33
0.0
  0
MTEXT
  5
124E
330
1246
100
AcDbEntity
  8
0
  6
ByBlock
 62
     0
440
 16777216
100
AcDbMText
 10
155.0
 20
175.0
 30
0.0
 40
5.0
 41
0.0
 46
0.0
 71
     5
 72
     1
  1
\A1;98
 73
     1
 44
1.0
  0
POINT
  5
124F
330
1246
100
AcDbEntity
  8
DEFPOINTS
  6
ByBlock
 62
     0
440
 16777216
100
AcDbPoint
 10
102.0
 20
115.25
 30
0.0
  0
POINT
  5
1250
330
1246
100
AcDbEntity
  8
DEFPOINTS
  6
ByBlock
 62
     0
440
 16777216
100
AcDbPoint
 10
199.999999434254
 20
119.2499996039215
 30
0.0
  0
POINT
  5
1251
330
1246
100
AcDbEntity
  8
DEFPOINTS
  6
ByBlock
 62
     0
440
 16777216
100
AcDbPoint
 10
199.999999434254
 20
175.0
 30
0.0
  0
ENDBLK
  5
1252
330
1246
100
AcDbEntity
  8
0
100
AcDbBlockEnd
  0
BLOCK
  5
1294
330
1293
100
AcDbEntity
  8
0
100
AcDbBlockBegin
  2
*D14
 70
     1
 10
0.0
 20
0.0
 30
0.0
  3
*D14
  1

  0
LINE
  5
1295
330
1293
100
AcDbEntity
  8
0
  6
ByBlock
 62
     0
440
 16777216
100
AcDbLine
 10
106.0
 20
126.25
 30
0.0
 11
83.50000000000001
 21
126.25
 31
0.0
  0
LINE
  5
1296
330
1293
100
AcDbEntity
  8
0
  6
ByBlock
 62
     0
440
 16777216
100
AcDbLine
 10
106.0
 20
104.25
 30
0.0
 11
83.49999999999999
 21
104.25
 31
0.0
  0
LINE
  5
1297
330
1293
100
AcDbEntity
  8
0
  6
ByBlock
 62
     0
440
 16777216
100
AcDbLine
 10
84.50000000000001
 20
124.25
 30
0.0
 11
84.50000000000001
 21
119.5066666666666
 31
0.0
  0
LINE
  5
1298
330
1293
100
AcDbEntity
  8
0
  6
ByBlock
 62
     0
440
 16777216
100
AcDbLine
 10
84.50000000000001
 20
106.25
 30
0.0
 11
84.50000000000001
 21
110.9933333333333
 31
0.0
  0
SOLID
  5
1299
330
1293
100
AcDbEntity
  8
0
  6
ByBlock
 62
     0
440
 16777216
100
AcDbTrace
 10
84.16666666666669
 20
124.25
 30
0.0
 11
84.83333333333334
 21
124.25
 31
0.0
 12
84.50000000000001
 22
126.25
 32
0.0
 13
84.50000000000001
 23
126.25
 33
0.0
  0
SOLID
  5
129A
330
1293
100
AcDbEntity
  8
0
  6
ByBlock
 62
     0
440
 16777216
100
AcDbTrace
 10
84.16666666666667
 20
106.25
 30
0.0
 11
84.83333333333332
 21
106.25
 31
0.0
 12
84.50000000000001
 22
104.25
 32
0.0
 13
84.50000000000001
 23
104.25
 33
0.0
  0
MTEXT
  5
129B
330
1293
100
AcDbEntity
  8
0
  6
ByBlock
 62
     0
440
 16777216
100
AcDbMText
 10
84.50000000000001
 20
115.25
 30
0.0
 40
5.0
 41
0.0
 46
0.0
 71
     5
 72
     1
  1
\A1;22
 11
0.0000000000000001
 21
1.0
 31
0.0
 73
     1
 44
1.0
  0
POINT
  5
129C
330
1293
100
AcDbEntity
  8
DEFPOINTS
  6
ByBlock
 62
     0
440
 16777216
100
AcDbPoint
 10
107.0
 20
126.25
 30
0.0
  0
POINT
  5
129D
330
1293
100
AcDbEntity
  8
DEFPOINTS
  6
ByBlock
 62
     0
440
 16777216
100
AcDbPoint
 10
107.0
 20
104.25
 30
0.0
  0
POINT
  5
129E
330
1293
100
AcDbEntity
  8
DEFPOINTS
  6
ByBlock
 62
     0
440
 16777216
100
AcDbPoint
 10
84.50000000000001
 20
104.25
 30
0.0
  0
ENDBLK
  5
129F
330
1293
100
AcDbEntity
  8
0
100
AcDbBlockEnd
  0
BLOCK
  5
12A2
330
12A1
100
AcDbEntity
  8
0
100
AcDbBlockBegin
  2
*D15
 70
     1
 10
0.0
 20
0.0
 30
0.0
  3
*D15
  1

  0
LINE
  5
12A3
330
12A1
100
AcDbEntity
  8
0
  6
ByBlock
 62
     0
440
 16777216
100
AcDbLine
 10
107.0
 20
127.25
 30
0.0
 11
107.0
 21
146.75
 31
0.0
  0
LINE
  5
12A4
330
12A1
100
AcDbEntity
  8
0
  6
ByBlock
 62
     0
440
 16777216
100
AcDbLine
 10
142.0
 20
127.25
 30
0.0
 11
142.0
 21
146.75
 31
0.0
  0
LINE
  5
12A5
330
12A1
100
AcDbEntity
  8
0
  6
ByBlock
 62
     0
440
 16777216
100
AcDbLine
 10
109.0
 20
145.75
 30
0.0
 11
121.9933333333333
 21
145.75
 31
0.0
  0
LINE
  5
12A6
330
12A1
100
AcDbEntity
  8
0
  6
ByBlock
 62
     0
440
 16777216
100
AcDbLine
 10
140.0
 20
145.75
 30
0.0
 11
130.5066666666666
 21
145.75
 31
0.0
  0
SOLID
  5
12A7
330
12A1
100
AcDbEntity
  8
0
  6
ByBlock
 62
     0
440
 16777216
100
AcDbTrace
 10
109.0
 20
146.0833333333333
 30
0.0
 11
109.0
 21
145.4166666666666
 31
0.0
 12
107.0
 22
145.75
 32
0.0
 13
107.0
 23
145.75
 33
0.0
  0
SOLID
  5
12A8
330
12A1
100
AcDbEntity
  8
0
  6
ByBlock
 62
     0
440
 16777216
100
AcDbTrace
 10
140.0
 20
146.0833333333333
 30
0.0
 11
140.0
 21
145.4166666666666
 31
0.0
 12
142.0
 22
145.75
 32
0.0
 13
142.0
 23
145.75
 33
0.0
  0
MTEXT
  5
12A9
330
12A1
100
AcDbEntity
  8
0
  6
ByBlock
 62
     0
440
 16777216
100
AcDbMText
 10
126.25
 20
145.75
 30
0.0
 40
5.0
 41
0.0
 46
0.0
 71
     5
 72
     1
  1
\A1;35
 73
     1
 44
1.0
  0
POINT
  5
12AA
330
12A1
100
AcDbEntity
  8
DEFPOINTS
  6
ByBlock
 62
     0
440
 16777216
100
AcDbPoint
 10
107.0
 20
126.25
 30
0.0
  0
POINT
  5
12AB
330
12A1
100
AcDbEntity
  8
DEFPOINTS
  6
ByBlock
 62
     0
440
 16777216
100
AcDbPoint
 10
142.0
 20
126.25
 30
0.0
  0
POINT
  5
12AC
330
12A1
100
AcDbEntity
  8
DEFPOINTS
  6
ByBlock
 62
     0
440
 16777216
100
AcDbPoint
 10
142.0
 20
145.75
 30
0.0
  0
ENDBLK
  5
12AD
330
12A1
100
AcDbEntity
  8
0
100
AcDbBlockEnd
  0
BLOCK
  5
12B0
330
12AF
100
AcDbEntity
  8
0
100
AcDbBlockBegin
  2
*D16
 70
     1
 10
0.0
 20
0.0
 30
0.0
  3
*D16
  1

  0
LINE
  5
12B1
330
12AF
100
AcDbEntity
  8
0
  6
ByBlock
 62
     0
440
 16777216
100
AcDbLine
 10
102.0
 20
122.25
 30
0.0
 11
102.0
 21
157.0
 31
0.0
  0
LINE
  5
12B2
330
12AF
100
AcDbEntity
  8
0
  6
ByBlock
 62
     0
440
 16777216
100
AcDbLine
 10
107.0
 20
127.25
 30
0.0
 11
107.0
 21
157.0
 31
0.0
  0
LINE
  5
12B3
330
12AF
100
AcDbEntity
  8
0
  6
ByBlock
 62
     0
440
 16777216
100
AcDbLine
 10
104.0
 20
156.0
 30
0.0
 11
105.0
 21
156.0
 31
0.0
  0
LINE
  5
12B4
330
12AF
100
AcDbEntity
  8
0
  6
ByBlock
 62
     0
440
 16777216
100
AcDbLine
 10
107.0
 20
156.0
 30
0.0
 11
111.2433333333333
 21
156.0
 31
0.0
  0
SOLID
  5
12B5
330
12AF
100
AcDbEntity
  8
0
  6
ByBlock
 62
     0
440
 16777216
100
AcDbTrace
 10
104.0
 20
156.3333333333333
 30
0.0
 11
104.0
 21
155.6666666666666
 31
0.0
 12
102.0
 22
156.0
 32
0.0
 13
102.0
 23
156.0
 33
0.0
  0
SOLID
  5
12B6
330
12AF
100
AcDbEntity
  8
0
  6
ByBlock
 62
     0
440
 16777216
100
AcDbTrace
 10
105.0
 20
156.3333333333333
 30
0.0
 11
105.0
 21
155.6666666666666
 31
0.0
 12
107.0
 22
156.0
 32
0.0
 13
107.0
 23
156.0
 33
0.0
  0
MTEXT
  5
12B7
330
12AF
100
AcDbEntity
  8
0
  6
ByBlock
 62
     0
440
 16777216
100
AcDbMText
 10
113.0
 20
156.0
 30
0.0
 40
5.0
 41
0.0
 46
0.0
 71
     5
 72
     1
  1
\A1;5
 73
     1
 44
1.0
  0
POINT
  5
12B8
330
12AF
100
AcDbEntity
  8
DEFPOINTS
  6
ByBlock
 62
     0
440
 16777216
100
AcDbPoint
 10
102.0
 20
121.25
 30
0.0
  0
POINT
  5
12B9
330
12AF
100
AcDbEntity
  8
DEFPOINTS
  6
ByBlock
 62
     0
440
 16777216
100
AcDbPoint
 10
107.0
 20
126.25
 30
0.0
  0
POINT
  5
12BA
330
12AF
100
AcDbEntity
  8
DEFPOINTS
  6
ByBlock
 62
     0
440
 16777216
100
AcDbPoint
 10
107.0
 20
156.0
 30
0.0
  0
ENDBLK
  5
12BB
330
12AF
100
AcDbEntity
  8
0
100
AcDbBlockEnd
  0
BLOCK
  5
1304
330
1303
100
AcDbEntity
  8
0
100
AcDbBlockBegin
  2
*D17
 70
     1
 10
0.0
 20
0.0
 30
0.0
  3
*D17
  1

  0
LINE
  5
1305
330
1303
100
AcDbEntity
  8
0
  6
ByBlock
 62
     0
440
 16777216
100
AcDbLine
 10
173.0
 20
123.75
 30
0.0
 11
225.8473327271739
 21
123.75
 31
0.0
  0
LINE
  5
1306
330
1303
100
AcDbEntity
  8
0
  6
ByBlock
 62
     0
440
 16777216
100
AcDbLine
 10
173.0
 20
106.75
 30
0.0
 11
225.8473327271739
 21
106.75
 31
0.0
  0
LINE
  5
1307
330
1303
100
AcDbEntity
  8
0
  6
ByBlock
 62
     0
440
 16777216
100
AcDbLine
 10
224.8473327271739
 20
121.75
 30
0.0
 11
224.8473327271739
 21
119.1942360251226
 31
0.0
  0
LINE
  5
1308
330
1303
100
AcDbEntity
  8
0
  6
ByBlock
 62
     0
440
 16777216
100
AcDbLine
 10
224.8473327271739
 20
108.75
 30
0.0
 11
224.8473327271739
 21
112.3475693584559
 31
0.0
  0
SOLID
  5
1309
330
1303
100
AcDbEntity
  8
0
  6
ByBlock
 62
     0
440
 16777216
100
AcDbTrace
 10
224.5139993938406
 20
121.75
 30
0.0
 11
225.1806660605073
 21
121.75
 31
0.0
 12
224.8473327271739
 22
123.75
 32
0.0
 13
224.8473327271739
 23
123.75
 33
0.0
  0
SOLID
  5
130A
330
1303
100
AcDbEntity
  8
0
  6
ByBlock
 62
     0
440
 16777216
100
AcDbTrace
 10
224.5139993938406
 20
108.75
 30
0.0
 11
225.1806660605073
 21
108.75
 31
0.0
 12
224.8473327271739
 22
106.75
 32
0.0
 13
224.8473327271739
 23
106.75
 33
0.0
  0
MTEXT
  5
130B
330
1303
100
AcDbEntity
  8
0
  6
ByBlock
 62
     0
440
 16777216
100
AcDbMText
 10
224.8473327271739
 20
115.7709026917892
 30
0.0
 40
5.0
 41
0.0
 46
0.0
 71
     5
 72
     1
  1
\A1;17
 11
0.0000000000000001
 21
1.0
 31
0.0
 73
     1
 44
1.0
  0
POINT
  5
130C
330
1303
100
AcDbEntity
  8
DEFPOINTS
  6
ByBlock
 62
     0
440
 16777216
100
AcDbPoint
 10
172.0
 20
123.75
 30
0.0
  0
POINT
  5
130D
330
1303
100
AcDbEntity
  8
DEFPOINTS
  6
ByBlock
 62
     0
440
 16777216
100
AcDbPoint
 10
172.0
 20
106.75
 30
0.0
  0
POINT
  5
130E
330
1303
100
AcDbEntity
  8
DEFPOINTS
  6
ByBlock
 62
     0
440
 16777216
100
AcDbPoint
 10
224.8473327271739
 20
106.75
 30
0.0
  0
ENDBLK
  5
130F
330
1303
100
AcDbEntity
  8
0
100
AcDbBlockEnd
  0
BLOCK
  5
1313
330
1312
100
AcDbEntity
  8
0
100
AcDbBlockBegin
  2
*D18
 70
     1
 10
0.0
 20
0.0
 30
0.0
  3
*D18
  1

  0
LINE
  5
1314
330
1312
100
AcDbEntity
  8
0
  6
ByBlock
 62
     0
440
 16777216
100
AcDbLine
 10
181.75
 20
123.75
 30
0.0
 11
181.75
 21
155.9135840919011
 31
0.0
  0
LINE
  5
1315
330
1312
100
AcDbEntity
  8
0
  6
ByBlock
 62
     0
440
 16777216
100
AcDbLine
 10
182.0
 20
122.0000000000004
 30
0.0
 11
182.0
 21
155.9135840919011
 31
0.0
  0
LINE
  5
1316
330
1312
100
AcDbEntity
  8
0
  6
ByBlock
 62
     0
440
 16777216
100
AcDbLine
 10
184.0
 20
154.9135840919011
 30
0.0
 11
186.0
 21
154.9135840919011
 31
0.0
  0
LINE
  5
1317
330
1312
100
AcDbEntity
  8
0
  6
ByBlock
 62
     0
440
 16777216
100
AcDbLine
 10
179.75
 20
154.9135840919011
 30
0.0
 11
167.1625730321016
 21
154.9135840919011
 31
0.0
  0
SOLID
  5
1318
330
1312
100
AcDbEntity
  8
0
  6
ByBlock
 62
     0
440
 16777216
100
AcDbTrace
 10
184.0
 20
155.2469174252345
 30
0.0
 11
184.0
 21
154.5802507585678
 31
0.0
 12
182.0
 22
154.9135840919011
 32
0.0
 13
182.0
 23
154.9135840919011
 33
0.0
  0
SOLID
  5
1319
330
1312
100
AcDbEntity
  8
0
  6
ByBlock
 62
     0
440
 16777216
100
AcDbTrace
 10
179.75
 20
155.2469174252345
 30
0.0
 11
179.75
 21
154.5802507585678
 31
0.0
 12
181.75
 22
154.9135840919011
 32
0.0
 13
181.75
 23
154.9135840919011
 33
0.0
  0
MTEXT
  5
131A
330
1312
100
AcDbEntity
  8
0
  6
ByBlock
 62
     0
440
 16777216
100
AcDbMText
 10
159.9892396987683
 20
154.9135840919011
 30
0.0
 40
5.0
 41
0.0
 46
0.0
 71
     5
 72
     1
  1
\A1;0.25
 73
     1
 44
1.0
  0
POINT
  5
131B
330
1312
100
AcDbEntity
  8
DEFPOINTS
  6
ByBlock
 62
     0
440
 16777216
100
AcDbPoint
 10
181.75
 20
122.75
 30
0.0
  0
POINT
  5
131C
330
1312
100
AcDbEntity
  8
DEFPOINTS
  6
ByBlock
 62
     0
440
 16777216
100
AcDbPoint
 10
182.0
 20
121.0000000000004
 30
0.0
  0
POINT
  5
131D
330
1312
100
AcDbEntity
  8
DEFPOINTS
  6
ByBlock
 62
     0
440
 16777216
100
AcDbPoint
 10
182.0
 20
154.9135840919011
 30
0.0
  0
ENDBLK
  5
131E
330
1312
100
AcDbEntity
  8
0
100
AcDbBlockEnd
  0
BLOCK
  5
13ED
330
13EC
100
AcDbEntity
  8
0
100
AcDbBlockBegin
  2
*U19
 70
     1
 10
0.0
 20
0.0
 30
0.0
  3
*U19
  1

  0
ENDBLK
  5
13EE
330
13EC
100
AcDbEntity
  8
0
100
AcDbBlockEnd
  0
BLOCK
  5
142A
330
1428
100
AcDbEntity
  8
0
100
AcDbBlockBegin
  2
GENAXEH
 70
     0
 10
0.0
 20
0.0
 30
0.0
  3
GENAXEH
  1

  0
LINE
  5
1429
330
1428
100
AcDbEntity
  8
0
100
AcDbLine
 10
-1.0
 20
0.0
 30
0.0
 11
1.0
 21
0.0
 31
0.0
  0
ENDBLK
  5
142B
330
1428
100
AcDbEntity
  8
0
100
AcDbBlockEnd
  0
BLOCK
  5
14D9
330
14CE
100
AcDbEntity
  8
0
100
AcDbBlockBegin
  2
*D21
 70
     1
 10
0.0
 20
0.0
 30
0.0
  3
*D21
  1

  0
LINE
  5
14CF
330
14CE
100
AcDbEntity
  8
0
 62
     0
440
 16777216
370
    -2
100
AcDbLine
 10
257.2548094716168
 20
120.0
 30
0.0
 11
257.2548094716168
 21
143.8482112503965
 31
0.0
  0
LINE
  5
14D0
330
14CE
100
AcDbEntity
  8
0
 62
     0
440
 16777216
370
    -2
100
AcDbLine
 10
270.2451905283833
 20
120.0
 30
0.0
 11
270.2451905283833
 21
143.8482112503965
 31
0.0
  0
LINE
  5
14D1
330
14CE
100
AcDbEntity
  8
0
 62
     0
440
 16777216
370
    -2
100
AcDbLine
 10
259.2548094716168
 20
142.8482112503965
 30
0.0
 11
260.0825355734301
 21
142.8482112503965
 31
0.0
  0
LINE
  5
14D2
330
14CE
100
AcDbEntity
  8
0
 62
     0
440
 16777216
370
    -2
100
AcDbLine
 10
268.2451905283833
 20
142.8482112503965
 30
0.0
 11
266.9292022400968
 21
142.8482112503965
 31
0.0
  0
SOLID
  5
14D3
330
14CE
100
AcDbEntity
  8
0
 62
     0
440
 16777216
100
AcDbTrace
 10
259.2548094716168
 20
143.1815445837298
 30
0.0
 11
259.2548094716168
 21
142.5148779170632
 31
0.0
 12
257.2548094716168
 22
142.8482112503965
 32
0.0
 13
257.2548094716168
 23
142.8482112503965
 33
0.0
  0
SOLID
  5
14D4
330
14CE
100
AcDbEntity
  8
0
 62
     0
440
 16777216
100
AcDbTrace
 10
268.2451905283833
 20
143.1815445837298
 30
0.0
 11
268.2451905283833
 21
142.5148779170632
 31
0.0
 12
270.2451905283833
 22
142.8482112503965
 32
0.0
 13
270.2451905283833
 23
142.8482112503965
 33
0.0
  0
MTEXT
  5
14D5
330
14CE
100
AcDbEntity
  8
0
 62
     0
440
 16777216
100
AcDbMText
 10
263.5058689067634
 20
142.8482112503965
 30
0.0
 40
5.0
 41
0.0
 46
0.0
 71
     5
 72
     1
  1
\A1;13
 73
     1
 44
1.0
  0
POINT
  5
14D6
330
14CE
100
AcDbEntity
  8
DEFPOINTS
 62
     0
440
 16777216
100
AcDbPoint
 10
257.2548094716168
 20
119.0
 30
0.0
  0
POINT
  5
14D7
330
14CE
100
AcDbEntity
  8
DEFPOINTS
 62
     0
440
 16777216
100
AcDbPoint
 10
270.2451905283833
 20
119.0
 30
0.0
  0
POINT
  5
14D8
330
14CE
100
AcDbEntity
  8
DEFPOINTS
 62
     0
440
 16777216
100
AcDbPoint
 10
270.2451905283833
 20
142.8482112503965
 30
0.0
  0
ENDBLK
  5
14DA
330
14CE
100
AcDbEntity
  8
0
100
AcDbBlockEnd
  0
ENDSEC
  0
SECTION
  2
ENTITIES
  0
INSERT
  5
F8
330
3DD
100
AcDbEntity
  8
ASHADE
 62
     1
100
AcDbBlockReference
  2
AVE_RENDER
 10
0.0
 20
0.0
 30
0.0
1001
AVE_RENDER
1002
{
1070
     2
1000
Pref
1070
    30
1070
    20
1070
     0
1070
     0
1000

1070
    10
1070
     0
1070
    30
1040
1.0
1070
     1
1040
0.3
1040
0.7
1040
0.0
1040
10.0
1010
-1.0
1020
-1.0
1030
-1.0
1040
0.3
1070
    49
1002
}
  0
INSERT
  5
F9
330
3DD
100
AcDbEntity
  8
ASHADE
 62
     3
100
AcDbBlockReference
  2
AVE_RENDER
 10
0.0
 20
0.0
 30
0.0
1001
AVE_RENDER
1002
{
1070
     0
1000
Full Opt
1070
     0
1070
     1
1070
     1
1070
     1
1070
     0
1070
     0
1070
     0
1070
     1
1070
     1
1040
0.0001
1040
0.0001
1002
}
  0
INSERT
  5
FA
330
3DD
100
AcDbEntity
  8
ASHADE
 62
     4
100
AcDbBlockReference
  2
AVE_RENDER
 10
0.0
 20
0.0
 30
0.0
1001
AVE_RENDER
1002
{
1070
     0
1000
Quick Opt
1070
     0
1070
     1
1070
     1
1070
     1
1070
     0
1070
     0
1070
     1
1002
}
  0
HATCH
  5
5CF
330
3DD
100
AcDbEntity
  8
0
100
AcDbHatch
 10
0.0
 20
0.0
 30
0.0
210
0.0
220
0.0
230
1.0
  2
ANSI31
 70
     0
 71
     0
 91
        1
 92
        7
 72
     1
 73
     1
 93
       17
 10
75.0
 20
200.0
 42
0.0
 10
55.0
 20
200.0
 42
0.0
 10
55.0
 20
117.5
 42
0.4142135623730951
 10
94.99999999999998
 20
77.5
 42
0.0
 10
145.0
 20
77.5
 42
0.0
 10
145.0
 20
83.49999999999999
 42
0.0
 10
125.0
 20
83.49999999999999
 42
0.0
 10
124.0
 20
84.50000000000001
 42
0.0
 10
119.5
 20
84.50000000000001
 42
0.0
 10
117.5
 20
87.5
 42
0.0
 10
119.5
 20
90.5
 42
0.0
 10
124.0
 20
90.5
 42
0.0
 10
125.0
 20
91.5
 42
0.0
 10
145.0
 20
91.5
 42
0.0
 10
145.0
 20
97.5
 42
0.0
 10
95.0
 20
97.5
 42
-0.4142135623730951
 10
75.0
 20
117.5
 42
0.0
 97
        0
 75
     0
 76
     1
 52
0.0
 41
10.0
 77
     0
 78
     1
 53
45.0
 43
0.0
 44
0.0
 45
-0.8838834764831842
 46
0.8838834764831844
 79
     0
 47
0.7134217593793722
 98
        1
 10
64.7057467960924
 20
135.6670421168493
  0
HATCH
  5
5D0
330
3DD
100
AcDbEntity
  8
0
100
AcDbHatch
 10
0.0
 20
0.0
 30
0.0
210
0.0
220
0.0
230
1.0
  2
ANSI31
 70
     0
 71
     0
 91
        1
 92
       33
 93
        8
 72
     1
 10
97.5
 20
215.0
 11
180.0
 21
214.9999999999999
 72
     1
 10
180.0
 20
235.0
 11
97.5
 21
235.0
 72
     1
 10
180.0
 20
250.0
 11
180.0
 21
134.1257556813811
 72
     2
 10
97.5
 20
195.0
 40
20.0
 50
89.99999999999998
 51
180.0
 73
     1
 72
     2
 10
97.5
 20
195.0
 40
40.0
 50
89.99999999999998
 51
180.0
 73
     1
 72
     1
 10
77.5
 20
145.0
 11
77.50000000000001
 21
195.0
 72
     1
 10
57.50000000000001
 20
195.0
 11
57.5
 21
145.0
 72
     1
 10
57.5
 20
145.0
 11
77.5
 21
145.0
 97
        0
 75
     0
 76
     1
 52
0.0
 41
10.0
 77
     0
 78
     1
 53
45.0
 43
0.0
 44
0.0
 45
-0.8838834764831842
 46
0.8838834764831844
 79
     0
 98
        1
 10
0.0
 20
0.0
  0
HATCH
  5
877
330
3DD
100
AcDbEntity
  8
0
100
AcDbHatch
 10
0.0
 20
0.0
 30
0.0
210
0.0
220
0.0
230
1.0
  2
ANSI31
 70
     0
 71
     0
 91
        1
 92
        7
 72
     0
 73
     1
 93
        4
 10
101.251930523932
 20
42.71294603097522
 10
90.00000000000001
 20
42.71294603097522
 10
90.00000000000001
 20
37.28470952323141
 10
101.251930523932
 20
37.28470952323141
 97
        0
 75
     0
 76
     1
 52
0.0
 41
10.0
 77
     0
 78
     1
 53
45.0
 43
0.0
 44
0.0
 45
-0.8838834764831842
 46
0.8838834764831844
 79
     0
 47
0.0864940965506125
 98
        1
 10
97.0
 20
40.0
  0
HATCH
  5
87C
330
3DD
100
AcDbEntity
  8
0
100
AcDbHatch
 10
0.0
 20
0.0
 30
0.0
210
0.0
220
0.0
230
1.0
  2
ANSI31
 70
     0
 71
     0
 91
        1
 92
        7
 72
     0
 73
     1
 93
        4
 10
101.251930523932
 20
42.71294603097522
 10
90.00000000000001
 20
42.71294603097522
 10
90.00000000000001
 20
37.28470952323141
 10
101.251930523932
 20
37.28470952323141
 97
        0
 75
     0
 76
     1
 52
0.0
 41
10.0
 77
     0
 78
     1
 53
45.0
 43
0.0
 44
0.0
 45
-0.8838834764831842
 46
0.8838834764831844
 79
     0
 47
0.0864940965506125
 98
        1
 10
97.17517732876695
 20
38.29209394140628
  0
LINE
  5
10C0
330
3DD
100
AcDbEntity
  8
1
100
AcDbLine
 10
175.25
 20
115.25
 30
0.0
 11
98.25000000000001
 21
115.25
 31
0.0
  0
LINE
  5
10C5
330
3DD
100
AcDbEntity
  8
3
100
AcDbLine
 10
172.0
 20
106.75
 30
0.0
 11
172.0
 21
115.25
 31
0.0
  0
LINE
  5
10CF
330
3DD
100
AcDbEntity
  8
3
100
AcDbLine
 10
142.0
 20
104.25
 30
0.0
 11
142.0
 21
115.25
 31
0.0
  0
LINE
  5
10D7
330
3DD
100
AcDbEntity
  8
1
100
AcDbLine
 10
244.75
 20
115.25
 30
0.0
 11
283.25
 21
115.25
 31
0.0
  0
LINE
  5
10D8
330
3DD
100
AcDbEntity
  8
1
100
AcDbLine
 10
263.75
 20
133.25
 30
0.0
 11
263.75
 21
97.25000000000001
 31
0.0
  0
CIRCLE
  5
10D9
330
3DD
100
AcDbEntity
  8
3
100
AcDbCircle
 10
263.75
 20
115.25
 30
0.0
 40
11.0
  0
CIRCLE
  5
10DD
330
3DD
100
AcDbEntity
  8
3
100
AcDbCircle
 10
41.5
 20
115.25
 30
0.0
 40
11.0
  0
LINE
  5
10DE
330
3DD
100
AcDbEntity
  8
1
100
AcDbLine
 10
41.5
 20
133.25
 30
0.0
 11
41.5
 21
97.25000000000001
 31
0.0
  0
LINE
  5
10DF
330
3DD
100
AcDbEntity
  8
1
100
AcDbLine
 10
22.5
 20
115.25
 30
0.0
 11
61.0
 21
115.25
 31
0.0
  0
LINE
  5
11EE
330
3DD
100
AcDbEntity
  8
1
100
AcDbLine
 10
205.0
 20
115.25
 30
0.0
 11
145.999999434254
 21
115.25
 31
0.0
  0
ARC
  5
11EF
330
3DD
100
AcDbEntity
  8
3
100
AcDbCircle
 10
101.9500000000182
 20
115.25
 30
0.0
 40
80.04999999998176
100
AcDbArc
 50
357.13580763167
 51
2.864192368329883
  0
LINE
  5
11F0
330
3DD
100
AcDbEntity
  8
3
100
AcDbLine
 10
198.999999434254
 20
110.2499996039215
 30
0.0
 11
198.999999434254
 21
115.2499996039215
 31
0.0
  0
LINE
  5
11F1
330
3DD
100
AcDbEntity
  8
3
100
AcDbLine
 10
199.999999434254
 20
111.2499996039215
 30
0.0
 11
199.999999434254
 21
115.2499996039215
 31
0.0
  0
LINE
  5
11F2
330
3DD
100
AcDbEntity
  8
3
100
AcDbLine
 10
183.499999434254
 20
110.2499996039215
 30
0.0
 11
183.499999434254
 21
115.2499996039215
 31
0.0
  0
LINE
  5
11F4
330
3DD
100
AcDbEntity
  8
3
100
AcDbLine
 10
181.999999434254
 20
120.2499996039215
 30
0.0
 11
198.999999434254
 21
120.2499996039215
 31
0.0
  0
LINE
  5
11F5
330
3DD
100
AcDbEntity
  8
3
100
AcDbLine
 10
199.999999434254
 20
119.2499996039215
 30
0.0
 11
183.499999434254
 21
119.2499996039215
 31
0.0
  0
LINE
  5
11F6
330
3DD
100
AcDbEntity
  8
3
100
AcDbLine
 10
199.999999434254
 20
119.2499996039215
 30
0.0
 11
199.999999434254
 21
115.2499996039215
 31
0.0
  0
LINE
  5
11F7
330
3DD
100
AcDbEntity
  8
3
100
AcDbLine
 10
198.999999434254
 20
120.2499996039215
 30
0.0
 11
198.999999434254
 21
115.2499996039215
 31
0.0
  0
LINE
  5
11F8
330
3DD
100
AcDbEntity
  8
3
100
AcDbLine
 10
198.999999434254
 20
120.2499996039215
 30
0.0
 11
199.999999434254
 21
119.2499996039215
 31
0.0
  0
LINE
  5
11FC
330
3DD
100
AcDbEntity
  8
3
100
AcDbLine
 10
182.0
 20
115.25
 30
0.0
 11
182.0
 21
121.0
 31
0.0
  0
LINE
  5
11FD
330
3DD
100
AcDbEntity
  8
3
100
AcDbLine
 10
183.499999434254
 20
120.2499996039215
 30
0.0
 11
183.499999434254
 21
115.2499996039215
 31
0.0
  0
LINE
  5
11FE
330
3DD
100
AcDbEntity
  8
3
100
AcDbLine
 10
199.999999434254
 20
111.2499996039215
 30
0.0
 11
183.499999434254
 21
111.2499996039215
 31
0.0
  0
LINE
  5
11FF
330
3DD
100
AcDbEntity
  8
3
100
AcDbLine
 10
181.999999434254
 20
110.2499996039215
 30
0.0
 11
198.999999434254
 21
110.2499996039215
 31
0.0
  0
LINE
  5
1200
330
3DD
100
AcDbEntity
  8
3
100
AcDbLine
 10
198.999999434254
 20
110.2499996039215
 30
0.0
 11
199.999999434254
 21
111.2499996039215
 31
0.0
  0
POINT
  5
1201
330
3DD
100
AcDbEntity
  8
DEFPOINTS
  6
ByBlock
 62
     0
100
AcDbPoint
 10
199.999999434254
 20
111.2499996039215
 30
0.0
  0
POINT
  5
1203
330
3DD
100
AcDbEntity
  8
DEFPOINTS
  6
ByBlock
 62
     0
100
AcDbPoint
 10
181.8999999999999
 20
107.25
 30
0.0
  0
POINT
  5
1204
330
3DD
100
AcDbEntity
  8
DEFPOINTS
  6
ByBlock
 62
     0
100
AcDbPoint
 10
182.0
 20
108.5
 30
0.0
  0
POINT
  5
1205
330
3DD
100
AcDbEntity
  8
DEFPOINTS
  6
ByBlock
 62
     0
100
AcDbPoint
 10
182.0
 20
108.5
 30
0.0
  0
POINT
  5
1206
330
3DD
100
AcDbEntity
  8
DEFPOINTS
  6
ByBlock
 62
     0
100
AcDbPoint
 10
182.0
 20
108.5
 30
0.0
  0
LINE
  5
120E
330
3DD
100
AcDbEntity
  8
3
100
AcDbLine
 10
172.0
 20
115.25
 30
0.0
 11
172.0
 21
111.35
 31
0.0
  0
LINE
  5
1213
330
3DD
100
AcDbEntity
  8
3
100
AcDbLine
 10
172.0
 20
107.25
 30
0.0
 11
172.0
 21
115.25
 31
0.0
  0
POINT
  5
121C
330
3DD
100
AcDbEntity
  8
DEFPOINTS
  6
ByBlock
 62
     0
100
AcDbPoint
 10
172.0
 20
107.25
 30
0.0
  0
POINT
  5
121D
330
3DD
100
AcDbEntity
  8
DEFPOINTS
  6
ByBlock
 62
     0
100
AcDbPoint
 10
172.0
 20
107.25
 30
0.0
  0
LINE
  5
126D
330
3DD
100
AcDbEntity
  8
3
100
AcDbLine
 10
142.0
 20
104.25
 30
0.0
 11
107.0
 21
104.25
 31
0.0
  0
LINE
  5
126E
330
3DD
100
AcDbEntity
  8
3
100
AcDbLine
 10
102.0
 20
109.25
 30
0.0
 11
102.0
 21
115.25
 31
0.0
  0
LINE
  5
126F
330
3DD
100
AcDbEntity
  8
3
100
AcDbLine
 10
102.0
 20
109.25
 30
0.0
 11
107.0
 21
104.25
 31
0.0
  0
LINE
  5
127C
330
3DD
100
AcDbEntity
  8
3
100
AcDbLine
 10
142.0
 20
126.25
 30
0.0
 11
107.0
 21
126.25
 31
0.0
  0
LINE
  5
127D
330
3DD
100
AcDbEntity
  8
3
100
AcDbLine
 10
102.0
 20
121.25
 30
0.0
 11
102.0
 21
115.25
 31
0.0
  0
LINE
  5
127E
330
3DD
100
AcDbEntity
  8
3
100
AcDbLine
 10
102.0
 20
121.25
 30
0.0
 11
107.0
 21
126.25
 31
0.0
  0
LINE
  5
127F
330
3DD
100
AcDbEntity
  8
3
100
AcDbLine
 10
107.0
 20
104.25
 30
0.0
 11
107.0
 21
115.25
 31
0.0
  0
CIRCLE
  5
1280
330
3DD
100
AcDbEntity
  8
3
100
AcDbCircle
 10
41.5
 20
115.25
 30
0.0
 40
6.0
  0
CIRCLE
  5
1283
330
3DD
100
AcDbEntity
  8
3
100
AcDbCircle
 10
263.75
 20
115.25
 30
0.0
 40
5.0
  0
CIRCLE
  5
1284
330
3DD
100
AcDbEntity
  8
3
100
AcDbCircle
 10
263.75
 20
115.25
 30
0.0
 40
4.0
  0
LWPOLYLINE
  5
12D3
330
3DD
100
AcDbEntity
  8
3
100
AcDbPolyline
 90
        6
 70
     1
 43
0.0
 10
263.75
 20
122.75
 10
257.2548094716168
 20
119.0
 10
257.2548094716167
 20
111.5
 10
263.75
 20
107.75
 10
270.2451905283833
 20
111.5
 10
270.2451905283833
 20
119.0
  0
CIRCLE
  5
12D4
330
3DD
100
AcDbEntity
  8
3
100
AcDbCircle
 10
263.75
 20
115.25
 30
0.0
 40
6.5
  0
CIRCLE
  5
12D5
330
3DD
100
AcDbEntity
  8
3
100
AcDbCircle
 10
263.75
 20
115.25
 30
0.0
 40
8.5
  0
LINE
  5
12D7
330
3DD
100
AcDbEntity
  8
3
100
AcDbLine
 10
142.0
 20
104.25
 30
0.0
 11
172.0
 21
106.75
 31
0.0
  0
LINE
  5
12D8
330
3DD
100
AcDbEntity
  8
3
100
AcDbLine
 10
172.0
 20
123.75
 30
0.0
 11
172.0
 21
115.25
 31
0.0
  0
LINE
  5
12D9
330
3DD
100
AcDbEntity
  8
3
100
AcDbLine
 10
142.0
 20
126.25
 30
0.0
 11
172.0
 21
123.75
 31
0.0
  0
LINE
  5
12DA
330
3DD
100
AcDbEntity
  8
3
100
AcDbLine
 10
181.75
 20
107.75
 30
0.0
 11
172.0
 21
107.75
 31
0.0
  0
LINE
  5
12DB
330
3DD
100
AcDbEntity
  8
3
100
AcDbLine
 10
182.0
 20
115.25
 30
0.0
 11
182.0
 21
109.4999999999999
 31
0.0
  0
LINE
  5
12DC
330
3DD
100
AcDbEntity
  8
3
100
AcDbLine
 10
182.0
 20
115.25
 30
0.0
 11
182.0
 21
121.0000000000001
 31
0.0
  0
LINE
  5
12DD
330
3DD
100
AcDbEntity
  8
3
100
AcDbLine
 10
181.75
 20
122.75
 30
0.0
 11
172.0
 21
122.75
 31
0.0
  0
POINT
  5
12DE
330
3DD
100
AcDbEntity
  8
DEFPOINTS
  6
ByBlock
 62
     0
100
AcDbPoint
 10
182.0
 20
122.0
 30
0.0
  0
POINT
  5
12DF
330
3DD
100
AcDbEntity
  8
DEFPOINTS
  6
ByBlock
 62
     0
100
AcDbPoint
 10
182.0
 20
122.0
 30
0.0
  0
POINT
  5
12E0
330
3DD
100
AcDbEntity
  8
DEFPOINTS
  6
ByBlock
 62
     0
100
AcDbPoint
 10
182.0
 20
122.0
 30
0.0
  0
POINT
  5
12E1
330
3DD
100
AcDbEntity
  8
DEFPOINTS
  6
ByBlock
 62
     0
100
AcDbPoint
 10
181.8999999999999
 20
123.25
 30
0.0
  0
ARC
  5
12E2
330
3DD
100
AcDbEntity
  8
3
100
AcDbCircle
 10
173.1464285714292
 20
120.6280612244899
 30
0.0
 40
8.861380563633032
100
AcDbArc
 50
351.0534413971865
 51
13.85462195186716
  0
ARC
  5
12E3
330
3DD
100
AcDbEntity
  8
3
100
AcDbCircle
 10
173.1464285714292
 20
109.8719387755101
 30
0.0
 40
8.861380563633028
100
AcDbArc
 50
346.1453780481329
 51
8.946558602813539
  0
LINE
  5
12E4
330
3DD
100
AcDbEntity
  8
3
100
AcDbLine
 10
181.9121160300301
 20
119.0
 30
0.0
 11
172.0
 21
119.0
 31
0.0
  0
LINE
  5
12E5
330
3DD
100
AcDbEntity
  8
3
100
AcDbLine
 10
181.9121160300301
 20
111.5
 30
0.0
 11
172.0
 21
111.5
 31
0.0
  0
LINE
  5
1617
330
3DD
100
AcDbEntity
  8
3
100
AcDbLine
 10
142.0
 20
126.25
 30
0.0
 11
142.0
 21
115.25
 31
0.0
  0
LINE
  5
1618
330
3DD
100
AcDbEntity
  8
3
100
AcDbLine
 10
107.0
 20
126.25
 30
0.0
 11
107.0
 21
115.25
 31
0.0
  0
ENDSEC
  0
SECTION
  2
OBJECTS
  0
DICTIONARY
  5
3D1
330
0
100
AcDbDictionary
281
     1
  3
ACAD_CIP_PREVIOUS_PRODUCT_INFO
350
15EF
  3
ACAD_COLOR
350
15C0
  3
ACAD_DETAILVIEWSTYLE
350
15D9
  3
ACAD_GROUP
350
3D2
  3
ACAD_LAYOUT
350
1328
  3
ACAD_MATERIAL
350
158E
  3
ACAD_MLEADERSTYLE
350
15D5
  3
ACAD_MLINESTYLE
350
3D3
  3
ACAD_PLOTSETTINGS
350
1329
  3
ACAD_PLOTSTYLENAME
350
1326
  3
ACAD_SCALELIST
350
15C3
  3
ACAD_SECTIONVIEWSTYLE
350
15D7
  3
ACAD_TABLESTYLE
350
15C1
  3
ACAD_VISUALSTYLE
350
15A7
  3
AcAmCatalogState
350
13FA
  3
AcAsAppObject
350
137E
  3
ACASGREF_MASTER
350
13C6
  3
ACDB_RECOMPOSE_DATA
350
1642
  3
ACDBVARIABLEDICTIONARY
350
57C
  3
ACDMSYSVARMGR
350
135A
  3
AcDsDecomposeData
350
1648
  3
ACGREF_MASTER
350
1354
  3
ACGREFACAD_MASTER
350
137A
  3
AcmDictionary
350
13F6
  3
ACME_BOM_MANAGER_NAME
350
134D
  3
ACME_COMMAND_HISTORY
350
1348
  3
ACME_SCOPE_NAME
350
1347
  3
ACMESTATEMGR
350
1352
  3
AcmeSysVarManager
350
1349
  3
AcmSystemVariableManager
350
1403
  3
AD_APPL
350
13DE
  3
AD_GREF_MODULE
350
13C7
  3
AD_MAPI_MODULE
350
13E0
  3
ADSYSVARMGR
350
13D0
  3
AmdtNamedDwgMgr
350
1375
  3
AMG
350
133D
  3
AMGSNAPSETTINGS
350
14C0
  3
AMI_MASTER
350
137D
  3
ASURF_STATIC_VARS
350
137F
  3
AUTOCAD_ASSEMBLIES_PROJECT
350
13EB
  3
AutoSurf_SysVars
350
1380
  3
Designer_Assemblies_SysVars
350
13E2
  3
GREFAM_MODULE
350
13C9
  3
MAPISURF_MODULE
350
13C8
  0
DICTIONARY
  5
161C
330
3C7
100
AcDbDictionary
280
     1
281
     1
  3
ACAD_LAYERSTATES
360
161D
  0
DICTIONARY
  5
15F0
330
3D4
100
AcDbDictionary
280
     1
281
     1
  3
ADSK_XREC_LAYER_RECONCILED
360
15F1
  0
DICTIONARY
  5
15F2
330
416
100
AcDbDictionary
280
     1
281
     1
  3
ADSK_XREC_LAYER_RECONCILED
360
15F3
  0
DICTIONARY
  5
15F4
330
417
100
AcDbDictionary
280
     1
281
     1
  3
ADSK_XREC_LAYER_RECONCILED
360
15F5
  0
DICTIONARY
  5
15F6
330
418
100
AcDbDictionary
280
     1
281
     1
  3
ADSK_XREC_LAYER_RECONCILED
360
15F7
  0
DICTIONARY
  5
15F8
330
419
100
AcDbDictionary
280
     1
281
     1
  3
ADSK_XREC_LAYER_RECONCILED
360
15F9
  0
DICTIONARY
  5
15FA
330
41A
100
AcDbDictionary
280
     1
281
     1
  3
ADSK_XREC_LAYER_RECONCILED
360
15FB
  0
DICTIONARY
  5
15FC
330
41B
100
AcDbDictionary
280
     1
281
     1
  3
ADSK_XREC_LAYER_RECONCILED
360
15FD
  0
DICTIONARY
  5
15FE
330
41C
100
AcDbDictionary
280
     1
281
     1
  3
ADSK_XREC_LAYER_RECONCILED
360
15FF
  0
DICTIONARY
  5
1600
330
41D
100
AcDbDictionary
280
     1
281
     1
  3
ADSK_XREC_LAYER_RECONCILED
360
1601
  0
DICTIONARY
  5
1602
330
41E
100
AcDbDictionary
280
     1
281
     1
  3
ADSK_XREC_LAYER_RECONCILED
360
1603
  0
DICTIONARY
  5
1604
330
420
100
AcDbDictionary
280
     1
281
     1
  3
ADSK_XREC_LAYER_RECONCILED
360
1605
  0
DICTIONARY
  5
1430
330
3DD
100
AcDbDictionary
280
     1
281
     1
  3
ACAD_INDEX
360
1431
  0
XRECORD
  5
15EF
102
{ACAD_REACTORS
330
3D1
102
}
330
3D1
100
AcDbXrecord
280
     1
300
ACD
300
2019
300

  0
DICTIONARY
  5
15C0
102
{ACAD_REACTORS
330
3D1
102
}
330
3D1
100
AcDbDictionary
281
     1
  0
DICTIONARY
  5
15D9
102
{ACAD_REACTORS
330
3D1
102
}
330
3D1
100
AcDbDictionary
281
     1
  3
Imperial24
350
15DA
  0
DICTIONARY
  5
3D2
102
{ACAD_REACTORS
330
3D1
102
}
330
3D1
100
AcDbDictionary
281
     1
  0
DICTIONARY
  5
1328
102
{ACAD_REACTORS
330
3D1
102
}
330
3D1
100
AcDbDictionary
281
     1
  3
Model
350
132A
  3
ﾚｲｱｳﾄ1
350
132B
  0
DICTIONARY
  5
158E
102
{ACAD_REACTORS
330
3D1
102
}
330
3D1
100
AcDbDictionary
281
     1
  3
ByBlock
350
1597
  3
ByLayer
350
158F
  3
Global
350
159F
  0
DICTIONARY
  5
15D5
102
{ACAD_REACTORS
330
3D1
102
}
330
3D1
100
AcDbDictionary
281
     1
  3
Standard
350
15D6
  0
DICTIONARY
  5
3D3
102
{ACAD_REACTORS
330
3D1
102
}
330
3D1
100
AcDbDictionary
281
     1
  3
STANDARD
350
3E0
  0
DICTIONARY
  5
1329
102
{ACAD_REACTORS
330
3D1
102
}
330
3D1
100
AcDbDictionary
281
     1
  0
ACDBDICTIONARYWDFLT
  5
1326
102
{ACAD_REACTORS
330
3D1
102
}
330
3D1
100
AcDbDictionary
281
     1
  3
Normal
350
1327
100
AcDbDictionaryWithDefault
340
1327
  0
DICTIONARY
  5
15C3
102
{ACAD_REACTORS
330
3D1
102
}
330
3D1
100
AcDbDictionary
281
     1
  3
A0
350
15C4
  3
A1
350
15C5
  3
A2
350
15C6
  3
A3
350
15C7
  3
A4
350
15C8
  3
A5
350
15C9
  3
A6
350
15CA
  3
A7
350
15CB
  3
A8
350
15CC
  3
A9
350
15CD
  3
B0
350
15CE
  3
B1
350
15CF
  3
B2
350
15D0
  3
B3
350
15D1
  3
B4
350
15D2
  3
B5
350
15D3
  3
B6
350
15D4
  0
DICTIONARY
  5
15D7
102
{ACAD_REACTORS
330
3D1
102
}
330
3D1
100
AcDbDictionary
281
     1
  3
Imperial24
350
15D8
  0
DICTIONARY
  5
15C1
102
{ACAD_REACTORS
330
3D1
102
}
330
3D1
100
AcDbDictionary
281
     1
  3
Standard
350
15C2
  0
DICTIONARY
  5
15A7
102
{ACAD_REACTORS
330
3D1
102
}
330
3D1
100
AcDbDictionary
281
     1
  3
2dWireframe
350
15AD
  3
Basic
350
15AC
  3
Brighten
350
15B3
  3
ColorChange
350
15B7
  3
Conceptual
350
15B0
  3
Dim
350
15B2
  3
EdgeColorOff
350
15BF
  3
Facepattern
350
15B6
  3
Flat
350
15A8
  3
FlatWithEdges
350
15A9
  3
Gouraud
350
15AA
  3
GouraudWithEdges
350
15AB
  3
Hidden
350
15AF
  3
JitterOff
350
15BD
  3
Linepattern
350
15B5
  3
OverhangOff
350
15BE
  3
Realistic
350
15B1
  3
Shaded
350
15BC
  3
Shaded with edges
350
15BB
  3
Shades of Gray
350
15B8
  3
Sketchy
350
15B9
  3
Thicken
350
15B4
  3
Wireframe
350
15AE
  3
X-Ray
350
15BA
  0
ACAD_PROXY_OBJECT
  5
13FA
102
{ACAD_REACTORS
330
3D1
102
}
330
3D1
100
AcDbProxyObject
 90
      499
 91
      559
 95
   851991
 70
     0
161
               368
310
3FFFFFFFE00A028140290A29D2E20A1A0A220AFAD2E415DC16648DE2E482B485DCAB4AE41A7C1C541B141BB400AA65
 94
        0
  0
ACAD_PROXY_OBJECT
  5
137E
102
{ACAD_REACTORS
330
3D1
102
}
330
3D1
100
AcDbProxyObject
 90
      499
 91
      531
 95
   851991
 70
     0
161
                10
310
404C
 94
        0
  0
ACAD_PROXY_OBJECT
  5
13C6
102
{ACAD_REACTORS
330
3D1
102
}
330
3D1
100
AcDbProxyObject
 90
      499
 91
      537
 95
   851991
 70
     0
161
                34
310
010000404C
 94
        0
  0
XRECORD
  5
1642
102
{ACAD_REACTORS
330
3D1
102
}
330
3D1
100
AcDbXrecord
280
     1
 90
        1
330
15C2
  0
DICTIONARY
  5
57C
102
{ACAD_REACTORS
330
3D1
102
}
330
3D1
100
AcDbDictionary
281
     1
  3
CANNOSCALE
350
160B
  3
CMLEADERSTYLE
350
1607
  3
CTABLESTYLE
350
1606
  3
CVIEWDETAILSTYLE
350
1608
  3
CVIEWSECTIONSTYLE
350
1609
  3
DIMASSOC
350
1441
  3
INDEXCTL
350
1440
  3
LAYEREVAL
350
160D
  3
LAYERNOTIFY
350
160E
  3
LIGHTINGUNITS
350
160C
  3
MSLTSCALE
350
160A
  3
SORTENTS
350
57D
  0
ACAD_PROXY_OBJECT
  5
135A
102
{ACAD_REACTORS
330
3D1
102
}
330
3D1
100
AcDbProxyObject
 90
      499
 91
      510
 95
   851991
 70
     0
161
               240
310
4C51A47A000000000000000000000000000000000000000000000000000000
330
135B
330
135C
330
135D
330
135E
330
135F
330
1360
330
1361
330
1362
330
1363
330
1364
330
1365
330
1366
330
1367
330
1368
330
1369
330
136A
330
136B
330
136C
330
136D
330
136E
330
136F
330
1370
330
1371
330
1372
330
1373
330
1374
 94
        0
  0
DICTIONARY
  5
1648
102
{ACAD_REACTORS
330
3D1
102
}
330
3D1
100
AcDbDictionary
281
     1
  3
AcDsRecords
350
164A
  3
AcDsSchemas
350
1649
1001
ACAD
1070
     2
  0
ACAD_PROXY_OBJECT
  5
1354
102
{ACAD_REACTORS
330
3D1
102
}
330
3D1
100
AcDbProxyObject
 90
      499
 91
      519
 95
   851991
 70
     0
161
                34
310
040000428C
 94
        0
  0
ACAD_PROXY_OBJECT
  5
137A
102
{ACAD_REACTORS
330
3D1
102
}
330
3D1
100
AcDbProxyObject
 90
      499
 91
      527
 95
   851991
 70
     0
161
               114
310
04000041C00000000000000000000C
 94
        0
  0
DICTIONARY
  5
13F6
102
{ACAD_REACTORS
330
3D1
102
}
330
3D1
100
AcDbDictionary
281
     1
  3
AcmBOMDATA
350
13F7
  3
AcmStdDictionary
350
1405
  0
ACAD_PROXY_OBJECT
  5
134D
102
{ACAD_REACTORS
330
3D1
102
}
330
3D1
100
AcDbProxyObject
 90
      499
 91
      513
 95
   851991
 70
     0
161
                50
310
0001004040000C
330
0
330
0
330
134E
 94
        0
  0
ACAD_PROXY_OBJECT
  5
1348
102
{ACAD_REACTORS
330
3D1
102
}
330
3D1
100
AcDbProxyObject
 90
      499
 91
      509
 95
   851991
 70
     0
161
              2242
310
4780505515341564580504504C4F548050551534156458050551534156458050551534156458050E414D4454524553455444424D4F4440805084E202D20554E444F014213880B4815539113C0504554E444F80504554E444F80504554E444F80504554E444F80504554E444F80505515341564580505455241534580509504
310
1535445434C495080505515341564580504504C4F548050551534156458050E414D4454524553455444424D4F4440805084E202D20554E444F014213880B4815539113C0504554E444F80504554E444F80504554E444F80504554E444F80504554E444F8050545524153458050544544558548050551534156458050750524
310
55649455780504504C4F548050551534156458050551534156458C
 94
        0
  0
ACAD_PROXY_OBJECT
  5
1347
102
{ACAD_REACTORS
330
3D1
102
}
330
3D1
100
AcDbProxyObject
 90
      499
 91
      508
 95
   851991
 70
     0
161
              1234
310
06000044400000000000000000001856260000000000000000000000000000000000000000000000000000000000000000000000000000000000000000000000000000000000000000000000000000000000000000000000000000000000000000000000000000000000000000000000000000000000000000000000000000
310
0000000000000000000000000000000000000000000000AAA406AA8C
360
134A
360
134B
360
134C
360
134E
360
1355
360
1356
360
1357
360
1358
360
135B
360
135C
360
135D
360
135E
360
135F
360
1360
360
1361
360
1362
360
1363
360
1364
360
1365
360
1366
360
1367
360
1368
360
1369
360
136A
360
136B
360
136C
360
136D
360
136E
360
136F
360
1370
360
1371
360
1372
360
1373
360
1374
360
1381
360
1382
360
1383
360
1384
360
1385
360
1386
360
1387
360
1388
360
1389
360
138A
360
138B
360
138C
360
138D
360
138E
360
138F
360
1390
360
1391
360
1392
360
1393
360
1394
360
1395
360
1396
360
1397
360
1398
360
1399
360
139A
360
139B
360
139C
360
139D
360
139E
360
139F
360
13A0
360
13A1
360
13A2
360
13A3
360
13A4
360
13A5
360
13A6
360
13A7
360
13A8
360
13A9
360
13AA
360
13AB
360
13AC
360
13AD
360
13AE
360
13AF
360
13B0
360
13B1
360
13B2
360
13B3
360
13B4
360
13B5
360
13B6
360
13B7
360
13B8
360
13B9
360
13BA
360
13BB
360
13BC
360
13BD
360
13BE
360
13BF
360
13C0
360
13C1
360
13C2
360
13CC
360
13CD
360
13CE
360
13CF
360
13D1
360
13D2
360
13D3
360
13D4
360
13D5
360
13D6
360
13D7
360
13D8
360
13D9
360
13DA
360
13DB
360
13DC
360
13DD
360
13E3
360
13E4
360
13E5
360
13E6
360
13E7
360
13E8
360
13E9
360
13EA
360
13EF
360
13F0
360
13F1
360
13F2
360
13F3
360
13F4
360
1404
360
14CB
 94
        0
  0
ACAD_PROXY_OBJECT
  5
1352
102
{ACAD_REACTORS
330
3D1
102
}
330
3D1
100
AcDbProxyObject
 90
      499
 91
      518
 95
   851991
 70
     0
161
                50
310
0600004164128C
 94
        0
  0
ACAD_PROXY_OBJECT
  5
1349
102
{ACAD_REACTORS
330
3D1
102
}
330
3D1
100
AcDbProxyObject
 90
      499
 91
      510
 95
   851991
 70
     0
161
                48
310
903412000000C5
330
134A
330
134B
330
134C
 94
        0
  0
ACAD_PROXY_OBJECT
  5
1403
102
{ACAD_REACTORS
330
3D1
102
}
330
3D1
100
AcDbProxyObject
 90
      499
 91
      510
 95
   851991
 70
     0
161
                32
310
90140A0000
330
1404
 94
        0
  0
ACAD_PROXY_OBJECT
  5
13DE
102
{ACAD_REACTORS
330
3D1
102
}
330
3D1
100
AcDbProxyObject
 90
      499
 91
      546
 95
   851991
 70
     0
161
                42
310
0006000043CC
330
13CC
 94
        0
  0
ACAD_PROXY_OBJECT
  5
13C7
102
{ACAD_REACTORS
330
3D1
102
}
330
3D1
100
AcDbProxyObject
 90
      499
 91
      538
 95
   851991
 70
     0
161
               114
310
00000043800000000000000000000C
 94
        0
  0
ACAD_PROXY_OBJECT
  5
13E0
102
{ACAD_REACTORS
330
3D1
102
}
330
3D1
100
AcDbProxyObject
 90
      499
 91
      548
 95
   851991
 70
     0
161
                34
310
05000044CC
 94
        0
  0
ACAD_PROXY_OBJECT
  5
13D0
102
{ACAD_REACTORS
330
3D1
102
}
330
3D1
100
AcDbProxyObject
 90
      499
 91
      510
 95
   851991
 70
     0
161
               128
310
90D4460000000000000000000000000041
330
13D1
330
13D2
330
13D3
330
13D4
330
13D5
330
13D6
330
13D7
330
13D8
330
13D9
330
13DA
330
13DB
330
13DC
330
13DD
 94
        0
  0
ACAD_PROXY_OBJECT
  5
1375
102
{ACAD_REACTORS
330
3D1
102
}
330
3D1
100
AcDbProxyObject
 90
      499
 91
      524
 95
   851991
 70
     0
161
                42
310
000100005ACC
330
1355
 94
        0
  0
DICTIONARY
  5
133D
102
{ACAD_REACTORS
330
3D1
102
}
330
3D1
100
AcDbDictionary
281
     1
  3
AcMgSettings
350
133E
  3
AMGLAYCFG
350
1407
  0
DICTIONARY
  5
14C0
102
{ACAD_REACTORS
330
3D1
102
}
330
3D1
100
AcDbDictionary
281
     1
  3
DIMENSION
350
14C5
  3
FEA
350
14C4
  3
HATCH (1)
350
14C1
  3
HATCH (2)
350
14C2
  3
SIMPLE WELD
350
14C6
  3
SYMBOLS
350
14C3
  0
ACAD_PROXY_OBJECT
  5
137D
102
{ACAD_REACTORS
330
3D1
102
}
330
3D1
100
AcDbProxyObject
 90
      499
 91
      530
 95
   851991
 70
     0
161
                34
310
050000428C
 94
        0
  0
ACAD_PROXY_OBJECT
  5
137F
102
{ACAD_REACTORS
330
3D1
102
}
330
3D1
100
AcDbProxyObject
 90
      499
 91
      532
 95
   851991
 70
     0
161
               424
310
585314D60000000000000000000000000000000000000000000000000000000000000000000000000000000000000000000000000000
330
1392
330
1393
330
1394
330
1395
330
1396
330
1397
330
1398
330
1399
330
139A
330
139B
330
139C
330
139D
330
139E
330
139F
330
13A0
330
13A1
330
13A2
330
13A3
330
13A4
330
13A5
330
13A6
330
13A7
330
13A8
330
13A9
330
13AA
330
13AB
330
13AC
330
13AD
330
13AE
330
13AF
330
13B0
330
13B1
330
13B2
330
13B3
330
13B4
330
13B5
330
13B6
330
13B7
330
13B8
330
13B9
330
13BA
330
13BB
330
13BC
330
13BD
330
13BE
330
13BF
330
13C0
330
13C1
330
13C2
 94
        0
  0
ACAD_PROXY_OBJECT
  5
13EB
102
{ACAD_REACTORS
330
3D1
102
}
330
3D1
100
AcDbProxyObject
 90
      499
 91
      550
 95
   851991
 70
     0
161
                74
310
0600004A40000000000C
330
13F2
330
0
330
13F3
330
0
330
0
 94
        0
  0
ACAD_PROXY_OBJECT
  5
1380
102
{ACAD_REACTORS
330
3D1
102
}
330
3D1
100
AcDbProxyObject
 90
      499
 91
      510
 95
   851991
 70
     0
161
               168
310
4C511456000000000000000000000000000000000000
330
1381
330
1382
330
1383
330
1384
330
1385
330
1386
330
1387
330
1388
330
1389
330
138A
330
138B
330
138C
330
138D
330
138E
330
138F
330
1390
330
1391
 94
        0
  0
ACAD_PROXY_OBJECT
  5
13E2
102
{ACAD_REACTORS
330
3D1
102
}
330
3D1
100
AcDbProxyObject
 90
      499
 91
      510
 95
   851991
 70
     0
161
                88
310
908432000000000000000057
330
13E3
330
13E4
330
13E5
330
13E6
330
13E7
330
13E8
330
13E9
330
13EA
 94
        0
  0
ACAD_PROXY_OBJECT
  5
13C9
102
{ACAD_REACTORS
330
3D1
102
}
330
3D1
100
AcDbProxyObject
 90
      499
 91
      540
 95
   851991
 70
     0
161
                 8
310
0573
 94
        0
  0
ACAD_PROXY_OBJECT
  5
13C8
102
{ACAD_REACTORS
330
3D1
102
}
330
3D1
100
AcDbProxyObject
 90
      499
 91
      539
 95
   851991
 70
     0
161
                 8
310
0400
 94
        0
  0
DICTIONARY
  5
161D
102
{ACAD_REACTORS
330
161C
102
}
330
161C
100
AcDbDictionary
281
     1
  0
XRECORD
  5
15F1
102
{ACAD_REACTORS
330
15F0
102
}
330
15F0
100
AcDbXrecord
280
     1
290
     1
  0
XRECORD
  5
15F3
102
{ACAD_REACTORS
330
15F2
102
}
330
15F2
100
AcDbXrecord
280
     1
290
     1
  0
XRECORD
  5
15F5
102
{ACAD_REACTORS
330
15F4
102
}
330
15F4
100
AcDbXrecord
280
     1
290
     1
  0
XRECORD
  5
15F7
102
{ACAD_REACTORS
330
15F6
102
}
330
15F6
100
AcDbXrecord
280
     1
290
     1
  0
XRECORD
  5
15F9
102
{ACAD_REACTORS
330
15F8
102
}
330
15F8
100
AcDbXrecord
280
     1
290
     1
  0
XRECORD
  5
15FB
102
{ACAD_REACTORS
330
15FA
102
}
330
15FA
100
AcDbXrecord
280
     1
290
     1
  0
XRECORD
  5
15FD
102
{ACAD_REACTORS
330
15FC
102
}
330
15FC
100
AcDbXrecord
280
     1
290
     1
  0
XRECORD
  5
15FF
102
{ACAD_REACTORS
330
15FE
102
}
330
15FE
100
AcDbXrecord
280
     1
290
     1
  0
XRECORD
  5
1601
102
{ACAD_REACTORS
330
1600
102
}
330
1600
100
AcDbXrecord
280
     1
290
     1
  0
XRECORD
  5
1603
102
{ACAD_REACTORS
330
1602
102
}
330
1602
100
AcDbXrecord
280
     1
290
     1
  0
XRECORD
  5
1605
102
{ACAD_REACTORS
330
1604
102
}
330
1604
100
AcDbXrecord
280
     1
290
     1
  0
DICTIONARY
  5
1431
102
{ACAD_REACTORS
330
1430
102
}
330
1430
100
AcDbDictionary
281
     1
  3
*A1
350
1432
  0
ACDBDETAILVIEWSTYLE
  5
15DA
102
{ACAD_XDICTIONARY
360
164D
102
}
102
{ACAD_REACTORS
330
15D9
102
}
330
15D9
100
AcDbModelDocViewStyle
 70
     0
  3
Imperial24
290
     0
100
AcDbDetailViewStyle
 70
     0
 71
     0
 90
        3
 71
     1
340
3D5
 62
   256
 40
0.24
340
0
 62
   256
 40
0.24
300

 40
0.36
280
     3
 71
     2
340
3D9
 90
       25
 62
   256
 71
     3
340
3D5
 62
   256
 40
0.24
 90
        1
 40
0.75
 90
        1
300
%<\AcVar ViewType \f "%tc1">% %<\AcVar ViewDetailId>%\PSCALE %<\AcVar ViewScale \f "%sn">%
 71
     4
340
3D9
 90
       25
 62
   256
340
3D9
 90
       25
 62
   256
280
     0
  0
LAYOUT
  5
132A
102
{ACAD_REACTORS
330
1328
102
}
330
1328
100
AcDbPlotSettings
  1

  2
EPSON PM-3700C
  4
B4 (JIS)
  6
OLE1
 40
3.757083177566528
 41
14.7637300491333
 42
3.757080078125
 43
3.757080078125
 44
257.0338745117187
 45
363.99609375
 46
0.0
 47
0.0
 48
0.0
 49
0.0
140
0.0
141
0.0
142
1.0
143
0.8250008279341624
 70
 11952
 72
     1
 73
     1
 74
     1
  7

 75
     0
147
1.212119995690238
 76
     0
 77
     2
 78
   300
148
0.0086968462084087
149
0.0060420194710673
100
AcDbLayout
  1
Model
 70
     1
 71
     0
 10
0.0
 20
0.0
 11
12.0
 21
9.0
 12
0.0
 22
0.0
 32
0.0
 14
0.0
 24
0.0
 34
0.0
 15
0.0
 25
0.0
 35
0.0
146
0.0
 13
0.0
 23
0.0
 33
0.0
 16
1.0
 26
0.0
 36
0.0
 17
0.0
 27
1.0
 37
0.0
 76
     0
330
3DD
331
158C
  0
LAYOUT
  5
132B
102
{ACAD_REACTORS
330
1328
102
}
330
1328
100
AcDbPlotSettings
  1

  2
EPSON PM-3700C
  4

  6

 40
0.0
 41
0.0
 42
0.0
 43
0.0
 44
0.0
 45
0.0
 46
0.0
 47
0.0
 48
0.0
 49
0.0
140
0.0
141
0.0
142
1.0
143
1.0
 70
   688
 72
     0
 73
     0
 74
     5
  7

 75
    16
147
1.0
 76
     0
 77
     2
 78
   300
148
0.0
149
0.0
100
AcDbLayout
  1
ﾚｲｱｳﾄ1
 70
     1
 71
     1
 10
0.0
 20
0.0
 11
12.0
 21
9.0
 12
0.0
 22
0.0
 32
0.0
 14
1.000000000000000E+20
 24
1.000000000000000E+20
 34
1.000000000000000E+20
 15
-1.000000000000000E+20
 25
-1.000000000000000E+20
 35
-1.000000000000000E+20
146
0.0
 13
0.0
 23
0.0
 33
0.0
 16
1.0
 26
0.0
 36
0.0
 17
0.0
 27
1.0
 37
0.0
 76
     0
330
3DA
  0
MATERIAL
  5
1597
102
{ACAD_XDICTIONARY
360
1598
102
}
102
{ACAD_REACTORS
330
158E
102
}
330
158E
100
AcDbMaterial
  1
ByBlock
 72
     0
 43
0.0208333333333333
 43
0.0
 43
0.0
 43
0.0
 43
0.0
 43
0.0208333333333333
 43
0.0
 43
0.0
 43
0.0
 43
0.0
 43
1.0
 43
0.0
 43
0.0
 43
0.0
 43
0.0
 43
1.0
 77
     0
 47
0.0208333333333333
 47
0.0
 47
0.0
 47
0.0
 47
0.0
 47
0.0208333333333333
 47
0.0
 47
0.0
 47
0.0
 47
0.0
 47
1.0
 47
0.0
 47
0.0
 47
0.0
 47
0.0
 47
1.0
171
     0
 49
0.0208333333333333
 49
0.0
 49
0.0
 49
0.0
 49
0.0
 49
0.0208333333333333
 49
0.0
 49
0.0
 49
0.0
 49
0.0
 49
1.0
 49
0.0
 49
0.0
 49
0.0
 49
0.0
 49
1.0
175
     0
142
0.0208333333333333
142
0.0
142
0.0
142
0.0
142
0.0
142
0.0208333333333333
142
0.0
142
0.0
142
0.0
142
0.0
142
1.0
142
0.0
142
0.0
142
0.0
142
0.0
142
1.0
179
     0
144
0.0208333333333333
144
0.0
144
0.0
144
0.0
144
0.0
144
0.0208333333333333
144
0.0
144
0.0
144
0.0
144
0.0
144
1.0
144
0.0
144
0.0
144
0.0
144
0.0
144
1.0
147
0.0208333333333333
147
0.0
147
0.0
147
0.0
147
0.0
147
0.0208333333333333
147
0.0
147
0.0
147
0.0
147
0.0
147
1.0
147
0.0
147
0.0
147
0.0
147
0.0
147
1.0
  0
MATERIAL
  5
158F
102
{ACAD_XDICTIONARY
360
1590
102
}
102
{ACAD_REACTORS
330
158E
102
}
330
158E
100
AcDbMaterial
  1
ByLayer
 72
     0
 43
0.0208333333333333
 43
0.0
 43
0.0
 43
0.0
 43
0.0
 43
0.0208333333333333
 43
0.0
 43
0.0
 43
0.0
 43
0.0
 43
1.0
 43
0.0
 43
0.0
 43
0.0
 43
0.0
 43
1.0
 77
     0
 47
0.0208333333333333
 47
0.0
 47
0.0
 47
0.0
 47
0.0
 47
0.0208333333333333
 47
0.0
 47
0.0
 47
0.0
 47
0.0
 47
1.0
 47
0.0
 47
0.0
 47
0.0
 47
0.0
 47
1.0
171
     0
 49
0.0208333333333333
 49
0.0
 49
0.0
 49
0.0
 49
0.0
 49
0.0208333333333333
 49
0.0
 49
0.0
 49
0.0
 49
0.0
 49
1.0
 49
0.0
 49
0.0
 49
0.0
 49
0.0
 49
1.0
175
     0
142
0.0208333333333333
142
0.0
142
0.0
142
0.0
142
0.0
142
0.0208333333333333
142
0.0
142
0.0
142
0.0
142
0.0
142
1.0
142
0.0
142
0.0
142
0.0
142
0.0
142
1.0
179
     0
144
0.0208333333333333
144
0.0
144
0.0
144
0.0
144
0.0
144
0.0208333333333333
144
0.0
144
0.0
144
0.0
144
0.0
144
1.0
144
0.0
144
0.0
144
0.0
144
0.0
144
1.0
147
0.0208333333333333
147
0.0
147
0.0
147
0.0
147
0.0
147
0.0208333333333333
147
0.0
147
0.0
147
0.0
147
0.0
147
1.0
147
0.0
147
0.0
147
0.0
147
0.0
147
1.0
  0
MATERIAL
  5
159F
102
{ACAD_XDICTIONARY
360
15A0
102
}
102
{ACAD_REACTORS
330
158E
102
}
330
158E
100
AcDbMaterial
  1
Global
 72
     0
 43
0.0208333333333333
 43
0.0
 43
0.0
 43
0.0
 43
0.0
 43
0.0208333333333333
 43
0.0
 43
0.0
 43
0.0
 43
0.0
 43
1.0
 43
0.0
 43
0.0
 43
0.0
 43
0.0
 43
1.0
 77
     0
 47
0.0208333333333333
 47
0.0
 47
0.0
 47
0.0
 47
0.0
 47
0.0208333333333333
 47
0.0
 47
0.0
 47
0.0
 47
0.0
 47
1.0
 47
0.0
 47
0.0
 47
0.0
 47
0.0
 47
1.0
171
     0
 49
0.0208333333333333
 49
0.0
 49
0.0
 49
0.0
 49
0.0
 49
0.0208333333333333
 49
0.0
 49
0.0
 49
0.0
 49
0.0
 49
1.0
 49
0.0
 49
0.0
 49
0.0
 49
0.0
 49
1.0
175
     0
142
0.0208333333333333
142
0.0
142
0.0
142
0.0
142
0.0
142
0.0208333333333333
142
0.0
142
0.0
142
0.0
142
0.0
142
1.0
142
0.0
142
0.0
142
0.0
142
0.0
142
1.0
179
     0
144
0.0208333333333333
144
0.0
144
0.0
144
0.0
144
0.0
144
0.0208333333333333
144
0.0
144
0.0
144
0.0
144
0.0
144
1.0
144
0.0
144
0.0
144
0.0
144
0.0
144
1.0
147
0.0208333333333333
147
0.0
147
0.0
147
0.0
147
0.0
147
0.0208333333333333
147
0.0
147
0.0
147
0.0
147
0.0
147
1.0
147
0.0
147
0.0
147
0.0
147
0.0
147
1.0
  0
MLEADERSTYLE
  5
15D6
102
{ACAD_REACTORS
330
15D5
102
}
330
15D5
100
AcDbMLeaderStyle
179
     2
170
     2
171
     1
172
     0
 90
        2
 40
0.0
 41
0.0
173
     1
 91
-1056964608
340
3D7
 92
       -2
290
     1
 42
0.09
291
     1
 43
0.36
  3
Standard
 44
0.18
300

342
3D5
174
     1
178
     6
175
     1
176
     0
 93
-1056964608
 45
0.18
292
     0
297
     0
 46
0.18
 94
-1056964608
 47
1.0
 49
1.0
140
1.0
293
     1
141
0.0
294
     1
177
     0
142
1.0
295
     0
296
     0
143
0.125
271
     0
272
     9
273
     9
298
     1
  0
MLINESTYLE
  5
3E0
102
{ACAD_REACTORS
330
3D3
102
}
330
3D3
100
AcDbMlineStyle
  2
STANDARD
 70
     0
  3

 62
     0
 51
90.0
 52
90.0
 71
     2
 49
0.5
 62
   256
  6
BYLAYER
 49
-0.5
 62
   256
  6
BYLAYER
  0
ACDBPLACEHOLDER
  5
1327
102
{ACAD_REACTORS
330
1326
102
}
330
1326
  0
SCALE
  5
15C4
102
{ACAD_REACTORS
330
15C3
102
}
330
15C3
100
AcDbScale
 70
     0
300
1:1
140
1.0
141
1.0
290
     1
  0
SCALE
  5
15C5
102
{ACAD_REACTORS
330
15C3
102
}
330
15C3
100
AcDbScale
 70
     0
300
1/128" = 1'-0"
140
0.0078125
141
12.0
290
     0
  0
SCALE
  5
15C6
102
{ACAD_REACTORS
330
15C3
102
}
330
15C3
100
AcDbScale
 70
     0
300
1/64" = 1'-0"
140
0.015625
141
12.0
290
     0
  0
SCALE
  5
15C7
102
{ACAD_REACTORS
330
15C3
102
}
330
15C3
100
AcDbScale
 70
     0
300
1/32" = 1'-0"
140
0.03125
141
12.0
290
     0
  0
SCALE
  5
15C8
102
{ACAD_REACTORS
330
15C3
102
}
330
15C3
100
AcDbScale
 70
     0
300
1/16" = 1'-0"
140
0.0625
141
12.0
290
     0
  0
SCALE
  5
15C9
102
{ACAD_REACTORS
330
15C3
102
}
330
15C3
100
AcDbScale
 70
     0
300
3/32" = 1'-0"
140
0.09375
141
12.0
290
     0
  0
SCALE
  5
15CA
102
{ACAD_REACTORS
330
15C3
102
}
330
15C3
100
AcDbScale
 70
     0
300
1/8" = 1'-0"
140
0.125
141
12.0
290
     0
  0
SCALE
  5
15CB
102
{ACAD_REACTORS
330
15C3
102
}
330
15C3
100
AcDbScale
 70
     0
300
3/16" = 1'-0"
140
0.1875
141
12.0
290
     0
  0
SCALE
  5
15CC
102
{ACAD_REACTORS
330
15C3
102
}
330
15C3
100
AcDbScale
 70
     0
300
1/4" = 1'-0"
140
0.25
141
12.0
290
     0
  0
SCALE
  5
15CD
102
{ACAD_REACTORS
330
15C3
102
}
330
15C3
100
AcDbScale
 70
     0
300
3/8" = 1'-0"
140
0.375
141
12.0
290
     0
  0
SCALE
  5
15CE
102
{ACAD_REACTORS
330
15C3
102
}
330
15C3
100
AcDbScale
 70
     0
300
1/2" = 1'-0"
140
0.5
141
12.0
290
     0
  0
SCALE
  5
15CF
102
{ACAD_REACTORS
330
15C3
102
}
330
15C3
100
AcDbScale
 70
     0
300
3/4" = 1'-0"
140
0.75
141
12.0
290
     0
  0
SCALE
  5
15D0
102
{ACAD_REACTORS
330
15C3
102
}
330
15C3
100
AcDbScale
 70
     0
300
1" = 1'-0"
140
1.0
141
12.0
290
     0
  0
SCALE
  5
15D1
102
{ACAD_REACTORS
330
15C3
102
}
330
15C3
100
AcDbScale
 70
     0
300
1-1/2" = 1'-0"
140
1.5
141
12.0
290
     0
  0
SCALE
  5
15D2
102
{ACAD_REACTORS
330
15C3
102
}
330
15C3
100
AcDbScale
 70
     0
300
3" = 1'-0"
140
3.0
141
12.0
290
     0
  0
SCALE
  5
15D3
102
{ACAD_REACTORS
330
15C3
102
}
330
15C3
100
AcDbScale
 70
     0
300
6" = 1'-0"
140
6.0
141
12.0
290
     0
  0
SCALE
  5
15D4
102
{ACAD_REACTORS
330
15C3
102
}
330
15C3
100
AcDbScale
 70
     0
300
1'-0" = 1'-0"
140
12.0
141
12.0
290
     0
  0
ACDBSECTIONVIEWSTYLE
  5
15D8
102
{ACAD_XDICTIONARY
360
164B
102
}
102
{ACAD_REACTORS
330
15D7
102
}
330
15D7
100
AcDbModelDocViewStyle
 70
     0
  3
Imperial24
290
     0
100
AcDbSectionViewStyle
 70
     0
 71
     0
 90
       78
 71
     1
340
3D5
 62
   256
 40
0.24
340
0
340
0
 62
   256
 40
0.24
300
I, O, Q, S, X, Z
 40
0.48
 90
        3
 40
0.18
 90
        1
 71
     2
340
3D9
 90
       25
 62
   256
340
3D9
 90
       50
 62
   256
 40
0.24
 40
0.0
 40
0.24
 71
     3
340
3D5
 62
   256
 40
0.24
 90
        1
 40
0.75
 90
        1
300
%<\AcVar ViewType \f "%tc1">% %<\AcVar ViewSectionStartId>%-%<\AcVar ViewSectionEndId>%\PSCALE %<\AcVar ViewScale \f "%sn">%
 71
     4
 62
   256
 62
   257
300
ANSI31
 40
1.0
 90
        0
290
     0
290
     0
 90
        6
 40
0.0
 40
1.570796326794896
 40
0.2617993877991494
 40
1.308996938995747
 40
-0.2617993877991494
 40
1.832595714594046
  0
TABLESTYLE
  5
15C2
102
{ACAD_XDICTIONARY
360
1640
102
}
102
{ACAD_REACTORS
330
15C1
102
}
330
15C1
100
AcDbTableStyle
280
     0
  3
Standard
 70
     0
 71
     0
 40
0.06
 41
0.06
280
     0
281
     0
  7
STANDARD
140
0.18
170
     2
 62
     0
 63
     7
283
     0
 90
      512
 91
        0
  1

274
    -2
284
     1
 64
     0
275
    -2
285
     1
 65
     0
276
    -2
286
     1
 66
     0
277
    -2
287
     1
 67
     0
278
    -2
288
     1
 68
     0
279
    -2
289
     1
 69
     0
  7
STANDARD
140
0.25
170
     5
 62
     0
 63
     7
283
     0
 90
      512
 91
        0
  1

274
    -2
284
     1
 64
     0
275
    -2
285
     1
 65
     0
276
    -2
286
     1
 66
     0
277
    -2
287
     1
 67
     0
278
    -2
288
     1
 68
     0
279
    -2
289
     1
 69
     0
  7
STANDARD
140
0.18
170
     5
 62
     0
 63
     7
283
     0
 90
      512
 91
        0
  1

274
    -2
284
     1
 64
     0
275
    -2
285
     1
 65
     0
276
    -2
286
     1
 66
     0
277
    -2
287
     1
 67
     0
278
    -2
288
     1
 68
     0
279
    -2
289
     1
 69
     0
  0
VISUALSTYLE
  5
15AD
102
{ACAD_REACTORS
330
15A7
102
}
330
15A7
100
AcDbVisualStyle
  2
2dWireframe
 70
     4
177
     3
291
     0
 70
    58
 90
        0
176
     1
 90
        2
176
     1
 90
        0
176
     1
 90
        0
176
     1
 40
0.6
176
     1
 40
30.0
176
     1
 62
     7
420
 16777215
176
     1
 90
        1
176
     1
 90
        4
176
     1
 62
     7
176
     1
 62
   257
176
     1
 90
        1
176
     1
 90
        1
176
     1
 40
1.0
176
     1
 90
        0
176
     1
 62
   257
176
     1
 40
1.0
176
     1
 90
        1
176
     1
 90
        6
176
     1
 90
        2
176
     1
 62
     7
176
     1
 90
        5
176
     1
 90
        0
176
     1
 90
        0
176
     1
290
     0
176
     1
 90
        1
176
     1
 40
0.0
176
     1
 90
        0
176
     1
290
     1
176
     1
290
     1
176
     1
290
     0
176
     1
290
     0
176
     1
290
     0
176
     1
290
     0
176
     1
290
     0
176
     1
290
     0
176
     1
290
     0
176
     1
 90
       50
176
     1
 40
0.0
176
     1
 40
1.0
176
     1
 90
        0
176
     1
 62
    18
420
        0
176
     1
 90
       50
176
     1
 90
        3
176
     1
 62
     5
420
      255
176
     1
290
     0
176
     1
 90
       50
176
     1
 90
       50
176
     1
 90
       50
176
     1
290
     0
176
     1
 90
       50
176
     1
 62
   256
176
     0
 40
1.0
176
     0
 90
        2
176
     1
  1
strokes_ogs.tif
176
     1
290
     0
176
     1
 40
1.0
176
     1
 40
1.0
176
     1
1001
ACAD
1000
AcDbSavedByObjectVersion
1070
     0
  0
VISUALSTYLE
  5
15AC
102
{ACAD_REACTORS
330
15A7
102
}
330
15A7
100
AcDbVisualStyle
  2
Basic
 70
     7
177
     3
291
     1
 70
    58
 90
        1
176
     1
 90
        0
176
     1
 90
        1
176
     1
 90
        0
176
     1
 40
0.6
176
     1
 40
30.0
176
     1
 62
     7
420
 16777215
176
     1
 90
        0
176
     1
 90
        4
176
     1
 62
     7
176
     1
 62
   257
176
     1
 90
        1
176
     1
 90
        1
176
     1
 40
1.0
176
     1
 90
        8
176
     1
 62
     7
176
     1
 40
1.0
176
     1
 90
        1
176
     1
 90
        6
176
     1
 90
        2
176
     1
 62
     7
176
     1
 90
        5
176
     1
 90
        0
176
     1
 90
        0
176
     1
290
     0
176
     1
 90
        1
176
     1
 40
0.0
176
     1
 90
        0
176
     1
290
     0
176
     1
290
     1
176
     1
290
     1
176
     1
290
     0
176
     1
290
     0
176
     1
290
     0
176
     1
290
     0
176
     1
290
     0
176
     1
290
     0
176
     1
 90
       50
176
     1
 40
0.0
176
     1
 40
1.0
176
     1
 90
        0
176
     1
 62
    18
420
        0
176
     1
 90
       50
176
     1
 90
        3
176
     1
 62
     5
420
      255
176
     1
290
     0
176
     1
 90
       50
176
     1
 90
       50
176
     1
 90
       50
176
     1
290
     0
176
     1
 90
       50
176
     1
 62
   256
176
     0
 40
1.0
176
     0
 90
        2
176
     1
  1
strokes_ogs.tif
176
     1
290
     0
176
     1
 40
1.0
176
     1
 40
1.0
176
     1
1001
ACAD
1000
AcDbSavedByObjectVersion
1070
     0
  0
VISUALSTYLE
  5
15B3
102
{ACAD_REACTORS
330
15A7
102
}
330
15A7
100
AcDbVisualStyle
  2
Brighten
 70
    12
177
     3
291
     1
 70
    58
 90
        2
176
     1
 90
        2
176
     1
 90
        0
176
     1
 90
        0
176
     1
 40
0.6
176
     1
 40
30.0
176
     1
 62
     7
420
 16777215
176
     1
 90
        1
176
     1
 90
        4
176
     1
 62
     7
176
     1
 62
   257
176
     1
 90
        1
176
     1
 90
        1
176
     1
 40
1.0
176
     1
 90
        8
176
     1
 62
     7
176
     1
 40
1.0
176
     1
 90
        1
176
     1
 90
        6
176
     1
 90
        2
176
     1
 62
     7
176
     1
 90
        5
176
     1
 90
        0
176
     1
 90
        0
176
     1
290
     0
176
     1
 90
        1
176
     1
 40
50.0
176
     1
 90
        0
176
     1
290
     0
176
     1
290
     1
176
     1
290
     1
176
     1
290
     0
176
     1
290
     0
176
     1
290
     0
176
     1
290
     0
176
     1
290
     0
176
     1
290
     0
176
     1
 90
       50
176
     1
 40
0.0
176
     1
 40
1.0
176
     1
 90
        0
176
     1
 62
    18
420
        0
176
     1
 90
       50
176
     1
 90
        3
176
     1
 62
     5
420
      255
176
     1
290
     0
176
     1
 90
       50
176
     1
 90
       50
176
     1
 90
       50
176
     1
290
     0
176
     1
 90
       50
176
     1
 62
   256
176
     0
 40
1.0
176
     0
 90
        2
176
     1
  1
strokes_ogs.tif
176
     1
290
     0
176
     1
 40
1.0
176
     1
 40
1.0
176
     1
1001
ACAD
1000
AcDbSavedByObjectVersion
1070
     0
  0
VISUALSTYLE
  5
15B7
102
{ACAD_REACTORS
330
15A7
102
}
330
15A7
100
AcDbVisualStyle
  2
ColorChange
 70
    16
177
     3
291
     1
 70
    58
 90
        2
176
     1
 90
        2
176
     1
 90
        3
176
     1
 90
        0
176
     1
 40
0.6
176
     1
 40
30.0
176
     1
 62
     8
420
  8421504
176
     1
 90
        1
176
     1
 90
        4
176
     1
 62
     7
176
     1
 62
   257
176
     1
 90
        1
176
     1
 90
        1
176
     1
 40
1.0
176
     1
 90
        8
176
     1
 62
     8
420
  8421504
176
     1
 40
1.0
176
     1
 90
        1
176
     1
 90
        6
176
     1
 90
        2
176
     1
 62
     7
176
     1
 90
        5
176
     1
 90
        0
176
     1
 90
        0
176
     1
290
     0
176
     1
 90
        1
176
     1
 40
0.0
176
     1
 90
        0
176
     1
290
     0
176
     1
290
     1
176
     1
290
     1
176
     1
290
     0
176
     1
290
     0
176
     1
290
     0
176
     1
290
     0
176
     1
290
     0
176
     1
290
     0
176
     1
 90
       50
176
     1
 40
0.0
176
     1
 40
1.0
176
     1
 90
        0
176
     1
 62
    18
420
        0
176
     1
 90
       50
176
     1
 90
        3
176
     1
 62
     5
420
      255
176
     1
290
     0
176
     1
 90
       50
176
     1
 90
       50
176
     1
 90
       50
176
     1
290
     0
176
     1
 90
       50
176
     1
 62
   256
176
     0
 40
1.0
176
     0
 90
        2
176
     1
  1
strokes_ogs.tif
176
     1
290
     0
176
     1
 40
1.0
176
     1
 40
1.0
176
     1
1001
ACAD
1000
AcDbSavedByObjectVersion
1070
     0
  0
VISUALSTYLE
  5
15B0
102
{ACAD_REACTORS
330
15A7
102
}
330
15A7
100
AcDbVisualStyle
  2
Conceptual
 70
     9
177
     3
291
     0
 70
    58
 90
        3
176
     1
 90
        2
176
     1
 90
        0
176
     1
 90
        0
176
     1
 40
0.6
176
     1
 40
30.0
176
     1
 62
     7
420
 16777215
176
     1
 90
        2
176
     1
 90
        2
176
     1
 62
     7
176
     1
 62
   257
176
     1
 90
        1
176
     1
 90
        1
176
     1
 40
179.0
176
     1
 90
        8
176
     1
 62
     7
176
     1
 40
1.0
176
     1
 90
        1
176
     1
 90
        6
176
     1
 90
        2
176
     1
 62
     7
176
     1
 90
        3
176
     1
 90
        0
176
     1
 90
        0
176
     1
290
     0
176
     1
 90
        1
176
     1
 40
0.0
176
     1
 90
        0
176
     1
290
     0
176
     1
290
     1
176
     1
290
     1
176
     1
290
     0
176
     1
290
     0
176
     1
290
     0
176
     1
290
     0
176
     1
290
     0
176
     1
290
     0
176
     1
 90
       50
176
     1
 40
0.0
176
     1
 40
1.0
176
     1
 90
        0
176
     1
 62
    18
420
        0
176
     1
 90
       50
176
     1
 90
        3
176
     1
 62
     5
420
      255
176
     1
290
     0
176
     1
 90
       50
176
     1
 90
       50
176
     1
 90
       50
176
     1
290
     0
176
     1
 90
       50
176
     1
 62
   256
176
     0
 40
1.0
176
     0
 90
        2
176
     1
  1
strokes_ogs.tif
176
     1
290
     0
176
     1
 40
1.0
176
     1
 40
1.0
176
     1
1001
ACAD
1000
AcDbSavedByObjectVersion
1070
     0
  0
VISUALSTYLE
  5
15B2
102
{ACAD_REACTORS
330
15A7
102
}
330
15A7
100
AcDbVisualStyle
  2
Dim
 70
    11
177
     3
291
     1
 70
    58
 90
        2
176
     1
 90
        2
176
     1
 90
        0
176
     1
 90
        0
176
     1
 40
0.6
176
     1
 40
30.0
176
     1
 62
     7
420
 16777215
176
     1
 90
        1
176
     1
 90
        4
176
     1
 62
     7
176
     1
 62
   257
176
     1
 90
        1
176
     1
 90
        1
176
     1
 40
1.0
176
     1
 90
        8
176
     1
 62
     7
176
     1
 40
1.0
176
     1
 90
        1
176
     1
 90
        6
176
     1
 90
        2
176
     1
 62
     7
176
     1
 90
        5
176
     1
 90
        0
176
     1
 90
        0
176
     1
290
     0
176
     1
 90
        1
176
     1
 40
-50.0
176
     1
 90
        0
176
     1
290
     0
176
     1
290
     1
176
     1
290
     1
176
     1
290
     0
176
     1
290
     0
176
     1
290
     0
176
     1
290
     0
176
     1
290
     0
176
     1
290
     0
176
     1
 90
       50
176
     1
 40
0.0
176
     1
 40
1.0
176
     1
 90
        0
176
     1
 62
    18
420
        0
176
     1
 90
       50
176
     1
 90
        3
176
     1
 62
     5
420
      255
176
     1
290
     0
176
     1
 90
       50
176
     1
 90
       50
176
     1
 90
       50
176
     1
290
     0
176
     1
 90
       50
176
     1
 62
   256
176
     0
 40
1.0
176
     0
 90
        2
176
     1
  1
strokes_ogs.tif
176
     1
290
     0
176
     1
 40
1.0
176
     1
 40
1.0
176
     1
1001
ACAD
1000
AcDbSavedByObjectVersion
1070
     0
  0
VISUALSTYLE
  5
15BF
102
{ACAD_REACTORS
330
15A7
102
}
330
15A7
100
AcDbVisualStyle
  2
EdgeColorOff
 70
    22
177
     3
291
     1
 70
    58
 90
        2
176
     0
 90
        2
176
     0
 90
        0
176
     0
 90
        0
176
     0
 40
0.6
176
     0
 40
30.0
176
     0
 62
     7
420
 16777215
176
     0
 90
        1
176
     0
 90
        4
176
     0
 62
     7
176
     0
 62
   257
176
     0
 90
        1
176
     0
 90
        1
176
     0
 40
1.0
176
     0
 90
        8
176
     2
 62
     7
176
     0
 40
1.0
176
     0
 90
        1
176
     0
 90
        6
176
     0
 90
        2
176
     0
 62
     7
176
     0
 90
        5
176
     0
 90
        0
176
     0
 90
        0
176
     0
290
     0
176
     0
 90
        1
176
     0
 40
0.0
176
     0
 90
        0
176
     0
290
     0
176
     0
290
     1
176
     0
290
     1
176
     0
290
     0
176
     0
290
     0
176
     0
290
     0
176
     0
290
     0
176
     0
290
     0
176
     0
290
     0
176
     0
 90
       50
176
     0
 40
0.0
176
     0
 40
1.0
176
     0
 90
        0
176
     0
 62
    18
420
        0
176
     0
 90
       50
176
     0
 90
        3
176
     0
 62
     5
420
      255
176
     0
290
     0
176
     0
 90
       50
176
     0
 90
       50
176
     0
 90
       50
176
     0
290
     0
176
     0
 90
       50
176
     0
 62
   256
176
     0
 40
1.0
176
     0
 90
        2
176
     0
  1
strokes_ogs.tif
176
     0
290
     0
176
     0
 40
1.0
176
     0
 40
1.0
176
     0
1001
ACAD
1000
AcDbSavedByObjectVersion
1070
     0
  0
VISUALSTYLE
  5
15B6
102
{ACAD_REACTORS
330
15A7
102
}
330
15A7
100
AcDbVisualStyle
  2
Facepattern
 70
    15
177
     3
291
     1
 70
    58
 90
        2
176
     1
 90
        2
176
     1
 90
        0
176
     1
 90
        0
176
     1
 40
0.6
176
     1
 40
30.0
176
     1
 62
     7
420
 16777215
176
     1
 90
        1
176
     1
 90
        4
176
     1
 62
     7
176
     1
 62
   257
176
     1
 90
        1
176
     1
 90
        1
176
     1
 40
1.0
176
     1
 90
        8
176
     1
 62
     7
176
     1
 40
1.0
176
     1
 90
        1
176
     1
 90
        6
176
     1
 90
        2
176
     1
 62
     7
176
     1
 90
        5
176
     1
 90
        0
176
     1
 90
        0
176
     1
290
     0
176
     1
 90
        1
176
     1
 40
0.0
176
     1
 90
        0
176
     1
290
     0
176
     1
290
     1
176
     1
290
     1
176
     1
290
     0
176
     1
290
     0
176
     1
290
     0
176
     1
290
     0
176
     1
290
     0
176
     1
290
     0
176
     1
 90
       50
176
     1
 40
0.0
176
     1
 40
1.0
176
     1
 90
        0
176
     1
 62
    18
420
        0
176
     1
 90
       50
176
     1
 90
        3
176
     1
 62
     5
420
      255
176
     1
290
     0
176
     1
 90
       50
176
     1
 90
       50
176
     1
 90
       50
176
     1
290
     0
176
     1
 90
       50
176
     1
 62
   256
176
     0
 40
1.0
176
     0
 90
        2
176
     1
  1
strokes_ogs.tif
176
     1
290
     0
176
     1
 40
1.0
176
     1
 40
1.0
176
     1
1001
ACAD
1000
AcDbSavedByObjectVersion
1070
     0
  0
VISUALSTYLE
  5
15A8
102
{ACAD_REACTORS
330
15A7
102
}
330
15A7
100
AcDbVisualStyle
  2
Flat
 70
     0
177
     3
291
     1
 70
    58
 90
        2
176
     1
 90
        1
176
     1
 90
        1
176
     1
 90
        2
176
     1
 40
0.6
176
     1
 40
30.0
176
     1
 62
     7
420
 16777215
176
     1
 90
        0
176
     1
 90
        0
176
     1
 62
     7
176
     1
 62
   257
176
     1
 90
        1
176
     1
 90
        1
176
     1
 40
1.0
176
     1
 90
        8
176
     1
 62
     7
176
     1
 40
1.0
176
     1
 90
        1
176
     1
 90
        6
176
     1
 90
        2
176
     1
 62
     7
176
     1
 90
        5
176
     1
 90
        0
176
     1
 90
        0
176
     1
290
     0
176
     1
 90
       13
176
     1
 40
0.0
176
     1
 90
        0
176
     1
290
     0
176
     1
290
     1
176
     1
290
     1
176
     1
290
     0
176
     1
290
     0
176
     1
290
     0
176
     1
290
     0
176
     1
290
     0
176
     1
290
     0
176
     1
 90
       50
176
     1
 40
0.0
176
     1
 40
1.0
176
     1
 90
        0
176
     1
 62
    18
420
        0
176
     1
 90
       50
176
     1
 90
        3
176
     1
 62
     5
420
      255
176
     1
290
     0
176
     1
 90
       50
176
     1
 90
       50
176
     1
 90
       50
176
     1
290
     0
176
     1
 90
       50
176
     1
 62
   256
176
     0
 40
1.0
176
     0
 90
        2
176
     1
  1
strokes_ogs.tif
176
     1
290
     0
176
     1
 40
1.0
176
     1
 40
1.0
176
     1
1001
ACAD
1000
AcDbSavedByObjectVersion
1070
     0
  0
VISUALSTYLE
  5
15A9
102
{ACAD_REACTORS
330
15A7
102
}
330
15A7
100
AcDbVisualStyle
  2
FlatWithEdges
 70
     1
177
     3
291
     1
 70
    58
 90
        2
176
     1
 90
        1
176
     1
 90
        1
176
     1
 90
        2
176
     1
 40
0.6
176
     1
 40
30.0
176
     1
 62
     7
420
 16777215
176
     1
 90
        1
176
     1
 90
        0
176
     1
 62
     7
176
     1
 62
   257
176
     1
 90
        1
176
     1
 90
        1
176
     1
 40
1.0
176
     1
 90
        0
176
     1
 62
   257
176
     1
 40
1.0
176
     1
 90
        1
176
     1
 90
        6
176
     1
 90
        2
176
     1
 62
     7
176
     1
 90
        5
176
     1
 90
        0
176
     1
 90
        0
176
     1
290
     0
176
     1
 90
       13
176
     1
 40
0.0
176
     1
 90
        0
176
     1
290
     0
176
     1
290
     1
176
     1
290
     1
176
     1
290
     0
176
     1
290
     0
176
     1
290
     0
176
     1
290
     0
176
     1
290
     0
176
     1
290
     0
176
     1
 90
       50
176
     1
 40
0.0
176
     1
 40
1.0
176
     1
 90
        0
176
     1
 62
    18
420
        0
176
     1
 90
       50
176
     1
 90
        3
176
     1
 62
     5
420
      255
176
     1
290
     0
176
     1
 90
       50
176
     1
 90
       50
176
     1
 90
       50
176
     1
290
     0
176
     1
 90
       50
176
     1
 62
   256
176
     0
 40
1.0
176
     0
 90
        2
176
     1
  1
strokes_ogs.tif
176
     1
290
     0
176
     1
 40
1.0
176
     1
 40
1.0
176
     1
1001
ACAD
1000
AcDbSavedByObjectVersion
1070
     0
  0
VISUALSTYLE
  5
15AA
102
{ACAD_REACTORS
330
15A7
102
}
330
15A7
100
AcDbVisualStyle
  2
Gouraud
 70
     2
177
     3
291
     1
 70
    58
 90
        2
176
     1
 90
        2
176
     1
 90
        1
176
     1
 90
        2
176
     1
 40
0.6
176
     1
 40
30.0
176
     1
 62
     7
420
 16777215
176
     1
 90
        0
176
     1
 90
        0
176
     1
 62
     7
176
     1
 62
   257
176
     1
 90
        1
176
     1
 90
        1
176
     1
 40
1.0
176
     1
 90
        0
176
     1
 62
     7
176
     1
 40
1.0
176
     1
 90
        1
176
     1
 90
        6
176
     1
 90
        2
176
     1
 62
     7
176
     1
 90
        5
176
     1
 90
        0
176
     1
 90
        0
176
     1
290
     0
176
     1
 90
       13
176
     1
 40
0.0
176
     1
 90
        0
176
     1
290
     0
176
     1
290
     1
176
     1
290
     1
176
     1
290
     0
176
     1
290
     0
176
     1
290
     0
176
     1
290
     0
176
     1
290
     0
176
     1
290
     0
176
     1
 90
       50
176
     1
 40
0.0
176
     1
 40
1.0
176
     1
 90
        0
176
     1
 62
    18
420
        0
176
     1
 90
       50
176
     1
 90
        3
176
     1
 62
     5
420
      255
176
     1
290
     0
176
     1
 90
       50
176
     1
 90
       50
176
     1
 90
       50
176
     1
290
     0
176
     1
 90
       50
176
     1
 62
   256
176
     0
 40
1.0
176
     0
 90
        2
176
     1
  1
strokes_ogs.tif
176
     1
290
     0
176
     1
 40
1.0
176
     1
 40
1.0
176
     1
1001
ACAD
1000
AcDbSavedByObjectVersion
1070
     0
  0
VISUALSTYLE
  5
15AB
102
{ACAD_REACTORS
330
15A7
102
}
330
15A7
100
AcDbVisualStyle
  2
GouraudWithEdges
 70
     3
177
     3
291
     1
 70
    58
 90
        2
176
     1
 90
        2
176
     1
 90
        1
176
     1
 90
        2
176
     1
 40
0.6
176
     1
 40
30.0
176
     1
 62
     7
420
 16777215
176
     1
 90
        1
176
     1
 90
        0
176
     1
 62
     7
176
     1
 62
   257
176
     1
 90
        1
176
     1
 90
        1
176
     1
 40
1.0
176
     1
 90
        0
176
     1
 62
   257
176
     1
 40
1.0
176
     1
 90
        1
176
     1
 90
        6
176
     1
 90
        2
176
     1
 62
     7
176
     1
 90
        5
176
     1
 90
        0
176
     1
 90
        0
176
     1
290
     0
176
     1
 90
       13
176
     1
 40
0.0
176
     1
 90
        0
176
     1
290
     0
176
     1
290
     1
176
     1
290
     1
176
     1
290
     0
176
     1
290
     0
176
     1
290
     0
176
     1
290
     0
176
     1
290
     0
176
     1
290
     0
176
     1
 90
       50
176
     1
 40
0.0
176
     1
 40
1.0
176
     1
 90
        0
176
     1
 62
    18
420
        0
176
     1
 90
       50
176
     1
 90
        3
176
     1
 62
     5
420
      255
176
     1
290
     0
176
     1
 90
       50
176
     1
 90
       50
176
     1
 90
       50
176
     1
290
     0
176
     1
 90
       50
176
     1
 62
   256
176
     0
 40
1.0
176
     0
 90
        2
176
     1
  1
strokes_ogs.tif
176
     1
290
     0
176
     1
 40
1.0
176
     1
 40
1.0
176
     1
1001
ACAD
1000
AcDbSavedByObjectVersion
1070
     0
  0
VISUALSTYLE
  5
15AF
102
{ACAD_REACTORS
330
15A7
102
}
330
15A7
100
AcDbVisualStyle
  2
Hidden
 70
     6
177
     3
291
     0
 70
    58
 90
        1
176
     1
 90
        2
176
     1
 90
        2
176
     1
 90
        0
176
     1
 40
0.6
176
     1
 40
30.0
176
     1
 62
     7
420
 16777215
176
     1
 90
        2
176
     1
 90
        2
176
     1
 62
     7
176
     1
 62
   257
176
     1
 90
        2
176
     1
 90
        1
176
     1
 40
40.0
176
     1
 90
        0
176
     1
 62
   257
176
     1
 40
1.0
176
     1
 90
        1
176
     1
 90
        6
176
     1
 90
        2
176
     1
 62
     7
176
     1
 90
        3
176
     1
 90
        0
176
     1
 90
        0
176
     1
290
     0
176
     1
 90
        1
176
     1
 40
0.0
176
     1
 90
        0
176
     1
290
     0
176
     1
290
     1
176
     1
290
     1
176
     1
290
     0
176
     1
290
     0
176
     1
290
     0
176
     1
290
     0
176
     1
290
     0
176
     1
290
     0
176
     1
 90
       50
176
     1
 40
0.0
176
     1
 40
1.0
176
     1
 90
        0
176
     1
 62
    18
420
        0
176
     1
 90
       50
176
     1
 90
        3
176
     1
 62
     5
420
      255
176
     1
290
     0
176
     1
 90
       50
176
     1
 90
       50
176
     1
 90
       50
176
     1
290
     0
176
     1
 90
       50
176
     1
 62
   256
176
     0
 40
1.0
176
     0
 90
        2
176
     1
  1
strokes_ogs.tif
176
     1
290
     0
176
     1
 40
1.0
176
     1
 40
1.0
176
     1
1001
ACAD
1000
AcDbSavedByObjectVersion
1070
     0
  0
VISUALSTYLE
  5
15BD
102
{ACAD_REACTORS
330
15A7
102
}
330
15A7
100
AcDbVisualStyle
  2
JitterOff
 70
    20
177
     3
291
     1
 70
    58
 90
        2
176
     0
 90
        2
176
     0
 90
        0
176
     0
 90
        0
176
     0
 40
0.6
176
     0
 40
30.0
176
     0
 62
     7
420
 16777215
176
     0
 90
        1
176
     0
 90
        4
176
     0
 62
     7
176
     0
 62
   257
176
     0
 90
        1
176
     0
 90
        1
176
     0
 40
1.0
176
     0
 90
       10
176
     2
 62
     7
176
     0
 40
1.0
176
     0
 90
        1
176
     0
 90
        6
176
     0
 90
        2
176
     0
 62
     7
176
     0
 90
        5
176
     0
 90
        0
176
     0
 90
        0
176
     0
290
     0
176
     0
 90
        1
176
     0
 40
0.0
176
     0
 90
        0
176
     0
290
     0
176
     0
290
     1
176
     0
290
     1
176
     0
290
     0
176
     0
290
     0
176
     0
290
     0
176
     0
290
     0
176
     0
290
     0
176
     0
290
     0
176
     0
 90
       50
176
     0
 40
0.0
176
     0
 40
1.0
176
     0
 90
        0
176
     0
 62
    18
420
        0
176
     0
 90
       50
176
     0
 90
        3
176
     0
 62
     5
420
      255
176
     0
290
     0
176
     0
 90
       50
176
     0
 90
       50
176
     0
 90
       50
176
     0
290
     0
176
     0
 90
       50
176
     0
 62
   256
176
     0
 40
1.0
176
     0
 90
        2
176
     0
  1
strokes_ogs.tif
176
     0
290
     0
176
     0
 40
1.0
176
     0
 40
1.0
176
     0
1001
ACAD
1000
AcDbSavedByObjectVersion
1070
     0
  0
VISUALSTYLE
  5
15B5
102
{ACAD_REACTORS
330
15A7
102
}
330
15A7
100
AcDbVisualStyle
  2
Linepattern
 70
    14
177
     3
291
     1
 70
    58
 90
        2
176
     1
 90
        2
176
     1
 90
        0
176
     1
 90
        0
176
     1
 40
0.6
176
     1
 40
30.0
176
     1
 62
     7
420
 16777215
176
     1
 90
        1
176
     1
 90
        4
176
     1
 62
     7
176
     1
 62
   257
176
     1
 90
        7
176
     1
 90
        7
176
     1
 40
1.0
176
     1
 90
        8
176
     1
 62
     7
176
     1
 40
1.0
176
     1
 90
        1
176
     1
 90
        6
176
     1
 90
        2
176
     1
 62
     7
176
     1
 90
        5
176
     1
 90
        0
176
     1
 90
        0
176
     1
290
     0
176
     1
 90
        1
176
     1
 40
0.0
176
     1
 90
        0
176
     1
290
     0
176
     1
290
     1
176
     1
290
     1
176
     1
290
     0
176
     1
290
     0
176
     1
290
     0
176
     1
290
     0
176
     1
290
     0
176
     1
290
     0
176
     1
 90
       50
176
     1
 40
0.0
176
     1
 40
1.0
176
     1
 90
        0
176
     1
 62
    18
420
        0
176
     1
 90
       50
176
     1
 90
        3
176
     1
 62
     5
420
      255
176
     1
290
     0
176
     1
 90
       50
176
     1
 90
       50
176
     1
 90
       50
176
     1
290
     0
176
     1
 90
       50
176
     1
 62
   256
176
     0
 40
1.0
176
     0
 90
        2
176
     1
  1
strokes_ogs.tif
176
     1
290
     0
176
     1
 40
1.0
176
     1
 40
1.0
176
     1
1001
ACAD
1000
AcDbSavedByObjectVersion
1070
     0
  0
VISUALSTYLE
  5
15BE
102
{ACAD_REACTORS
330
15A7
102
}
330
15A7
100
AcDbVisualStyle
  2
OverhangOff
 70
    21
177
     3
291
     1
 70
    58
 90
        2
176
     0
 90
        2
176
     0
 90
        0
176
     0
 90
        0
176
     0
 40
0.6
176
     0
 40
30.0
176
     0
 62
     7
420
 16777215
176
     0
 90
        1
176
     0
 90
        4
176
     0
 62
     7
176
     0
 62
   257
176
     0
 90
        1
176
     0
 90
        1
176
     0
 40
1.0
176
     0
 90
        9
176
     2
 62
     7
176
     0
 40
1.0
176
     0
 90
        1
176
     0
 90
        6
176
     0
 90
        2
176
     0
 62
     7
176
     0
 90
        5
176
     0
 90
        0
176
     0
 90
        0
176
     0
290
     0
176
     0
 90
        1
176
     0
 40
0.0
176
     0
 90
        0
176
     0
290
     0
176
     0
290
     1
176
     0
290
     1
176
     0
290
     0
176
     0
290
     0
176
     0
290
     0
176
     0
290
     0
176
     0
290
     0
176
     0
290
     0
176
     0
 90
       50
176
     0
 40
0.0
176
     0
 40
1.0
176
     0
 90
        0
176
     0
 62
    18
420
        0
176
     0
 90
       50
176
     0
 90
        3
176
     0
 62
     5
420
      255
176
     0
290
     0
176
     0
 90
       50
176
     0
 90
       50
176
     0
 90
       50
176
     0
290
     0
176
     0
 90
       50
176
     0
 62
   256
176
     0
 40
1.0
176
     0
 90
        2
176
     0
  1
strokes_ogs.tif
176
     0
290
     0
176
     0
 40
1.0
176
     0
 40
1.0
176
     0
1001
ACAD
1000
AcDbSavedByObjectVersion
1070
     0
  0
VISUALSTYLE
  5
15B1
102
{ACAD_REACTORS
330
15A7
102
}
330
15A7
100
AcDbVisualStyle
  2
Realistic
 70
     8
177
     3
291
     0
 70
    58
 90
        2
176
     1
 90
        3
176
     1
 90
        0
176
     1
 90
        2
176
     1
 40
0.6
176
     1
 40
30.0
176
     1
 62
     7
420
 16777215
176
     1
 90
        0
176
     1
 90
        0
176
     1
 62
     7
176
     1
 62
   257
176
     1
 90
        1
176
     1
 90
        1
176
     1
 40
1.0
176
     1
 90
        8
176
     1
 62
   257
176
     1
 40
1.0
176
     1
 90
        1
176
     1
 90
        6
176
     1
 90
        2
176
     1
 62
     7
176
     1
 90
        3
176
     1
 90
        0
176
     1
 90
        0
176
     1
290
     0
176
     1
 90
       13
176
     1
 40
0.0
176
     1
 90
        0
176
     1
290
     0
176
     1
290
     1
176
     1
290
     1
176
     1
290
     0
176
     1
290
     0
176
     1
290
     0
176
     1
290
     0
176
     1
290
     0
176
     1
290
     0
176
     1
 90
       50
176
     1
 40
0.0
176
     1
 40
1.0
176
     1
 90
        0
176
     1
 62
    18
420
        0
176
     1
 90
       50
176
     1
 90
        3
176
     1
 62
     5
420
      255
176
     1
290
     0
176
     1
 90
       50
176
     1
 90
       50
176
     1
 90
       50
176
     1
290
     0
176
     1
 90
       50
176
     1
 62
   256
176
     0
 40
1.0
176
     0
 90
        2
176
     1
  1
strokes_ogs.tif
176
     1
290
     0
176
     1
 40
1.0
176
     1
 40
1.0
176
     1
1001
ACAD
1000
AcDbSavedByObjectVersion
1070
     0
  0
VISUALSTYLE
  5
15BC
102
{ACAD_REACTORS
330
15A7
102
}
330
15A7
100
AcDbVisualStyle
  2
Shaded
 70
    27
177
     3
291
     0
 70
    58
 90
        2
176
     1
 90
        2
176
     1
 90
        1
176
     1
 90
        2
176
     1
 40
0.6
176
     1
 40
30.0
176
     1
 62
     7
420
 16777215
176
     1
 90
        0
176
     1
 90
        4
176
     1
 62
     7
176
     1
 62
   257
176
     1
 90
        1
176
     1
 90
        1
176
     1
 40
1.0
176
     1
 90
        8
176
     1
 62
   257
176
     1
 40
1.0
176
     1
 90
        1
176
     1
 90
        6
176
     1
 90
        2
176
     1
 62
     8
420
  7895160
176
     1
 90
        3
176
     1
 90
        0
176
     1
 90
        0
176
     1
290
     0
176
     1
 90
        5
176
     1
 40
0.0
176
     1
 90
        0
176
     1
290
     0
176
     1
290
     1
176
     1
290
     1
176
     1
290
     0
176
     1
290
     0
176
     1
290
     0
176
     1
290
     0
176
     1
290
     0
176
     1
290
     0
176
     1
 90
       50
176
     1
 40
0.0
176
     1
 40
1.0
176
     1
 90
        0
176
     1
 62
    18
420
        0
176
     1
 90
       50
176
     1
 90
        3
176
     1
 62
     5
420
      255
176
     1
290
     0
176
     1
 90
       50
176
     1
 90
       50
176
     1
 90
       50
176
     1
290
     0
176
     1
 90
       50
176
     1
 62
   256
176
     0
 40
1.0
176
     0
 90
        2
176
     1
  1
strokes_ogs.tif
176
     1
290
     0
176
     1
 40
1.0
176
     1
 40
1.0
176
     1
1001
ACAD
1000
AcDbSavedByObjectVersion
1070
     0
  0
VISUALSTYLE
  5
15BB
102
{ACAD_REACTORS
330
15A7
102
}
330
15A7
100
AcDbVisualStyle
  2
Shaded with edges
 70
    26
177
     3
291
     0
 70
    58
 90
        2
176
     1
 90
        2
176
     1
 90
        1
176
     1
 90
        2
176
     1
 40
0.6
176
     1
 40
30.0
176
     1
 62
     7
420
 16777215
176
     1
 90
        1
176
     1
 90
        2
176
     1
 62
     7
176
     1
 62
   257
176
     1
 90
        2
176
     1
 90
        1
176
     1
 40
1.0
176
     1
 90
        8
176
     1
 62
   257
176
     1
 40
1.0
176
     1
 90
        1
176
     1
 90
        6
176
     1
 90
        2
176
     1
 62
     7
176
     1
 90
        3
176
     1
 90
        0
176
     1
 90
        0
176
     1
290
     0
176
     1
 90
        5
176
     1
 40
0.0
176
     1
 90
        0
176
     1
290
     0
176
     1
290
     1
176
     1
290
     1
176
     1
290
     0
176
     1
290
     0
176
     1
290
     0
176
     1
290
     0
176
     1
290
     0
176
     1
290
     0
176
     1
 90
       50
176
     1
 40
0.0
176
     1
 40
1.0
176
     1
 90
        0
176
     1
 62
    18
420
        0
176
     1
 90
       50
176
     1
 90
        3
176
     1
 62
     5
420
      255
176
     1
290
     0
176
     1
 90
       50
176
     1
 90
       50
176
     1
 90
       50
176
     1
290
     0
176
     1
 90
       50
176
     1
 62
   256
176
     0
 40
1.0
176
     0
 90
        2
176
     1
  1
strokes_ogs.tif
176
     1
290
     0
176
     1
 40
1.0
176
     1
 40
1.0
176
     1
1001
ACAD
1000
AcDbSavedByObjectVersion
1070
     0
  0
VISUALSTYLE
  5
15B8
102
{ACAD_REACTORS
330
15A7
102
}
330
15A7
100
AcDbVisualStyle
  2
Shades of Gray
 70
    23
177
     3
291
     0
 70
    58
 90
        2
176
     1
 90
        2
176
     1
 90
        3
176
     1
 90
        0
176
     1
 40
0.6
176
     1
 40
30.0
176
     1
 62
     7
420
 16777215
176
     1
 90
        2
176
     1
 90
        2
176
     1
 62
     7
176
     1
 62
     7
176
     1
 90
        1
176
     1
 90
        1
176
     1
 40
40.0
176
     1
 90
        8
176
     1
 62
     7
176
     1
 40
1.0
176
     1
 90
        1
176
     1
 90
        6
176
     1
 90
        2
176
     1
 62
     7
176
     1
 90
        3
176
     1
 90
        0
176
     1
 90
        0
176
     1
290
     0
176
     1
 90
        1
176
     1
 40
0.0
176
     1
 90
        0
176
     1
290
     0
176
     1
290
     1
176
     1
290
     1
176
     1
290
     0
176
     1
290
     0
176
     1
290
     0
176
     1
290
     0
176
     1
290
     0
176
     1
290
     0
176
     1
 90
       50
176
     1
 40
0.0
176
     1
 40
1.0
176
     1
 90
        0
176
     1
 62
    18
420
        0
176
     1
 90
       50
176
     1
 90
        3
176
     1
 62
     5
420
      255
176
     1
290
     0
176
     1
 90
       50
176
     1
 90
       50
176
     1
 90
       50
176
     1
290
     0
176
     1
 90
       50
176
     1
 62
   256
176
     0
 40
1.0
176
     0
 90
        2
176
     1
  1
strokes_ogs.tif
176
     1
290
     0
176
     1
 40
1.0
176
     1
 40
1.0
176
     1
1001
ACAD
1000
AcDbSavedByObjectVersion
1070
     0
  0
VISUALSTYLE
  5
15B9
102
{ACAD_REACTORS
330
15A7
102
}
330
15A7
100
AcDbVisualStyle
  2
Sketchy
 70
    24
177
     3
291
     0
 70
    58
 90
        1
176
     1
 90
        2
176
     1
 90
        2
176
     1
 90
        0
176
     1
 40
0.6
176
     1
 40
30.0
176
     1
 62
     7
420
 16777215
176
     1
 90
        2
176
     1
 90
        2
176
     1
 62
     7
176
     1
 62
     7
176
     1
 90
        1
176
     1
 90
        1
176
     1
 40
40.0
176
     1
 90
       11
176
     1
 62
     7
176
     1
 40
1.0
176
     1
 90
        1
176
     1
 90
        6
176
     1
 90
        2
176
     1
 62
     7
176
     1
 90
        6
176
     1
 90
        0
176
     1
 90
        0
176
     1
290
     0
176
     1
 90
        1
176
     1
 40
0.0
176
     1
 90
        0
176
     1
290
     0
176
     1
290
     1
176
     1
290
     1
176
     1
290
     0
176
     1
290
     0
176
     1
290
     0
176
     1
290
     0
176
     1
290
     0
176
     1
290
     0
176
     1
 90
       50
176
     1
 40
0.0
176
     1
 40
1.0
176
     1
 90
        0
176
     1
 62
    18
420
        0
176
     1
 90
       50
176
     1
 90
        3
176
     1
 62
     5
420
      255
176
     1
290
     0
176
     1
 90
       50
176
     1
 90
       50
176
     1
 90
       50
176
     1
290
     0
176
     1
 90
       50
176
     1
 62
   256
176
     0
 40
1.0
176
     0
 90
        2
176
     1
  1
strokes_ogs.tif
176
     1
290
     0
176
     1
 40
1.0
176
     1
 40
1.0
176
     1
1001
ACAD
1000
AcDbSavedByObjectVersion
1070
     0
  0
VISUALSTYLE
  5
15B4
102
{ACAD_REACTORS
330
15A7
102
}
330
15A7
100
AcDbVisualStyle
  2
Thicken
 70
    13
177
     3
291
     1
 70
    58
 90
        2
176
     1
 90
        2
176
     1
 90
        0
176
     1
 90
        0
176
     1
 40
0.6
176
     1
 40
30.0
176
     1
 62
     7
420
 16777215
176
     1
 90
        1
176
     1
 90
        4
176
     1
 62
     7
176
     1
 62
   257
176
     1
 90
        1
176
     1
 90
        1
176
     1
 40
1.0
176
     1
 90
       12
176
     1
 62
     7
176
     1
 40
1.0
176
     1
 90
        1
176
     1
 90
        6
176
     1
 90
        2
176
     1
 62
     7
176
     1
 90
        5
176
     1
 90
        0
176
     1
 90
        0
176
     1
290
     0
176
     1
 90
        1
176
     1
 40
0.0
176
     1
 90
        0
176
     1
290
     0
176
     1
290
     1
176
     1
290
     1
176
     1
290
     0
176
     1
290
     0
176
     1
290
     0
176
     1
290
     0
176
     1
290
     0
176
     1
290
     0
176
     1
 90
       50
176
     1
 40
0.0
176
     1
 40
1.0
176
     1
 90
        0
176
     1
 62
    18
420
        0
176
     1
 90
       50
176
     1
 90
        3
176
     1
 62
     5
420
      255
176
     1
290
     0
176
     1
 90
       50
176
     1
 90
       50
176
     1
 90
       50
176
     1
290
     0
176
     1
 90
       50
176
     1
 62
   256
176
     0
 40
1.0
176
     0
 90
        2
176
     1
  1
strokes_ogs.tif
176
     1
290
     0
176
     1
 40
1.0
176
     1
 40
1.0
176
     1
1001
ACAD
1000
AcDbSavedByObjectVersion
1070
     0
  0
VISUALSTYLE
  5
15AE
102
{ACAD_REACTORS
330
15A7
102
}
330
15A7
100
AcDbVisualStyle
  2
Wireframe
 70
     5
177
     3
291
     0
 70
    58
 90
        0
176
     1
 90
        2
176
     1
 90
        0
176
     1
 90
        0
176
     1
 40
0.6
176
     1
 40
30.0
176
     1
 62
     7
420
 16777215
176
     1
 90
        1
176
     1
 90
        4
176
     1
 62
     7
176
     1
 62
   257
176
     1
 90
        1
176
     1
 90
        1
176
     1
 40
1.0
176
     1
 90
        0
176
     1
 62
   257
176
     1
 40
1.0
176
     1
 90
        1
176
     1
 90
        6
176
     1
 90
        2
176
     1
 62
     7
176
     1
 90
        3
176
     1
 90
        0
176
     1
 90
        0
176
     1
290
     0
176
     1
 90
        1
176
     1
 40
0.0
176
     1
 90
        0
176
     1
290
     0
176
     1
290
     1
176
     1
290
     1
176
     1
290
     0
176
     1
290
     0
176
     1
290
     0
176
     1
290
     0
176
     1
290
     0
176
     1
290
     0
176
     1
 90
       50
176
     1
 40
0.0
176
     1
 40
1.0
176
     1
 90
        0
176
     1
 62
    18
420
        0
176
     1
 90
       50
176
     1
 90
        3
176
     1
 62
     5
420
      255
176
     1
290
     0
176
     1
 90
       50
176
     1
 90
       50
176
     1
 90
       50
176
     1
290
     0
176
     1
 90
       50
176
     1
 62
   256
176
     0
 40
1.0
176
     0
 90
        2
176
     1
  1
strokes_ogs.tif
176
     1
290
     0
176
     1
 40
1.0
176
     1
 40
1.0
176
     1
1001
ACAD
1000
AcDbSavedByObjectVersion
1070
     0
  0
VISUALSTYLE
  5
15BA
102
{ACAD_REACTORS
330
15A7
102
}
330
15A7
100
AcDbVisualStyle
  2
X-Ray
 70
    25
177
     3
291
     0
 70
    58
 90
        2
176
     1
 90
        2
176
     1
 90
        1
176
     1
 90
        1
176
     1
 40
0.5
176
     1
 40
30.0
176
     1
 62
     7
420
 16777215
176
     1
 90
        1
176
     1
 90
        0
176
     1
 62
     7
176
     1
 62
   257
176
     1
 90
        1
176
     1
 90
        1
176
     1
 40
1.0
176
     1
 90
        8
176
     1
 62
     7
176
     1
 40
1.0
176
     1
 90
        1
176
     1
 90
        6
176
     1
 90
        2
176
     1
 62
     7
176
     1
 90
        3
176
     1
 90
        0
176
     1
 90
        0
176
     1
290
     0
176
     1
 90
       13
176
     1
 40
0.0
176
     1
 90
        0
176
     1
290
     0
176
     1
290
     1
176
     1
290
     1
176
     1
290
     0
176
     1
290
     0
176
     1
290
     0
176
     1
290
     0
176
     1
290
     0
176
     1
290
     0
176
     1
 90
       50
176
     1
 40
0.0
176
     1
 40
1.0
176
     1
 90
        0
176
     1
 62
    18
420
        0
176
     1
 90
       50
176
     1
 90
        3
176
     1
 62
     5
420
      255
176
     1
290
     0
176
     1
 90
       50
176
     1
 90
       50
176
     1
 90
       50
176
     1
290
     0
176
     1
 90
       50
176
     1
 62
   256
176
     0
 40
1.0
176
     0
 90
        2
176
     1
  1
strokes_ogs.tif
176
     1
290
     0
176
     1
 40
1.0
176
     1
 40
1.0
176
     1
1001
ACAD
1000
AcDbSavedByObjectVersion
1070
     0
  0
DICTIONARYVAR
  5
160B
102
{ACAD_REACTORS
330
57C
102
}
330
57C
100
DictionaryVariables
280
     0
  1
1:1
  0
DICTIONARYVAR
  5
1607
102
{ACAD_REACTORS
330
57C
102
}
330
57C
100
DictionaryVariables
280
     0
  1
STANDARD
  0
DICTIONARYVAR
  5
1606
102
{ACAD_REACTORS
330
57C
102
}
330
57C
100
DictionaryVariables
280
     0
  1
STANDARD
  0
DICTIONARYVAR
  5
1608
102
{ACAD_REACTORS
330
57C
102
}
330
57C
100
DictionaryVariables
280
     0
  1
Imperial24
  0
DICTIONARYVAR
  5
1609
102
{ACAD_REACTORS
330
57C
102
}
330
57C
100
DictionaryVariables
280
     0
  1
Imperial24
  0
DICTIONARYVAR
  5
1441
102
{ACAD_REACTORS
330
57C
102
}
330
57C
100
DictionaryVariables
280
     0
  1
1
  0
DICTIONARYVAR
  5
1440
102
{ACAD_REACTORS
330
57C
102
}
330
57C
100
DictionaryVariables
280
     0
  1
1
  0
DICTIONARYVAR
  5
160D
102
{ACAD_REACTORS
330
57C
102
}
330
57C
100
DictionaryVariables
280
     0
  1
1
  0
DICTIONARYVAR
  5
160E
102
{ACAD_REACTORS
330
57C
102
}
330
57C
100
DictionaryVariables
280
     0
  1
15
  0
DICTIONARYVAR
  5
160C
102
{ACAD_REACTORS
330
57C
102
}
330
57C
100
DictionaryVariables
280
     0
  1
0
  0
DICTIONARYVAR
  5
160A
102
{ACAD_REACTORS
330
57C
102
}
330
57C
100
DictionaryVariables
280
     0
  1
0
  0
DICTIONARYVAR
  5
57D
102
{ACAD_REACTORS
330
57C
102
}
330
57C
100
DictionaryVariables
280
     0
  1
96
  0
DICTIONARY
  5
164A
102
{ACAD_REACTORS
330
1648
102
}
330
1648
100
AcDbDictionary
281
     1
  0
DICTIONARY
  5
1649
102
{ACAD_REACTORS
330
1648
102
}
330
1648
100
AcDbDictionary
281
     1
  3
1912320058672
350
1643
  3
1912320058688
350
1644
  3
1912320058704
350
1645
  3
1912320058720
350
1646
  3
1912320058736
350
1647
  0
ACAD_PROXY_OBJECT
  5
13F7
102
{ACAD_REACTORS
330
13F6
102
}
330
13F6
100
AcDbProxyObject
 90
      499
 91
      557
 95
   851991
 70
     0
161
               118
310
405010040CA904C415CD5B07571058
350
13F8
 94
        0
  0
DICTIONARY
  5
1405
102
{ACAD_REACTORS
330
13F6
102
}
330
13F6
100
AcDbDictionary
281
     1
  3
ANSI
350
1406
  3
ISO
350
14AC
  0
ACAD_PROXY_OBJECT
  5
134A
330
0
100
AcDbProxyObject
 90
      499
 91
      511
 95
   851991
 70
     0
161
               156
310
00010143D050D351505391D5531054925390D49C
330
1347
 94
        0
  0
ACAD_PROXY_OBJECT
  5
134B
330
0
100
AcDbProxyObject
 90
      499
 91
      511
 95
   851991
 70
     0
161
               148
310
000101439050D351531253915054925390D49C
330
1347
 94
        0
  0
ACAD_PROXY_OBJECT
  5
134C
330
0
100
AcDbProxyObject
 90
      499
 91
      512
 95
   851991
 70
     0
161
               156
310
000101439050D35154D6535093D314D25691508C
330
1347
 94
        0
  0
ACAD_PROXY_OBJECT
  5
134E
330
0
100
AcDbProxyObject
 90
      499
 91
      514
 95
   851991
 70
     0
161
               120
310
000101422565255A6557080C402B0057
330
1347
330
0
330
0
 94
        0
  0
ACAD_PROXY_OBJECT
  5
1355
330
0
100
AcDbProxyObject
 90
      499
 91
      520
 95
   851991
 70
     0
161
               366
310
0001014124FEA55D00507362E312E302E34014124FEA55D00507362E312E302E3440501000041905394D24CCC658
330
1347
330
1356
330
135A
 94
        0
  0
ACAD_PROXY_OBJECT
  5
1356
330
0
100
AcDbProxyObject
 90
      499
 91
      521
 95
   851991
 70
     0
161
                48
310
000190140A009C
330
1347
330
1357
 94
        0
  0
ACAD_PROXY_OBJECT
  5
1357
330
0
100
AcDbProxyObject
 90
      499
 91
      522
 95
   851991
 70
     0
161
                48
310
0001AA000000B1
330
1347
330
132B
330
1358
330
0
 94
        0
  0
ACAD_PROXY_OBJECT
  5
1358
330
0
100
AcDbProxyObject
 90
      499
 91
      523
 95
   851991
 70
     0
161
                28
310
0001AAAC
330
1347
 94
        0
  0
ACAD_PROXY_OBJECT
  5
135B
330
0
100
AcDbProxyObject
 90
      499
 91
      512
 95
   851991
 70
     0
161
               108
310
000101421053521310D05310D01C
330
1347
 94
        0
  0
ACAD_PROXY_OBJECT
  5
135C
330
0
100
AcDbProxyObject
 90
      499
 91
      512
 95
   851991
 70
     0
161
               124
310
00010142905354915554D1511253501C
330
1347
 94
        0
  0
ACAD_PROXY_OBJECT
  5
135D
330
0
100
AcDbProxyObject
 90
      499
 91
      512
 95
   851991
 70
     0
161
               132
310
00010143105354D150D51253D39112536C
330
1347
 94
        0
  0
ACAD_PROXY_OBJECT
  5
135E
330
0
100
AcDbProxyObject
 90
      499
 91
      512
 95
   851991
 70
     0
161
               124
310
00010142905355941093D4911154901C
330
1347
 94
        0
  0
ACAD_PROXY_OBJECT
  5
135F
330
0
100
AcDbProxyObject
 90
      499
 91
      512
 95
   851991
 70
     0
161
               116
310
0001014290535115D1D0D3D313D4AC
330
1347
 94
        0
  0
ACAD_PROXY_OBJECT
  5
1360
330
0
100
AcDbProxyObject
 90
      499
 91
      512
 95
   851991
 70
     0
161
               148
310
00010143505355925155D49151949154D2101C
330
1347
 94
        0
  0
ACAD_PROXY_OBJECT
  5
1361
330
0
100
AcDbProxyObject
 90
      499
 91
      512
 95
   851991
 70
     0
161
               172
310
00010144105350539393D51154149154D1549591501C
330
1347
 94
        0
  0
ACAD_PROXY_OBJECT
  5
1362
330
0
100
AcDbProxyObject
 90
      499
 91
      512
 95
   851991
 70
     0
161
               172
310
00010144105350555513D11253505494905391D1501C
330
1347
 94
        0
  0
ACAD_PROXY_OBJECT
  5
1363
330
0
100
AcDbProxyObject
 90
      499
 91
      512
 95
   851991
 70
     0
161
               124
310
00010142D0535156151491519112536C
330
1347
 94
        0
  0
ACAD_PROXY_OBJECT
  5
1364
330
0
100
AcDbProxyObject
 90
      499
 91
      512
 95
   851991
 70
     0
161
               132
310
00010142D05355105410539393D511501C
330
1347
 94
        0
  0
ACAD_PROXY_OBJECT
  5
1365
330
0
100
AcDbProxyObject
 90
      499
 91
      512
 95
   851991
 70
     0
161
               108
310
00010142105350555513D0D3101C
330
1347
 94
        0
  0
ACAD_PROXY_OBJECT
  5
1366
330
0
100
AcDbProxyObject
 90
      499
 91
      512
 95
   851991
 70
     0
161
               108
310
00010142105350D311915055105C
330
1347
 94
        0
  0
ACAD_PROXY_OBJECT
  5
1367
330
0
100
AcDbProxyObject
 90
      499
 91
      512
 95
   851991
 70
     0
161
               108
310
00010142105350D315925155D3FC
330
1347
 94
        0
  0
ACAD_PROXY_OBJECT
  5
1368
330
0
100
AcDbProxyObject
 90
      499
 91
      512
 95
   851991
 70
     0
161
               148
310
0001014350535212511156915493D11253501C
330
1347
 94
        0
  0
ACAD_PROXY_OBJECT
  5
1369
330
0
100
AcDbProxyObject
 90
      499
 91
      512
 95
   851991
 70
     0
161
               124
310
00010142905352105510D21254D3D01C
330
1347
 94
        0
  0
ACAD_PROXY_OBJECT
  5
136A
330
0
100
AcDbProxyObject
 90
      499
 91
      512
 95
   851991
 70
     0
161
               148
310
00010143905354D25391D3115210551310566C
330
1347
 94
        0
  0
ACAD_PROXY_OBJECT
  5
136B
330
0
100
AcDbProxyObject
 90
      499
 91
      512
 95
   851991
 70
     0
161
               124
310
00010142D0535115D1D193111254D42C
330
1347
 94
        0
  0
ACAD_PROXY_OBJECT
  5
136C
330
0
100
AcDbProxyObject
 90
      499
 91
      512
 95
   851991
 70
     0
161
               100
310
00010142105350555513D213AC
330
1347
 94
        0
  0
ACAD_PROXY_OBJECT
  5
136D
330
0
100
AcDbProxyObject
 90
      499
 91
      512
 95
   851991
 70
     0
161
               116
310
000101425053521390D3D55395101C
330
1347
 94
        0
  0
ACAD_PROXY_OBJECT
  5
136E
330
0
100
AcDbProxyObject
 90
      499
 91
      512
 95
   851991
 70
     0
161
               108
310
0001014210535213941493D2901C
330
1347
 94
        0
  0
ACAD_PROXY_OBJECT
  5
136F
330
0
100
AcDbProxyObject
 90
      499
 91
      512
 95
   851991
 70
     0
161
               108
310
000101421053521395165411507C
330
1347
 94
        0
  0
ACAD_PROXY_OBJECT
  5
1370
330
0
100
AcDbProxyObject
 90
      499
 91
      512
 95
   851991
 70
     0
161
               108
310
000101421053521395925155D0FC
330
1347
 94
        0
  0
ACAD_PROXY_OBJECT
  5
1371
330
0
100
AcDbProxyObject
 90
      499
 91
      512
 95
   851991
 70
     0
161
               140
310
00010143505354D150D51253D390D3D4166C
330
1347
 94
        0
  0
ACAD_PROXY_OBJECT
  5
1372
330
0
100
AcDbProxyObject
 90
      499
 91
      512
 95
   851991
 70
     0
161
               108
310
00010142105350D3141493D2903C
330
1347
 94
        0
  0
ACAD_PROXY_OBJECT
  5
1373
330
0
100
AcDbProxyObject
 90
      499
 91
      511
 95
   851991
 70
     0
161
               212
310
00010143905350555513D2105510D21493D500000000000002E40C
330
1347
 94
        0
  0
ACAD_PROXY_OBJECT
  5
1374
330
0
100
AcDbProxyObject
 90
      499
 91
      512
 95
   851991
 70
     0
161
               156
310
00010143905350555513D2105510D2111155101C
330
1347
 94
        0
  0
ACAD_PROXY_OBJECT
  5
1381
330
0
100
AcDbProxyObject
 90
      499
 91
      512
 95
   851991
 70
     0
161
               116
310
000101425053541051D1531153919C
330
1347
 94
        0
  0
ACAD_PROXY_OBJECT
  5
1382
330
0
100
AcDbProxyObject
 90
      499
 91
      512
 95
   851991
 70
     0
161
               108
310
000101421053555312539154D05C
330
1347
 94
        0
  0
ACAD_PROXY_OBJECT
  5
1383
330
0
100
AcDbProxyObject
 90
      499
 91
      512
 95
   851991
 70
     0
161
               108
310
000101421053559312539154D03C
330
1347
 94
        0
  0
ACAD_PROXY_OBJECT
  5
1384
330
0
100
AcDbProxyObject
 90
      499
 91
      512
 95
   851991
 70
     0
161
               140
310
00010143105354D1911254D41353D111501C
330
1347
 94
        0
  0
ACAD_PROXY_OBJECT
  5
1385
330
0
100
AcDbProxyObject
 90
      499
 91
      511
 95
   851991
 70
     0
161
               172
310
00010142505354119255105391C1C052DC9A6F10440C
330
1347
 94
        0
  0
ACAD_PROXY_OBJECT
  5
1386
330
0
100
AcDbProxyObject
 90
      499
 91
      511
 95
   851991
 70
     0
161
               164
310
000101421053559150D05551C000000000000E03FC
330
1347
 94
        0
  0
ACAD_PROXY_OBJECT
  5
1387
330
0
100
AcDbProxyObject
 90
      499
 91
      511
 95
   851991
 70
     0
161
               180
310
00010142905350931153911513D307B14AE47E17A843FC
330
1347
 94
        0
  0
ACAD_PROXY_OBJECT
  5
1388
330
0
100
AcDbProxyObject
 90
      499
 91
      511
 95
   851991
 70
     0
161
               172
310
0001014250535293D25391D05407B14AE47E17A843FC
330
1347
 94
        0
  0
ACAD_PROXY_OBJECT
  5
1389
330
0
100
AcDbProxyObject
 90
      499
 91
      511
 95
   851991
 70
     0
161
               172
310
000101425053541192551311538000000FC83D79741C
330
1347
 94
        0
  0
ACAD_PROXY_OBJECT
  5
138A
330
0
100
AcDbProxyObject
 90
      499
 91
      511
 95
   851991
 70
     0
161
               156
310
00010141D053559150D4D18000000000000E03FC
330
1347
 94
        0
  0
ACAD_PROXY_OBJECT
  5
138B
330
0
100
AcDbProxyObject
 90
      499
 91
      511
 95
   851991
 70
     0
161
               156
310
00010141D05354D19513D30FCA9F1D24D62503FC
330
1347
 94
        0
  0
ACAD_PROXY_OBJECT
  5
138C
330
0
100
AcDbProxyObject
 90
      499
 91
      511
 95
   851991
 70
     0
161
               172
310
000101425053541192551513D307B14AE47E17A843FC
330
1347
 94
        0
  0
ACAD_PROXY_OBJECT
  5
138D
330
0
100
AcDbProxyObject
 90
      499
 91
      511
 95
   851991
 70
     0
161
               188
310
00010142D05354D151D192551513D307B14AE47E17A843FC
330
1347
 94
        0
  0
ACAD_PROXY_OBJECT
  5
138E
330
0
100
AcDbProxyObject
 90
      499
 91
      511
 95
   851991
 70
     0
161
               148
310
000101419053541311538000000FC83D79741C
330
1347
 94
        0
  0
ACAD_PROXY_OBJECT
  5
138F
330
0
100
AcDbProxyObject
 90
      499
 91
      511
 95
   851991
 70
     0
161
               172
310
00010142505354105391D513D301C052DC9A6F10440C
330
1347
 94
        0
  0
ACAD_PROXY_OBJECT
  5
1390
330
0
100
AcDbProxyObject
 90
      499
 91
      511
 95
   851991
 70
     0
161
               132
310
0001014114D2569140000000000002440C
330
1347
 94
        0
  0
ACAD_PROXY_OBJECT
  5
1391
330
0
100
AcDbProxyObject
 90
      499
 91
      533
 95
   851991
 70
     0
161
               156
310
00010142905351D494149151925600503415347C
330
1347
 94
        0
  0
ACAD_PROXY_OBJECT
  5
1392
330
0
100
AcDbProxyObject
 90
      499
 91
      534
 95
   851991
 70
     0
161
               314
310
00014080509646973745363616C650000000000003C2FC000000000000F0BF0000003F20F5E5D04C
330
1347
 94
        0
  0
ACAD_PROXY_OBJECT
  5
1393
330
0
100
AcDbProxyObject
 90
      499
 91
      534
 95
   851991
 70
     0
161
               322
310
0001408050A65646175526F74617465060B51153EC87E4FC182D4454FB2119C0060B51153EC846500C
330
1347
 94
        0
  0
ACAD_PROXY_OBJECT
  5
1394
330
0
100
AcDbProxyObject
 90
      499
 91
      534
 95
   851991
 70
     0
161
               314
310
00014080509656461755477697374060B51153EC846500000000FC83D797C10000003F20F5E5D04C
330
1347
 94
        0
  0
ACAD_PROXY_OBJECT
  5
1395
330
0
100
AcDbProxyObject
 90
      499
 91
      535
 95
   851991
 70
     0
161
               294
310
000140C050A656467654F75747075740144F3B7F635ECB74A140A4817D41BDB1E5B1A5B994
330
1347
 94
        0
  0
ACAD_PROXY_OBJECT
  5
1396
330
0
100
AcDbProxyObject
 90
      499
 91
      536
 95
   851991
 70
     0
161
               154
310
0001404050B6564697450726576696577406404C
330
1347
 94
        0
  0
ACAD_PROXY_OBJECT
  5
1397
330
0
100
AcDbProxyObject
 90
      499
 91
      536
 95
   851991
 70
     0
161
               170
310
0001404050A666C6F77556C696E657342A3A00C0000C
330
1347
 94
        0
  0
ACAD_PROXY_OBJECT
  5
1398
330
0
100
AcDbProxyObject
 90
      499
 91
      536
 95
   851991
 70
     0
161
               170
310
0001404050A666C6F77566C696E657342A3A00C0000C
330
1347
 94
        0
  0
ACAD_PROXY_OBJECT
  5
1399
330
0
100
AcDbProxyObject
 90
      499
 91
      534
 95
   851991
 70
     0
161
               322
310
0001408050A666C7366456E645261640000000000003C2FC000000000000F0BF0000003F20F5E5D04C
330
1347
 94
        0
  0
ACAD_PROXY_OBJECT
  5
139A
330
0
100
AcDbProxyObject
 90
      499
 91
      535
 95
   851991
 70
     0
161
               246
310
000140C05086A6E33644D6F64650143E3BA24EB8A134A4817D3585B9D585B0
330
1347
 94
        0
  0
ACAD_PROXY_OBJECT
  5
139B
330
0
100
AcDbProxyObject
 90
      499
 91
      535
 95
   851991
 70
     0
161
               294
310
000140C050A6A6E33644F75747075740144F3B7F635ECB74A140A4817D41BDB1E5B1A5B994
330
1347
 94
        0
  0
ACAD_PROXY_OBJECT
  5
139C
330
0
100
AcDbProxyObject
 90
      499
 91
      534
 95
   851991
 70
     0
161
               306
310
000140805086C656E675065726300000000002016D002D431CEBE2361A3F0000003F20F5E5D04C
330
1347
 94
        0
  0
ACAD_PROXY_OBJECT
  5
139D
330
0
100
AcDbProxyObject
 90
      499
 91
      534
 95
   851991
 70
     0
161
               266
310
0001408050B6D61737344656E7369747942D431CEBE2361A3F0000003F20F5E5D04C
330
1347
 94
        0
  0
ACAD_PROXY_OBJECT
  5
139E
330
0
100
AcDbProxyObject
 90
      499
 91
      534
 95
   851991
 70
     0
161
               186
310
000140805096D617373546869636BA0000003F20F5E5D04C
330
1347
 94
        0
  0
ACAD_PROXY_OBJECT
  5
139F
330
0
100
AcDbProxyObject
 90
      499
 91
      535
 95
   851991
 70
     0
161
               230
310
000140C05086D6173735479706501436F2AB64A14CA4817D4DA195B1B0
330
1347
 94
        0
  0
ACAD_PROXY_OBJECT
  5
13A0
330
0
100
AcDbProxyObject
 90
      499
 91
      534
 95
   851991
 70
     0
161
               242
310
000140805086F667366446973744000000FC83D797C10000003F20F5E5D04C
330
1347
 94
        0
  0
ACAD_PROXY_OBJECT
  5
13A1
330
0
100
AcDbProxyObject
 90
      499
 91
      534
 95
   851991
 70
     0
161
               258
310
0001408050A7072696D52616469757342D431CEBE2361A3F0000003F20F5E5D04C
330
1347
 94
        0
  0
ACAD_PROXY_OBJECT
  5
13A2
330
0
100
AcDbProxyObject
 90
      499
 91
      534
 95
   851991
 70
     0
161
               194
310
0001408050A7072696D546F70526164A0000003F20F5E5D04C
330
1347
 94
        0
  0
ACAD_PROXY_OBJECT
  5
13A3
330
0
100
AcDbProxyObject
 90
      499
 91
      534
 95
   851991
 70
     0
161
               266
310
0001408050B7072696D5475626552616442D431CEBE2361A3F0000003F20F5E5D04C
330
1347
 94
        0
  0
ACAD_PROXY_OBJECT
  5
13A4
330
0
100
AcDbProxyObject
 90
      499
 91
      534
 95
   851991
 70
     0
161
               258
310
0001408050A7072696D4865696768744000000FC83D797C10000003F20F5E5D04C
330
1347
 94
        0
  0
ACAD_PROXY_OBJECT
  5
13A5
330
0
100
AcDbProxyObject
 90
      499
 91
      534
 95
   851991
 70
     0
161
               250
310
000140805097072696D5374416E678182D4454FB2119C0060B51153EC846500C
330
1347
 94
        0
  0
ACAD_PROXY_OBJECT
  5
13A6
330
0
100
AcDbProxyObject
 90
      499
 91
      534
 95
   851991
 70
     0
161
               322
310
0001408050A7072696D456E64416E67060B51153EC846500182D4454FB2119C0060B51153EC846500C
330
1347
 94
        0
  0
ACAD_PROXY_OBJECT
  5
13A7
330
0
100
AcDbProxyObject
 90
      499
 91
      534
 95
   851991
 70
     0
161
               242
310
000140805087265765374416E678182D4454FB2119C0060B51153EC846500C
330
1347
 94
        0
  0
ACAD_PROXY_OBJECT
  5
13A8
330
0
100
AcDbProxyObject
 90
      499
 91
      534
 95
   851991
 70
     0
161
               314
310
00014080509726576456E64416E67060B51153EC846500182D4454FB2119C0060B51153EC846500C
330
1347
 94
        0
  0
ACAD_PROXY_OBJECT
  5
13A9
330
0
100
AcDbProxyObject
 90
      499
 91
      536
 95
   851991
 70
     0
161
               194
310
0001404050C7266736655706174636865734290139C0C0000C
330
1347
 94
        0
  0
ACAD_PROXY_OBJECT
  5
13AA
330
0
100
AcDbProxyObject
 90
      499
 91
      536
 95
   851991
 70
     0
161
               194
310
0001404050C7266736656706174636865734290139C0C0000C
330
1347
 94
        0
  0
ACAD_PROXY_OBJECT
  5
13AB
330
0
100
AcDbProxyObject
 90
      499
 91
      535
 95
   851991
 70
     0
161
               246
310
000140C0508747562654D6F64650143E3BA24EB8A134A4817D3585B9D585B0
330
1347
 94
        0
  0
ACAD_PROXY_OBJECT
  5
13AC
330
0
100
AcDbProxyObject
 90
      499
 91
      534
 95
   851991
 70
     0
161
               274
310
0001408050C747562654469616D6574657242D431CEBE2361A3F0000003F20F5E5D04C
330
1347
 94
        0
  0
ACAD_PROXY_OBJECT
  5
13AD
330
0
100
AcDbProxyObject
 90
      499
 91
      536
 95
   851991
 70
     0
161
               130
310
00014040509696E746572506F6C79A404C
330
1347
 94
        0
  0
ACAD_PROXY_OBJECT
  5
13AE
330
0
100
AcDbProxyObject
 90
      499
 91
      536
 95
   851991
 70
     0
161
               162
310
0001404050D696E746572417567506F696E74A404C
330
1347
 94
        0
  0
ACAD_PROXY_OBJECT
  5
13AF
330
0
100
AcDbProxyObject
 90
      499
 91
      535
 95
   851991
 70
     0
161
               238
310
000140C0509696E7465727472696D014365EF257ECA108A4817D09BDD1A0
330
1347
 94
        0
  0
ACAD_PROXY_OBJECT
  5
13B0
330
0
100
AcDbProxyObject
 90
      499
 91
      535
 95
   851991
 70
     0
161
               230
310
000140C0509696E7465727479706501433136344A150A4817D51C9A5B4
330
1347
 94
        0
  0
ACAD_PROXY_OBJECT
  5
13B1
330
0
100
AcDbProxyObject
 90
      499
 91
      536
 95
   851991
 70
     0
161
               146
310
0001404050A636F726E65727472696D406404C
330
1347
 94
        0
  0
ACAD_PROXY_OBJECT
  5
13B2
330
0
100
AcDbProxyObject
 90
      499
 91
      536
 95
   851991
 70
     0
161
               130
310
000140405086F6673666B656570406404C
330
1347
 94
        0
  0
ACAD_PROXY_OBJECT
  5
13B3
330
0
100
AcDbProxyObject
 90
      499
 91
      536
 95
   851991
 70
     0
161
               146
310
0001404050A70726F6A4F757470757440A40CC
330
1347
 94
        0
  0
ACAD_PROXY_OBJECT
  5
13B4
330
0
100
AcDbProxyObject
 90
      499
 91
      535
 95
   851991
 70
     0
161
               270
310
000140C050D70726F6A446972656374696F6E014372F7AB6C0A124A4817DD92595DC
330
1347
 94
        0
  0
ACAD_PROXY_OBJECT
  5
13B5
330
0
100
AcDbProxyObject
 90
      499
 91
      536
 95
   851991
 70
     0
161
               130
310
0001404050870726F6A4B656570406404C
330
1347
 94
        0
  0
ACAD_PROXY_OBJECT
  5
13B6
330
0
100
AcDbProxyObject
 90
      499
 91
      535
 95
   851991
 70
     0
161
               278
310
000140C050B70726F6A53706163696E670144237164D2CA13CA4817D3DC1D1A5B585B0
330
1347
 94
        0
  0
ACAD_PROXY_OBJECT
  5
13B7
330
0
100
AcDbProxyObject
 90
      499
 91
      534
 95
   851991
 70
     0
161
               250
310
0001408050970726F6A54617065728182D4454FB21F9BF060B51153EC87E4FCC
330
1347
 94
        0
  0
ACAD_PROXY_OBJECT
  5
13B8
330
0
100
AcDbProxyObject
 90
      499
 91
      536
 95
   851991
 70
     0
161
               130
310
00014040508647261674B656570406404C
330
1347
 94
        0
  0
ACAD_PROXY_OBJECT
  5
13B9
330
0
100
AcDbProxyObject
 90
      499
 91
      535
 95
   851991
 70
     0
161
               302
310
000140C050F647261674F7269656E746174696F6E0143E590243F0A138A4817D39BDC9B585B0
330
1347
 94
        0
  0
ACAD_PROXY_OBJECT
  5
13BA
330
0
100
AcDbProxyObject
 90
      499
 91
      535
 95
   851991
 70
     0
161
               286
310
000140C050E647261675472616E736974696F6E0143A3B6A4DE0A10CA4817DCD0D85B194
330
1347
 94
        0
  0
ACAD_PROXY_OBJECT
  5
13BB
330
0
100
AcDbProxyObject
 90
      499
 91
      535
 95
   851991
 70
     0
161
               318
310
000140C051061646A757374436F6E74696E7569747901442F746C2F778A14CA4817D4DB5BDBDD1A0
330
1347
 94
        0
  0
ACAD_PROXY_OBJECT
  5
13BC
330
0
100
AcDbProxyObject
 90
      499
 91
      536
 95
   851991
 70
     0
161
               138
310
0001404050A61646A7573744B656570A404C
330
1347
 94
        0
  0
ACAD_PROXY_OBJECT
  5
13BD
330
0
100
AcDbProxyObject
 90
      499
 91
      534
 95
   851991
 70
     0
161
               250
310
0001408050972756C65576964746842D431CEBE2361A3F0000003F20F5E5D04C
330
1347
 94
        0
  0
ACAD_PROXY_OBJECT
  5
13BE
330
0
100
AcDbProxyObject
 90
      499
 91
      534
 95
   851991
 70
     0
161
               274
310
0001408050C616E616C797A65447261667421D139D28615ED8FE060B51153EC842500C
330
1347
 94
        0
  0
ACAD_PROXY_OBJECT
  5
13BF
330
0
100
AcDbProxyObject
 90
      499
 91
      536
 95
   851991
 70
     0
161
               210
310
0001404050F616E616C797A654E756D4C696E65734163FDFC0000C
330
1347
 94
        0
  0
ACAD_PROXY_OBJECT
  5
13C0
330
0
100
AcDbProxyObject
 90
      499
 91
      536
 95
   851991
 70
     0
161
               202
310
00014040512616E616C797A65526F746174654C696E6573A404C
330
1347
 94
        0
  0
ACAD_PROXY_OBJECT
  5
13C1
330
0
100
AcDbProxyObject
 90
      499
 91
      536
 95
   851991
 70
     0
161
               210
310
00014040513616E616C797A65446973706C61794C696E6573A404C
330
1347
 94
        0
  0
ACAD_PROXY_OBJECT
  5
13C2
330
0
100
AcDbProxyObject
 90
      499
 91
      536
 95
   851991
 70
     0
161
               258
310
00014040519616E616C797A655472616E736C7563656E7453757266616365A404C
330
1347
 94
        0
  0
ACAD_PROXY_OBJECT
  5
13CC
330
0
100
AcDbProxyObject
 90
      499
 91
      542
 95
   851991
 70
     0
161
               714
310
0001000000009AA6A9AA4051E547565204E6F762031332030363A32383A3332203230303720285554432901420D8B8C4B8C0B8C4C805184D6F6E204665622031332031353A31353A3231203230313701420D8B8C4B8C0B8C4C8C
330
1347
330
13CD
330
13CE
330
13D0
330
0
 94
        0
  0
ACAD_PROXY_OBJECT
  5
13CD
330
0
100
AcDbProxyObject
 90
      499
 91
      543
 95
   851991
 70
     0
161
                70
310
0001AAA80820000000
330
1347
330
13CD
330
13CD
 94
        0
  0
ACAD_PROXY_OBJECT
  5
13CE
330
0
100
AcDbProxyObject
 90
      499
 91
      544
 95
   851991
 70
     0
161
                48
310
000100000000A1
330
1347
330
0
330
13CF
330
0
330
0
 94
        0
  0
ACAD_PROXY_OBJECT
  5
13CF
330
0
100
AcDbProxyObject
 90
      499
 91
      545
 95
   851991
 70
     0
161
                40
310
000100AAAA00
330
1347
330
0
 94
        0
  0
ACAD_PROXY_OBJECT
  5
13D1
330
0
100
AcDbProxyObject
 90
      499
 91
      512
 95
   851991
 70
     0
161
               124
310
00010142905350D3D39114D414D6905C
330
1347
 94
        0
  0
ACAD_PROXY_OBJECT
  5
13D2
330
0
100
AcDbProxyObject
 90
      499
 91
      512
 95
   851991
 70
     0
161
               124
310
000101429053549553115353D111501C
330
1347
 94
        0
  0
ACAD_PROXY_OBJECT
  5
13D3
330
0
100
AcDbProxyObject
 90
      499
 91
      512
 95
   851991
 70
     0
161
               108
310
00010142105354D2D353D111501C
330
1347
 94
        0
  0
ACAD_PROXY_OBJECT
  5
13D4
330
0
100
AcDbProxyObject
 90
      499
 91
      512
 95
   851991
 70
     0
161
               140
310
000101435053511253511254D41353D1116C
330
1347
 94
        0
  0
ACAD_PROXY_OBJECT
  5
13D5
330
0
100
AcDbProxyObject
 90
      499
 91
      511
 95
   851991
 70
     0
161
               180
310
00010142905354D2D05391D513D300000000000001040C
330
1347
 94
        0
  0
ACAD_PROXY_OBJECT
  5
13D6
330
0
100
AcDbProxyObject
 90
      499
 91
      533
 95
   851991
 70
     0
161
               164
310
00010142505354D2D4D516531140505434F4E542AC
330
1347
 94
        0
  0
ACAD_PROXY_OBJECT
  5
13D7
330
0
100
AcDbProxyObject
 90
      499
 91
      512
 95
   851991
 70
     0
161
               108
310
00010142105350D351111253501C
330
1347
 94
        0
  0
ACAD_PROXY_OBJECT
  5
13D8
330
0
100
AcDbProxyObject
 90
      499
 91
      512
 95
   851991
 70
     0
161
               108
310
00010142105350D3D35414D5901C
330
1347
 94
        0
  0
ACAD_PROXY_OBJECT
  5
13D9
330
0
100
AcDbProxyObject
 90
      499
 91
      533
 95
   851991
 70
     0
161
               164
310
0001014290535410549514D4119600504CADFB0C2C
330
1347
 94
        0
  0
ACAD_PROXY_OBJECT
  5
13DA
330
0
100
AcDbProxyObject
 90
      499
 91
      533
 95
   851991
 70
     0
161
               220
310
0001014350535513D3D31093D11654119600508C2B0D9CEDEC3DEA8C
330
1347
 94
        0
  0
ACAD_PROXY_OBJECT
  5
13DB
330
0
100
AcDbProxyObject
 90
      499
 91
      512
 95
   851991
 70
     0
161
               116
310
000101425053511254D410D3D3901C
330
1347
 94
        0
  0
ACAD_PROXY_OBJECT
  5
13DC
330
0
100
AcDbProxyObject
 90
      499
 91
      512
 95
   851991
 70
     0
161
               108
310
00010142105350D3D39114D4101C
330
1347
 94
        0
  0
ACAD_PROXY_OBJECT
  5
13DD
330
0
100
AcDbProxyObject
 90
      499
 91
      512
 95
   851991
 70
     0
161
               124
310
0001014290535490511114D414D6919C
330
1347
 94
        0
  0
ACAD_PROXY_OBJECT
  5
13E3
330
0
100
AcDbProxyObject
 90
      499
 91
      512
 95
   851991
 70
     0
161
               132
310
00010142D05050555513D4D3D31591501C
330
1347
 94
        0
  0
ACAD_PROXY_OBJECT
  5
13E4
330
0
100
AcDbProxyObject
 90
      499
 91
      512
 95
   851991
 70
     0
161
               156
310
00010143905050555513D054D4D153509311501C
330
1347
 94
        0
  0
ACAD_PROXY_OBJECT
  5
13E5
330
0
100
AcDbProxyObject
 90
      499
 91
      512
 95
   851991
 70
     0
161
               148
310
00010143505055925155D49154D513D491501C
330
1347
 94
        0
  0
ACAD_PROXY_OBJECT
  5
13E6
330
0
100
AcDbProxyObject
 90
      499
 91
      512
 95
   851991
 70
     0
161
               124
310
00010142D050525394D15495105094EC
330
1347
 94
        0
  0
ACAD_PROXY_OBJECT
  5
13E7
330
0
100
AcDbProxyObject
 90
      499
 91
      512
 95
   851991
 70
     0
161
               148
310
00010143505054D0D15391555411105511501C
330
1347
 94
        0
  0
ACAD_PROXY_OBJECT
  5
13E8
330
0
100
AcDbProxyObject
 90
      499
 91
      533
 95
   851991
 70
     0
161
               172
310
00010143105054D5509054D4D354119600503535542C
330
1347
 94
        0
  0
ACAD_PROXY_OBJECT
  5
13E9
330
0
100
AcDbProxyObject
 90
      499
 91
      533
 95
   851991
 70
     0
161
               172
310
00010142905054D0D15391541196005055343454E45C
330
1347
 94
        0
  0
ACAD_PROXY_OBJECT
  5
13EA
330
0
100
AcDbProxyObject
 90
      499
 91
      512
 95
   851991
 70
     0
161
               148
310
00010143505350555513D313D0D2D4D0D3901C
330
1347
 94
        0
  0
ACAD_PROXY_OBJECT
  5
13EF
330
0
100
AcDbProxyObject
 90
      499
 91
      551
 95
   851991
 70
     0
161
                32
310
0001000000
330
1347
340
13EC
330
13F1
330
13EC
 94
        0
  0
ACAD_PROXY_OBJECT
  5
13F0
330
0
100
AcDbProxyObject
 90
      499
 91
      552
 95
   851991
 70
     0
161
                18
310
00018C
330
1347
 94
        0
  0
ACAD_PROXY_OBJECT
  5
13F1
330
0
100
AcDbProxyObject
 90
      499
 91
      553
 95
   851991
 70
     0
161
               119
310
0001014194D4D497CC4C1050055400
330
1347
330
13EF
330
13F0
 94
        0
  0
ACAD_PROXY_OBJECT
  5
13F2
330
0
100
AcDbProxyObject
 90
      499
 91
      554
 95
   851991
 70
     0
161
                40
310
000100AAAA00
330
1347
330
13F1
 94
        0
  0
ACAD_PROXY_OBJECT
  5
13F3
330
0
100
AcDbProxyObject
 90
      499
 91
      555
 95
   851991
 70
     0
161
               108
310
000190140A000000000000AAAAAC
330
1347
330
13F4
330
13F4
330
13F4
330
13F4
330
13F4
330
0
 94
        0
  0
ACAD_PROXY_OBJECT
  5
13F4
330
0
100
AcDbProxyObject
 90
      499
 91
      556
 95
   851991
 70
     0
161
                51
310
00010000AAAA8C
330
1347
330
13F3
330
13F1
 94
        0
  0
ACAD_PROXY_OBJECT
  5
1404
330
0
100
AcDbProxyObject
 90
      499
 91
      533
 95
   851991
 70
     0
161
               148
310
00010142105350D55494D51100504414E5349C
330
1347
 94
        0
  0
ACAD_PROXY_OBJECT
  5
14CB
330
0
100
AcDbProxyObject
 90
      499
 91
      598
 95
   851991
 70
     0
161
                28
310
0001406C
330
1347
 94
        0
  0
DICTIONARY
  5
133E
102
{ACAD_REACTORS
330
133D
102
}
330
133D
100
AcDbDictionary
281
     1
  3
DWGSETTINGS
350
133F
  3
TRANSSETTINGS
350
1343
  0
ACAD_PROXY_OBJECT
  5
1407
102
{ACAD_REACTORS
330
133D
102
}
330
133D
100
AcDbProxyObject
 90
      499
 91
      565
 95
   851991
 70
     0
161
             12922
310
41103491013041105357CC10747A404C504414D5F314391E9013241105357CC90547A404CD04414D5F334190F9013441105357CD10343E404D504414D5F3540D0F9013641105357CD90247A404DD04414D5F374110F9013841105357CE10143E404E504414D5F397F641102324141505357CC4C10747A408D10505414D5F31
310
3140D0F902495041505357CC4C90747902408C13905414D5F304E41D1E902314E41505357CC5390E47A408C93905414D5F324E4151E902334E41505357CCD390643E408D13905414D5F344E40D0F902354E41505357CD5390343E408D93905414D5F364E4091E902374E41505357CDD390443E408E13905414D5F384E4050F
310
902394E41505357CE539FD90440CC9053906414D5F31304E41D1E90334414E41905357CC4C5390343E40D25413906414D5F31324E41D1E409044B4C494E41505357D0D310143D094112539193D08414D5F50415245464110F42D055241484D3541905357D093D4907479094115925155D08414D5F56494557534050F42D064
310
24548494E4441905357D253959FD90D415514905253105414D5F545240D0F4250348494441905357D2125110743D0940D59254D06414D5F56495341D1E4250650415244494D42505357D4105491125350343D0941949151911253509414D5F52454644494D4110F42553411092139590139CFFFFFFFF415092139594D06424
310
548494E44CFFFFFFFF411093D48C9055241484D354050F411093D48CD055241484D354091E411093D48D5055241484D35CFFFFFFFF4110D0530C90134CFFFFFFFF4110D0530CD01344091E4110D0530D5013441D1E4110D0530DD01344793C4110D1539390137CFFFFFFFF4110D15395D0137CFFFFFFFF4110D312539044B4
310
C494ECFFFFFFFF4110D3D38C50130CFFFFFFFF4110D3D38C90131CFFFFFFFF4110D3D38CD0132CFFFFFFFF4110D3D38D10132CFFFFFFFF411111551050134CFFFFFFFF4111125051D0135CFFFFFFFF411112531250135CFFFFFFFF411112535410650415244494DCFFFFFFFF411112535490652454644494DCFFFFFFFF4111
310
91535390138CFFFFFFFF4151915354139013840CFFFFFFFF4151915354D41023441CFFFFFFFF4151915354D5102344140D0F41519153559390132CFFFFFFFF4151915355951013240D0F4112105510D0138CFFFFFFFF411212511390133CFFFFFFFF4112125115D0133CFFFFFFFF411213125390134CFFFFFFFF411213D0D3
310
90137CFFFFFFFF411213D0D5D0137CFFFFFFFF4112539193D04494E464FCFFFFFFFF411311505110135CFFFFFFFF419397D0921395902394ECFFFFFFFF419397D0D3D38C502304ECFFFFFFFF419397D0D3D38C902314ECFFFFFFFF419397D0D3D38CD02324ECFFFFFFFF419397D0D3D38D102324ECFFFFFFFF419397D0D153
310
93902374ECFFFFFFFF419397D0D15395D02374ECFFFFFFFF419397D1125312502354ECFFFFFFFF419397D2105510D02384ECFFFFFFFF419397D2125113902334ECFFFFFFFF419397D2125115D02334ECFFFFFFFF419397D3115051102354ECFFFFFFFF419397D391D25410349504ECFFFFFFFF419397D412105390334414EC
310
FFFFFFFF419397D510D3D3902304ECFFFFFFFF419397D5121312502344ECFFFFFFFF419397D5131153902304ECFFFFFFFF419397D594131250332414ECFFFFFFFF411391D2541024950CFFFFFFFF411410530C9055241484D354050F411410530CD055241484D354091E411410530D5055241484D35CFFFFFFFF4114121053
310
9023441CFFFFFFFF411413D4D390135CFFFFFFFF411490D1D390137CFFFFFFFF411490D1D5D0137CFFFFFFFF4114D09492D013441D1E4114D150D510134CFFFFFFFF4114D6508CD01354091E411354D653501354091E411510D3D390130CFFFFFFFF411512131250134CFFFFFFFF411512550C9055241484D354050F411512
310
550CD055241484D354091E411512550D5055241484D35CFFFFFFFF411513115390130CFFFFFFFF415514905253105545241494CCFFFFFFFF411514931250134CFFFFFFFF411516150C5013640D0F411516150C9013640D0F411516150CD0136CFFFFFFFF411516150D5013641D1E411516150DD01364793C4115925155D045
310
6494557CFFFFFFFF4115915112103484944CFFFFFFFF4115915115903564953CFFFFFFFF41159413125023241CFFFFFFFF411692569050134CFFFFFFFFAA9FD404FE4290143D024790343D0443D054790643D074790E4791E4F1FD8C
340
3D9
340
3D9
340
3D9
340
407
340
3D9
340
3D9
340
3D9
340
3F8
340
3D9
340
3D9
340
3F8
340
40B
340
3D9
340
3D9
340
3D9
340
3D9
340
407
340
3D9
340
3D9
340
3D9
340
3F8
340
3D9
340
3D9
340
3F8
340
40B
340
3D9
340
140B
340
3D9
340
3D9
340
3D9
340
3D9
340
3D9
340
407
340
3D9
340
3D9
340
3D9
340
3D8
340
3D8
340
3D8
340
3D8
340
3D8
340
3D8
340
3D8
340
3D8
340
3D8
340
3F9
340
3D8
340
3D8
340
3D8
340
3D8
340
3D8
340
3D8
340
3D8
340
3D8
340
3D8
340
3D8
340
3D8
340
3D8
340
3D8
340
3D9
340
3D8
340
3D8
340
3D8
340
3D8
340
408
340
3D8
340
3D8
340
3F9
340
3D8
340
3D8
340
3D8
340
3D8
340
3D8
340
3D8
340
3D8
340
3D8
340
3F9
340
3D8
340
3D8
340
3D8
340
408
340
3D8
340
3D8
340
3D8
340
3D8
340
3D8
340
408
340
3D8
340
40B
340
3D8
340
3D8
340
3D8
340
3D8
340
3D8
340
3D8
340
3F9
340
3D8
340
3D8
340
3D8
340
3D8
340
3D8
340
3D8
340
408
340
3D8
340
3D8
340
3D8
340
3D8
340
3D8
340
3D8
340
3D8
340
3D8
340
3D8
340
3D8
340
3D8
340
3D8
340
3D8
340
3D8
340
40B
340
1411
 94
        0
  0
ACAD_PROXY_OBJECT
  5
14C5
102
{ACAD_REACTORS
330
14C0
102
}
330
14C0
100
AcDbProxyObject
 90
      499
 91
      597
 95
   851991
 70
     0
161
               253
310
43D1444494D454E53494F4E2C414D44545F2A5F44494D404A9012A404A9012AC
 94
        0
  0
ACAD_PROXY_OBJECT
  5
14C4
102
{ACAD_REACTORS
330
14C0
102
}
330
14C0
100
AcDbProxyObject
 90
      499
 91
      597
 95
   851991
 70
     0
161
               181
310
43D012A42D05357D191504B505357CA9012A404A9012AC
 94
        0
  0
ACAD_PROXY_OBJECT
  5
14C1
102
{ACAD_REACTORS
330
14C0
102
}
330
14C0
100
AcDbProxyObject
 90
      499
 91
      597
 95
   851991
 70
     0
161
               133
310
43D054841544348404A9012A404A9012AC
 94
        0
  0
ACAD_PROXY_OBJECT
  5
14C2
102
{ACAD_REACTORS
330
14C0
102
}
330
14C0
100
AcDbProxyObject
 90
      499
 91
      597
 95
   851991
 70
     0
161
               549
310
43D044C494E4549CE0B0E138B0A8B4E0B0A8B4E138B105357CE0B105357CE138B0A8B505357CE0B0A8B505357CE139012A404A910494E534552542C535444504152543244C
 94
        0
  0
ACAD_PROXY_OBJECT
  5
14C6
102
{ACAD_REACTORS
330
14C0
102
}
330
14C0
100
AcDbProxyObject
 90
      499
 91
      597
 95
   851991
 70
     0
161
               181
310
43D0341524341105357CD5012A404C906494E534552544
 94
        0
  0
ACAD_PROXY_OBJECT
  5
14C3
102
{ACAD_REACTORS
330
14C0
102
}
330
14C0
100
AcDbProxyObject
 90
      499
 91
      597
 95
   851991
 70
     0
161
              1053
310
43D7841434D46434652414D452C41434D444154554D5441524745542C41434D444154554D49442C41434D57454C4453594D2C41434D5355524653594D2C41434D4645415449442C41434D504152545245462C41434D42414C4C4F4F4E2C414D44544544474553594D2C414D47534352455743414C435441424C45404A9012A
310
404A9012AC
 94
        0
  0
LAYER_INDEX
  5
1432
102
{ACAD_REACTORS
330
1431
102
}
330
1431
100
AcDbIndex
 40
2459380.70988426
100
AcDbLayerIndex
  8
0
360
1433
 90
        4
  8
DAI
360
1434
 90
        0
  8
1
360
1435
 90
        6
  8
2
360
1436
 90
        0
  8
3
360
1437
 90
       46
  8
4
360
1438
 90
        0
  8
5
360
1439
 90
        0
  8
6
360
143A
 90
        0
  8
7
360
143B
 90
        0
  8
8
360
143C
 90
        0
  8
DEFPOINTS
360
143D
 90
       11
  8
ASHADE
360
143E
 90
        3
  0
DICTIONARY
  5
164D
330
15DA
100
AcDbDictionary
280
     1
281
     1
  3
ACAD_XREC_ROUNDTRIP
360
164E
  0
DICTIONARY
  5
1598
330
1597
100
AcDbDictionary
280
     1
281
     1
  3
BUMPTILE
360
159A
  3
DIFFUSETILE
360
1599
  3
OPACITYTILE
360
159D
  3
REFLECTIONTILE
360
159C
  3
REFRACTIONTILE
360
159E
  3
SPECULARTILE
360
159B
  0
DICTIONARY
  5
1590
330
158F
100
AcDbDictionary
280
     1
281
     1
  3
BUMPTILE
360
1592
  3
DIFFUSETILE
360
1591
  3
OPACITYTILE
360
1595
  3
REFLECTIONTILE
360
1594
  3
REFRACTIONTILE
360
1596
  3
SPECULARTILE
360
1593
  0
DICTIONARY
  5
15A0
330
159F
100
AcDbDictionary
280
     1
281
     1
  3
BUMPTILE
360
15A2
  3
DIFFUSETILE
360
15A1
  3
OPACITYTILE
360
15A5
  3
REFLECTIONTILE
360
15A4
  3
REFRACTIONTILE
360
15A6
  3
SPECULARTILE
360
15A3
  0
DICTIONARY
  5
164B
330
15D8
100
AcDbDictionary
280
     1
281
     1
  3
ACAD_XREC_ROUNDTRIP
360
164C
  0
DICTIONARY
  5
1640
330
15C2
100
AcDbDictionary
280
     1
281
     1
  3
ACAD_ROUNDTRIP_2008_TABLESTYLE_CELLSTYLEMAP
360
1641
  0
XRECORD
  5
1643
102
{ACAD_REACTORS
330
1649
102
}
330
1649
100
AcDbXrecord
280
     1
  1
AcDb_Thumbnail_Schema
102
{ATTRRECORD
341
1644
  2
AcDbDs::TreatedAsObjectData
280
     1
291
     1
102
ATTRRECORD}
102
{ATTRRECORD
341
1645
  2
AcDbDs::Legacy
280
     1
291
     1
102
ATTRRECORD}
  2
AcDbDs::ID
280
    10
 91
        8
102
{ATTRRECORD
341
1646
  2
AcDs:Indexable
280
     1
291
     1
102
ATTRRECORD}
102
{ATTRRECORD
341
1647
  2
AcDbDs::HandleAttribute
280
     7
282
     1
102
ATTRRECORD}
  2
Thumbnail_Data
280
    15
 91
        0
  0
XRECORD
  5
1644
102
{ACAD_REACTORS
330
1649
102
}
330
1649
100
AcDbXrecord
280
     1
  1
AcDbDs::TreatedAsObjectDataSchema
  2
AcDbDs::TreatedAsObjectData
280
     1
 91
        0
  0
XRECORD
  5
1645
102
{ACAD_REACTORS
330
1649
102
}
330
1649
100
AcDbXrecord
280
     1
  1
AcDbDs::LegacySchema
  2
AcDbDs::Legacy
280
     1
 91
        0
  0
XRECORD
  5
1646
102
{ACAD_REACTORS
330
1649
102
}
330
1649
100
AcDbXrecord
280
     1
  1
AcDbDs::IndexedPropertySchema
  2
AcDs:Indexable
280
     1
 91
        0
  0
XRECORD
  5
1647
102
{ACAD_REACTORS
330
1649
102
}
330
1649
100
AcDbXrecord
280
     1
  1
AcDbDs::HandleAttributeSchema
  2
AcDbDs::HandleAttribute
280
     7
 91
        1
284
     1
  0
ACAD_PROXY_OBJECT
  5
13F8
102
{ACAD_REACTORS
330
13F7
102
}
330
13F7
100
AcDbProxyObject
 90
      499
 91
      558
 95
   851991
 70
     0
161
               195
310
057356C1D5C406406AA8FFFFFFFF0AE5065353525F3130404C
330
3DD
330
0
330
13F1
 94
        0
  0
ACAD_PROXY_OBJECT
  5
1406
102
{ACAD_REACTORS
330
1405
102
}
330
1405
100
AcDbProxyObject
 90
      499
 91
      564
 95
   851991
 70
     0
161
              2275
310
570B81E85EB51B8BE3FD04414E5349405901409022E07A17AD46E2F8FD22087A1C82C6DAA6EAE4CCA8CAF0E8A6E8C88120284A0B1B6A321A329BA3220480A1A82C6DAAECAD8C8D2DCCEA6E8C8812028420B1B6A4B229BA3220480A1682C6DA88C2E8EADAA6E8C88120284A0B1B6A127A6A9BA3220480A2082DAC8E888CAE8C
310
2D2D8A6F2DAA6E8C88120288A0B6B23A29B2B1BA34B7B729BCB6A9BA3220480A2282DAC8E886CADCE8CAE498D2DCCAA6E8C88120288A0B6B23A2A343932B0B22634B732A9BA3220480A1682DAC8E89CDEE8CAA6E8C88120285A0B1A0B6B3A630BCA9BA3220480A1682C682DACE88D2DAA6E8C88120288A0B1A0B6B3A437B63
310
2A1B430B93A29BA3220480A1A82C682DACEA8D2E8D8CAA6E8C88120280A04C
340
1412
360
1413
360
1414
360
1415
360
1416
360
1417
360
1418
360
1419
360
141A
360
141B
360
141C
360
141D
360
1421
360
1422
360
142D
360
142E
 94
        0
  0
ACAD_PROXY_OBJECT
  5
14AC
102
{ACAD_REACTORS
330
1405
102
}
330
1405
100
AcDbProxyObject
 90
      499
 91
      583
 95
   851991
 70
     0
161
              2377
310
5700000000000000C40D0349534F40590140902000000000000031032228821682DAC8E88AC8CECAA6E8C8812028720B1B6A9BAB9332A32BC3A29BA3220480A1282C6DA8C868CA6E8C88120286A0B1B6ABB2B63234B733A9BA3220480A1082C6DA92C8A6E8C88120285A0B1B6A230BA3AB6A9BA3220480A1282C6DA849E9AA
310
6E8C8812028820B6B23A2232BA30B4B629BCB6A9BA3220480A2282DAC8E8A6CAC6E8D2DEDCA6F2DAA6E8C88120288A0B6B23A21B2B73A32B92634B732A9BA3220480A2282DAC8E8A8D0E4CAC2C898D2DCCAA6E8C88120285A0B6B23A2737BA32A9BA3220480A1682C682DACE98C2F2A6E8C88120285A0B1A0B6B3A234B6A9B
310
A3220480A2282C682DACE90DED8CA86D0C2E4E8A6E8C88120286A0B1A0B6B3AA34BA3632A9BA3220480C814C
340
149D
360
14AD
360
14AE
360
14AF
360
14B0
360
14B1
360
14B2
360
14B3
360
14B4
360
14B5
360
14B6
360
14B7
360
14B8
360
14B9
360
14BA
360
14BB
360
14BC
 94
        0
  0
ACAD_PROXY_OBJECT
  5
133F
102
{ACAD_REACTORS
330
133E
102
}
330
133E
100
AcDbProxyObject
 90
      499
 91
      507
 95
   851991
 70
     0
161
              2468
310
4050B44574753455454494E4753A1286829C8E82A4A482B282A106660F8686AF86C608321A2A720A723A0A849A1ABE1C983E18999AA0C868A9C889282940000000000001C07E83A1A2A72224A0A9A0A8598171ABE1897183E18971AA0E868A9C8892A6A8940000000000001807E8321A2A72622A7250000000000000701FA0
310
C868A9C9E8C8C940000000000001C07E84A1A624A720A92920ACA0A87181718991ABE1817191ABE18171AA108698929C8AA8B2A082A0AB098929C8A84A22BA3AAA9A1A0A622A50A0E9882A6A89E849482A02608426A0A5A2AB24A2ABA7E8120CA0A68682988A0C00800010652455649534941501304154D0D0531150540CC4
310
E8C50954494D455354414D504A0C28549525E3C734141D5915494D253D3905414C4D4B8C0C1107B44574753455454494E4753454E447DC
 94
        0
  0
ACAD_PROXY_OBJECT
  5
1343
102
{ACAD_REACTORS
330
133E
102
}
330
133E
100
AcDbProxyObject
 90
      499
 91
      507
 95
   851991
 70
     0
161
               852
310
4050D5452414E5353455454494E4753A2488A482AE929C8EA8A4829CA69882A8929E9C0C00800050D4F524947494E414C4C595F4F4E0600400008529A7AAA921A2A620A723A0A81A52827212AAA0A48AA68AA4AC8A0C0080001107B44574753455454494E4753454E447DC
 94
        0
  0
IDBUFFER
  5
1433
330
0
100
AcDbIdBuffer
330
87C
330
877
330
5D0
330
5CF
  0
IDBUFFER
  5
1434
330
0
100
AcDbIdBuffer
  0
IDBUFFER
  5
1435
330
0
100
AcDbIdBuffer
330
10C0
330
10D7
330
10D8
330
10DE
330
10DF
330
11EE
  0
IDBUFFER
  5
1436
330
0
100
AcDbIdBuffer
  0
IDBUFFER
  5
1437
330
0
100
AcDbIdBuffer
330
1617
330
1618
330
10C5
330
10CF
330
10D9
330
10DD
330
11EF
330
11F0
330
11F1
330
11F2
330
11F4
330
11F5
330
11F6
330
11F7
330
11F8
330
11FC
330
11FD
330
11FE
330
11FF
330
1200
330
120E
330
1213
330
126D
330
126E
330
126F
330
127C
330
127D
330
127E
330
127F
330
1280
330
1283
330
1284
330
12D3
330
12D4
330
12D5
330
12D7
330
12D8
330
12D9
330
12DA
330
12DB
330
12DC
330
12DD
330
12E2
330
12E3
330
12E4
330
12E5
  0
IDBUFFER
  5
1438
330
0
100
AcDbIdBuffer
  0
IDBUFFER
  5
1439
330
0
100
AcDbIdBuffer
  0
IDBUFFER
  5
143A
330
0
100
AcDbIdBuffer
  0
IDBUFFER
  5
143B
330
0
100
AcDbIdBuffer
  0
IDBUFFER
  5
143C
330
0
100
AcDbIdBuffer
  0
IDBUFFER
  5
143D
330
0
100
AcDbIdBuffer
330
1201
330
1203
330
1204
330
1205
330
1206
330
121C
330
121D
330
12DE
330
12DF
330
12E0
330
12E1
  0
IDBUFFER
  5
143E
330
0
100
AcDbIdBuffer
330
F8
330
F9
330
FA
  0
XRECORD
  5
164E
102
{ACAD_REACTORS
330
164D
102
}
330
164D
100
AcDbXrecord
280
     1
102
DISPLAYNAME
  1
Imperial24
102
FLAGS
 90
        0
  0
XRECORD
  5
159A
102
{ACAD_REACTORS
330
1598
102
}
330
1598
100
AcDbXrecord
280
     1
270
     1
271
     1
  0
XRECORD
  5
1599
102
{ACAD_REACTORS
330
1598
102
}
330
1598
100
AcDbXrecord
280
     1
270
     1
271
     1
  0
XRECORD
  5
159D
102
{ACAD_REACTORS
330
1598
102
}
330
1598
100
AcDbXrecord
280
     1
270
     1
271
     1
  0
XRECORD
  5
159C
102
{ACAD_REACTORS
330
1598
102
}
330
1598
100
AcDbXrecord
280
     1
270
     1
271
     1
  0
XRECORD
  5
159E
102
{ACAD_REACTORS
330
1598
102
}
330
1598
100
AcDbXrecord
280
     1
270
     1
271
     1
  0
XRECORD
  5
159B
102
{ACAD_REACTORS
330
1598
102
}
330
1598
100
AcDbXrecord
280
     1
270
     1
271
     1
  0
XRECORD
  5
1592
102
{ACAD_REACTORS
330
1590
102
}
330
1590
100
AcDbXrecord
280
     1
270
     1
271
     1
  0
XRECORD
  5
1591
102
{ACAD_REACTORS
330
1590
102
}
330
1590
100
AcDbXrecord
280
     1
270
     1
271
     1
  0
XRECORD
  5
1595
102
{ACAD_REACTORS
330
1590
102
}
330
1590
100
AcDbXrecord
280
     1
270
     1
271
     1
  0
XRECORD
  5
1594
102
{ACAD_REACTORS
330
1590
102
}
330
1590
100
AcDbXrecord
280
     1
270
     1
271
     1
  0
XRECORD
  5
1596
102
{ACAD_REACTORS
330
1590
102
}
330
1590
100
AcDbXrecord
280
     1
270
     1
271
     1
  0
XRECORD
  5
1593
102
{ACAD_REACTORS
330
1590
102
}
330
1590
100
AcDbXrecord
280
     1
270
     1
271
     1
  0
XRECORD
  5
15A2
102
{ACAD_REACTORS
330
15A0
102
}
330
15A0
100
AcDbXrecord
280
     1
270
     1
271
     1
  0
XRECORD
  5
15A1
102
{ACAD_REACTORS
330
15A0
102
}
330
15A0
100
AcDbXrecord
280
     1
270
     1
271
     1
  0
XRECORD
  5
15A5
102
{ACAD_REACTORS
330
15A0
102
}
330
15A0
100
AcDbXrecord
280
     1
270
     1
271
     1
  0
XRECORD
  5
15A4
102
{ACAD_REACTORS
330
15A0
102
}
330
15A0
100
AcDbXrecord
280
     1
270
     1
271
     1
  0
XRECORD
  5
15A6
102
{ACAD_REACTORS
330
15A0
102
}
330
15A0
100
AcDbXrecord
280
     1
270
     1
271
     1
  0
XRECORD
  5
15A3
102
{ACAD_REACTORS
330
15A0
102
}
330
15A0
100
AcDbXrecord
280
     1
270
     1
271
     1
  0
XRECORD
  5
164C
102
{ACAD_REACTORS
330
164B
102
}
330
164B
100
AcDbXrecord
280
     1
102
DISPLAYNAME
  1
Imperial24
102
FLAGS
 90
        0
  0
CELLSTYLEMAP
  5
1641
102
{ACAD_REACTORS
330
1640
102
}
330
1640
100
AcDbCellStyleMap
 90
        3
300
CELLSTYLE
  1
TABLEFORMAT_BEGIN
 90
        5
170
     1
 91
        0
 92
    32768
 62
   257
 93
        1
300
CONTENTFORMAT
  1
CONTENTFORMAT_BEGIN
 90
        0
 91
        0
 92
      512
 93
        0
300

 40
0.0
140
1.0
 94
        5
 62
     0
340
3D5
144
0.25
309
CONTENTFORMAT_END
171
     0
 94
        0
309
TABLEFORMAT_END
  1
CELLSTYLE_BEGIN
 90
        1
 91
        1
300
_TITLE
309
CELLSTYLE_END
300
CELLSTYLE
  1
TABLEFORMAT_BEGIN
 90
        5
170
     1
 91
        0
 92
        0
 62
   257
 93
        1
300
CONTENTFORMAT
  1
CONTENTFORMAT_BEGIN
 90
        0
 91
        0
 92
      512
 93
        0
300

 40
0.0
140
1.0
 94
        5
 62
     0
340
3D5
144
0.18
309
CONTENTFORMAT_END
171
     0
 94
        0
309
TABLEFORMAT_END
  1
CELLSTYLE_BEGIN
 90
        2
 91
        1
300
_HEADER
309
CELLSTYLE_END
300
CELLSTYLE
  1
TABLEFORMAT_BEGIN
 90
        5
170
     1
 91
        0
 92
        0
 62
   257
 93
        1
300
CONTENTFORMAT
  1
CONTENTFORMAT_BEGIN
 90
        0
 91
        0
 92
      512
 93
        0
300

 40
0.0
140
1.0
 94
        2
 62
     0
340
3D5
144
0.18
309
CONTENTFORMAT_END
171
     0
 94
        0
309
TABLEFORMAT_END
  1
CELLSTYLE_BEGIN
 90
        3
 91
        2
300
_DATA
309
CELLSTYLE_END
  0
ACAD_PROXY_OBJECT
  5
1413
330
1406
100
AcDbProxyObject
 90
      499
 91
      566
 95
   851991
 70
     0
161
                96
310
57020E80A0280A0280A0280857
 94
        0
  0
ACAD_PROXY_OBJECT
  5
1414
330
1406
100
AcDbProxyObject
 90
      499
 91
      567
 95
   851991
 70
     0
161
               332
310
5710E405014050140501405014050140501405014250140501405014050140501200000000000000040C
340
141E
 94
        0
  0
ACAD_PROXY_OBJECT
  5
1415
330
1406
100
AcDbProxyObject
 90
      499
 91
      568
 95
   851991
 70
     0
161
               402
310
570C199999999999E99F91F405014050140501405014050140501405014050140501405014050140501405014050140501404C
340
0
 94
        0
  0
ACAD_PROXY_OBJECT
  5
1416
330
1406
100
AcDbProxyObject
 90
      499
 91
      569
 95
   851991
 70
     0
161
                10
310
570C
 94
        0
  0
ACAD_PROXY_OBJECT
  5
1417
330
1406
100
AcDbProxyObject
 90
      499
 91
      570
 95
   851991
 70
     0
161
               223
310
572290EA22A7D90F49F9353333333333727F44D4CCCCCCCCCDC9FA04
340
141F
340
1420
 94
        0
  0
ACAD_PROXY_OBJECT
  5
1418
330
1406
100
AcDbProxyObject
 90
      499
 91
      571
 95
   851991
 70
     0
161
             12377
310
5710E411255115350141236025B6901405014069011349A4F2590CB64FD3347454E545241434F2C4A504E2C302C8D8096DA2C47454E54524154582C25732C2847454E4D53472067656E647767203232322940690120281A8AA2CA0282484A4BE52028120280A03202269349E4B2196C9FA668E8A9CA8A482869E5894A09C58
310
605921292F94588E8A9CA8A482A8B0584AE658508E8A9C9AA68E40CECADCC8EECE406464665280D202405044E414D454050496BC914F4051C40640A8BA5C2E97CBE502404CD1D15395149050D3CB1294138B0C0B25AF2453CB11D15395149055160B095CCB0A11D1539354D1C819D95B991DD9C80C8C8D8A50190A3D504152
310
543A4E414D4540480A0A888AA686A480A0921C12D7C80A3A80C81D10782C06030180C8099A3A2A72A2920A1A79625282716181648704B5F1623A2A72A2920AA2C1612B9961423A2A726A9A39033B2B7323BB39019189B94A024809014214D51053911054911014122D2E29A50147501904A383BFDFEFF5FBFCFD3347454E54
310
5241434F2C4A504E2C302C8B4B8A692C47454E54524154582C25732C2847454E4D53472067656E64776720323138294049012028426A0AA22A924A0A62028246EF4BDFA028EA0320B41416D838E9017D9FA668E8A9CA8A482869E5894A09C5860591BBD2F7E588E8A9CA8A482A8B0584AE658508E8A9C9AA68E40CECADCC8E
310
ECE406464625280D202405044E4F544540504928D8B4C4051D40641A8BA5C2E97CBE5F23F4CD1D15395149050D3CB1294138B0C0B24A362D30B11D15395149055160B095CCB0A11D1539354D1C819D95B991DD9C80C8C8D4A501A40480A0CAC8A9C889EA480A0D9BBDBB81BD6080A3A80C83D174B85D2F97CBE47E9AA3A2A7
310
2A2920A1A79625282716181666EF6EE06F581623A2A72A2920AA2C1612B9961423A2A726A9A39033B2B7323BB39019191A14A0348090141911154D0D48C90141A43825AF880C90147501908A20F0580C0603019013447454E545241434F2C4A504E2C302C90E096BE20322C47454E54524154582C25732C2847454E4D53472
310
067656E6477672033362940490120284A9AA20A72220A922192028345A5C53490192028EA0321347077FBFDFEBF7F9FA6A8E8A9CA8A482869E5894A09C586059169714D24064588E8A9CA8A482A8B0584AE658508E8A9C9AA68E40CECADCC8EECE4064646052809202405094D4154455249414C32405068DDE97BF20324051
310
D40642A8282DB071D202FB3F4D11D15395149050D3CB1294138B0C0B2377A5EFC80C8B11D15395149055160B095CCB0A11D1539354D1C819D95B991DD9C80D0C0A501240480A089A82A6A680A091D7F2F9480A3A80A0485A0681174B85D2F97CBE47E9923A2A72A2920A1A796252827161816475FCBE51623A2A72A2920AA2
310
C1612B9961423A2A726A9A39033B2B7323BB3901A1914A0221C7AA2A8B254A082A4A8749A82A6A6809014154149250D150141226FE29A501475014090C409022E970BA5F2F97C8FD3247454E545241434F2C4A504E2C302C89BF8A692C47454E54524154582C25732C2847454E4D53472067656E6477672034332940490120
310
281A224A6A02824850CB202028EA028121A81A045D2E174BE5F2F91FA648E8A9CA8A482869E5894A09C58605921432C80588E8A9CA8A482A8B0584AE658508E8A9C9AA68E40CECADCC8EECE406868528092024050E441022E07A17AD46E338FD1E004062B355AAD56AB7D8FCACD56AB55AADF63F41CF4F125511534F901406
310
2B355AAD56AB7D8FCACD56AB55AADF63F41CF4F125511534F9014062431F8FC5E0F3B8FC90C7E3F1783CEE3F41CF4F125511534F9014062431F8FC5E0F3B8FC90C7E3F1783CEE3F41CF4F125511534F90140A404ACD56AB55AADF63F2B355AAD56AB7D8FD073D3C4954454D3E405063D3C5154593E405018ACD56AB55AADF6
310
3F2B355AAD56AB7D8FD073D3C4954454D3E40640400ACD56AB55AADF63F2B355AAD56AB7D8FE880000000000000208081A0881A068120480A032208521122080D21480D211480A1485214852050000000000003C2FC000000000000F0BF4050241C3BDF4F8D976EA23F0EF7D3E365DBA88FCB81E85EB51B8BE3FC80D069014
310
090541D06901A5C0F42F5A8DC5F1FA04812028098A0280CC
340
0
340
0
 94
        0
  0
ACAD_PROXY_OBJECT
  5
1419
330
1406
100
AcDbProxyObject
 90
      499
 91
      572
 95
   851991
 70
     0
161
               960
310
5700B81E85EB51B8CE3F4BCF511155105253080F11115510525317D3105091530F971414D0D05311480F11115510525317D05094D4D0D053114F92341C9A9999999999B93F26A666666666724FC000000000000E03F40000000000000040000000000000051000000000000002440478B81E85EB51B8CE3F79
340
40B
340
1412
 94
        0
  0
ACAD_PROXY_OBJECT
  5
141A
330
1406
100
AcDbProxyObject
 90
      499
 91
      573
 95
   851991
 70
     0
161
               745
310
570031703D0BD6A3719C7E999EA9A2A1AA24A7A7101E29A2A1AA24A7A72FA620A122A62FA324A929AA1F169E29A2A1AA24A7A72FA620A122A62FA620A9AA1F1353333333333B27EFF41C8823C4D4CCCCCCCCCEC9FC5C0F42F5A8DC671FCC
340
40B
340
1412
 94
        0
  0
ACAD_PROXY_OBJECT
  5
141B
330
1406
100
AcDbProxyObject
 90
      499
 91
      574
 95
   851991
 70
     0
161
               279
310
5702B8716D9CEF7C33F0A5723F0BD4A2F0FC295C8FC2F528BC3FA199999999999F99FC
 94
        0
  0
ACAD_PROXY_OBJECT
  5
141C
330
1406
100
AcDbProxyObject
 90
      499
 91
      575
 95
   851991
 70
     0
161
                14
310
5724
340
0
 94
        0
  0
ACAD_PROXY_OBJECT
  5
141D
330
1406
100
AcDbProxyObject
 90
      499
 91
      576
 95
   851991
 70
     0
161
              5890
310
571084050B90142A4050240509C3DDCCDFDAB0C42031405EA3D3C696628657175616C28486F6C653A7461707065642C223022292C222525632220486F6C653A6469612C20486F6C653A6E6F6D696E616C2022202220696628657175616C28486F6C653A756E6974732C223122292C2278222C222D22292022202220486F6C6
310
53A706974636864657363293E207B5C46414D4744543B787D203C696628657175616C28486F6C653A7465726D696E6174696F6E2C223022292C486F6C653A64657074682C228AD192CA22293E5C507B5C46414D4744543B767D2525633C486F6C653A63746469613E207B5C46414D4744543B787D203C486F6C653A6374646
310
57074683E4064050340509C3DDCCDFDAB0C42031405E33D3C696628657175616C28486F6C653A7461707065642C223022292C222525632220486F6C653A6469612C20486F6C653A6E6F6D696E616C2022202220696628657175616C28486F6C653A756E6974732C223122292C2278222C222D22292022202220486F6C653A7
310
06974636864657363293E207B5C46414D4744543B787D203C696628657175616C28486F6C653A7465726D696E6174696F6E2C223022292C486F6C653A64657074682C228AD192CA22293E5C507B5C46414D4744543B777D2525633C486F6C653A63746469613E2058203C486F6C653A6374616E676C653E252564406405014
310
0509C3DDCCDFDAB0C42031405B43D3C696628657175616C28486F6C653A7461707065642C223022292C222525632220486F6C653A6469612C20486F6C653A6E6F6D696E616C2022202220696628657175616C28486F6C653A756E6974732C223122292C2278222C222D22292022202220486F6C653A7069746368646573632
310
93E5C507B5C46414D4744543B787D203C696628657175616C28486F6C653A7465726D696E6174696F6E2C223022292C486F6C653A64657074682C228AD192CA22293E4064051E40509C3DDCCDFDAB0C420314050C3D3C535444503A444553433E40640515A8C
 94
        0
  0
ACAD_PROXY_OBJECT
  5
1421
330
1406
100
AcDbProxyObject
 90
      499
 91
      577
 95
   851991
 70
     0
161
                20
310
57101C
340
1407
 94
        0
  0
ACAD_PROXY_OBJECT
  5
1422
330
1406
100
AcDbProxyObject
 90
      499
 91
      578
 95
   851991
 70
     0
161
               258
310
57102000000000000380FC000000000000E03F408F0F9023C3E40DB18CCCFFFF8C
340
1423
340
0
340
0
340
1424
340
1425
340
0
340
1426
340
1427
340
142C
340
0
 94
        0
  0
ACAD_PROXY_OBJECT
  5
142D
330
1406
100
AcDbProxyObject
 90
      499
 91
      579
 95
   851991
 70
     0
161
             12785
310
5711A023FFFFFFFD010300002E07A17AD46E2F8FC09010300002E07A17AD46E2F8FC0805098DC0955782CCD8BDC4014E11D15395149050D3CB1294138B0C0B23702555E0B3362F710B11D15395149055160B095CCB0A11D1539354D1C819D95B991A5B5E880CCC0A78000C000000000000000000000000000000007B14AE47
310
E17AA43F2E07A17AD46E2F8FD021EC52B91F85EA90FCB81E85EB51B8BE3F40A0141E322B0EC3337B64053647454E545241434F2C4A504E2C302C8C8AC3B0CCDED92C47454E54524154582C25732C2847454E4D53472067656E64696D7A20333129E0003000000000000000000000000000000001EC52B91F85EA90FCB81E85
310
EB51B8BE3F4087B14AE47E17AA43F2E07A17AD46E2F8FD0290B4410F4450240D04415014391244D05449074510C4350F000141232D24D7C053247454E545241434F2C4A504E2C302C8CB4935F2C47454E54524154582C25732C2847454E4D53472067656E64696D7A20312900010105002214000282465A49AF80A648E8A9C
310
A8A482869E5894A09C586059196926BE588E8A9CA8A482A8B0584AE658508E8A9C9AA68E40CECADCC8D2DAF4406252000202080043E80005028C8A014C11D15395149050D3CB1294138B0C0B23228B11D15395149055160B095CCB0A11D1539354D1C819D95B991A5B5E880C8A405163D3C486F6C654974656D3E3C486F6C6
310
5496E6465783E010104002234000280AC00A5E8E8A9CA8A482869E5894A09C586058B0588E8A9CA8A482A8B0584AE658508E8A9C9AA68E40CECADCC8D2DAF4406652000202000040A800050159014BD1D15395149050D3CB1294138B0C0B164B11D15395149055160B095CCB0A11D1539354D1C819D95B991A5B5E880D0A40
310
00404000081D0000A02A40297A3A2A72A2920A1A796252827161816291623A2A72A2920AA2C1612B9961423A2A726A9A39033B2B73234B6BD101B148000808000104A000140A0F4C053047454E545241434F2C4A504E2C302C83D32C47454E54524154582C25732C2847454E4D53472067656E64696D7A2037290001010300
310
20B400028246C04B6D00A668E8A9CA8A482869E5894A09C5860591B012DB4588E8A9CA8A482A8B0584AE658508E8A9C9AA68E40CECADCC8D2DAF4406268520002020A004068000507B2DDC3DEAFB8BD014D91D15395149050D3CB1294138B0C0B2CB770F7ABEE2F4B11D15395149055160B095CCB0A11D1539354D1C819D95
310
B991A5B5E880C4D4A400040414008750000A0519140298A3A2A72A2920A1A79625282716181646451623A2A72A2920AA2C1612B9961423A2A726A9A39033B2B73234B6BD10189B148000808200112A0001426322ACB770F7ABEE2F4053847454E545241434F2C4A504E2C302C8C8AB2DDC3DEAFB8BD2C47454E54524154582
310
C25732C2847454E4D53472067656E64696D7A203137290001010500227400028141E980A608E8A9CA8A482869E5894A09C58605907A6588E8A9CA8A482A8B0584AE658508E8A9C9AA68E40CECADCC8D2DAF4407052000202020041E8000504909497CA014CD1D15395149050D3CB1294138B0C0B242525F28B11D153951490
310
55160B095CCB0A11D1539354D1C819D95B991A5B5E880C4E4A400040418008A50000A0921C12D7C0299A3A2A72A2920A1A79625282716181648704B5F1623A2A72A2920AA2C1612B9961423A2A726A9A39033B2B73234B6BD10191814800080020010CA00014122D2E29A4053347454E545241434F2C4A504E2C302C8B4B8A
310
692C47454E54524154582C25732C2847454E4D53472067656E64696D7A20323129000100040021B4878030026A6666666667A4FE064D4CCCCCCCCCF49FC049A9999999999E93F809353333333333D27F0226A6666666667A4FE044D4CCCCCCCCCF49FC009A9999999999D93F801353333333333D27F0026A6666666667A4FE
310
004D4CCCCCCCCCF49FC0D819703D0BD6A371BC7F03000000000000001020633B333333333032050F006004D4CCCCCCCCCF49FC0C9A9999999999E93F819353333333333D27F0326A6666666667A4FE064D4CCCCCCCCCF49FC0C9A9999999999E93F801353333333333B27F0026A6666666667A4FE064D4CCCCCCCCCF49FC00
310
9A9999999999E93F81B032E07A17AD46E378FE06000000000000002040C6766666666660640A088800000021E000000890000002260000008220E00020089000000206000200810000804C
340
0
340
0
340
0
340
0
 94
        0
  0
ACAD_PROXY_OBJECT
  5
142E
330
1406
100
AcDbProxyObject
 90
      499
 91
      580
 95
   851991
 70
     0
161
              5022
310
5719741105394D2506414E53495F4342905394D257D512551554D15414E53495F54525F5265766973696F6E6C697374614191143202831372E307832322E30696E63682941905394D257D0D1146202832382E307834302E30696E63682941905394D257D191142202831312E307831372E30696E63682941905394D257D091
310
144202832322E307833342E30696E63682941905394D257D111145202833342E307834342E30696E63682941905394D257D1510412028382E357831312E30696E63682941905394D257D050543905B9CDA482557247A25E4C81110D0C414E53495F5449544C45444343505B9CDA482557247A25E4C81050B414E53495F5449
310
544C454143905B9CDA482557247A25E4C81050D0C414E53495F5449544C454143425554C82557247A25E4D0A414E53495F544954555343505B9CDA482557247A25E4C81110B414E53495F5449544C45444210D979A97F0D8BDC420415F42525F45505394D257D09497D4995D9A5CDA5BDB9B1A5CDD1850D979A97F0D8BDC42
310
0415F54525F45505394D257D51497D4995D9A5CDA5BDB9B1A5CDD1850D979A97F0D8BDC420445F42525F45505394D257D09497D4995D9A5CDA5BDB9B1A5CDD1910D979A97F0D8BDC420445F54525F45505394D257D51497D4995D9A5CDA5BDB9B1A5CDD1910D979A97F0D8BDC420415F424C5F45505394D257D09317D4995D
310
9A5CDA5BDB9B1A5CDD1850D979A97F0D8BDC420415F544C5F45505394D257D51317D4995D9A5CDA5BDB9B1A5CDD1850D979A97F0D8BDC420445F424C5F45505394D257D09317D4995D9A5CDA5BDB9B1A5CDD1910D979A97F0D8BDC420445F544C5F45505394D257D51317D4995D9A5CDA5BDB9B1A5CDD190
 94
        0
  0
ACAD_PROXY_OBJECT
  5
14AD
330
14AC
100
AcDbProxyObject
 90
      499
 91
      584
 95
   851991
 70
     0
161
                12
310
571C
 94
        0
  0
ACAD_PROXY_OBJECT
  5
14AE
330
14AC
100
AcDbProxyObject
 90
      499
 91
      585
 95
   851991
 70
     0
161
                96
310
572A0E80A0280A0280A0280F75
 94
        0
  0
ACAD_PROXY_OBJECT
  5
14AF
330
14AC
100
AcDbProxyObject
 90
      499
 91
      586
 95
   851991
 70
     0
161
               272
310
5710E4050140501405014050140501405014050140D01405012C0000000000000040BD
340
149E
 94
        0
  0
ACAD_PROXY_OBJECT
  5
14B0
330
14AC
100
AcDbProxyObject
 90
      499
 91
      587
 95
   851991
 70
     0
161
               496
310
5728666666666667A67E199999999999E99FD22405014050140501405014050140501405014050140501405014050140501405014050140501405014050120
340
149A
 94
        0
  0
ACAD_PROXY_OBJECT
  5
14B1
330
14AC
100
AcDbProxyObject
 90
      499
 91
      588
 95
   851991
 70
     0
161
                10
310
570C
 94
        0
  0
ACAD_PROXY_OBJECT
  5
14B2
330
14AC
100
AcDbProxyObject
 90
      499
 91
      589
 95
   851991
 70
     0
161
               223
310
572290EA22A7D90F49F8000000000000108140000000000000420204
340
149B
340
149C
 94
        0
  0
ACAD_PROXY_OBJECT
  5
14B3
330
14AC
100
AcDbProxyObject
 90
      499
 91
      590
 95
   851991
 70
     0
161
             12359
310
5710E411255115350141236025B690140501406901000000000000091013347454E545241434F2C4A504E2C302C8D8096DA2C47454E54524154582C25732C2847454E4D53472067656E647767203232322940690120281A8AA2CA0282484A4BE52028120280A0320200000000000012202668E8A9CA8A482869E5894A09C58
310
605921292F94588E8A9CA8A482A8B0584AE658508E8A9C9AA68E40CECADCC8EECE406464665280D202405044E414D454050496BC914F4051C40640A80000000000004E404CD1D15395149050D3CB1294138B0C0B25AF2453CB11D15395149055160B095CCB0A11D1539354D1C819D95B991DD9C80C8C8D8A50190A3D504152
310
543A4E414D4540480A0A888AA686A480A0921C12D7C80A3A80C81D0000000000100A28099A3A2A72A2920A1A79625282716181648704B5F1623A2A72A2920AA2C1612B9961423A2A726A9A39033B2B7323BB39019189B94A034809014214D51053911054911014122D2E29A50147501904A000000000000125013347454E54
310
5241434F2C4A504E2C302C8B4B8A692C47454E54524154582C25732C2847454E4D53472067656E64776720323138294069012028426A0AA22A924A0A62028246EF4BDFA028EA0320B40000000000001CA02668E8A9CA8A482869E5894A09C5860591BBD2F7E588E8A9CA8A482A8B0584AE658508E8A9C9AA68E40CECADCC8E
310
ECE406464625280D202405044E4F544540504928D8B4C4051D40641A80000000000003E404CD1D15395149050D3CB1294138B0C0B24A362D30B11D15395149055160B095CCB0A11D1539354D1C819D95B991DD9C80C8C8D4A501240480A0CAC8A9C889EA480A0D9BBDBB81BD6080A3A80C83D00000000000007C809AA3A2A7
310
2A2920A1A79625282716181666EF6EE06F581623A2A72A2920AA2C1612B9961423A2A726A9A39033B2B7323BB39019191A14A0248090141911154D0D48C90141A43825AF880C90147501908A000000000020145013447454E545241434F2C4A504E2C302C90E096BE20322C47454E54524154582C25732C2847454E4D53472
310
067656E6477672033362940490120284A9AA20A72220A922192028345A5C53490192028EA03213400000000000024A026A8E8A9CA8A482869E5894A09C586059169714D24064588E8A9CA8A482A8B0584AE658508E8A9C9AA68E40CECADCC8EECE4064646052809202405094D4154455249414C32405068DDE97BF20324051
310
D40642A8713D0AD7A37045404D11D15395149050D3CB1294138B0C0B2377A5EFC80C8B11D15395149055160B095CCB0A11D1539354D1C819D95B991DD9C80D0C0A501240480A089A82A6A680A091D7F2F9480A3A80A0485A068100000000000007C809923A2A72A2920A1A796252827161816475FCBE51623A2A72A2920AA2
310
C1612B9961423A2A726A9A39033B2B7323BB3901A1914A0221C7AA2A8B254A082A4A8749A82A6A6809014154149250D150141226FE29A501475014090C409020000000000000F9013247454E545241434F2C4A504E2C302C89BF8A692C47454E54524154582C25732C2847454E4D53472067656E6477672034332940490120
310
281A224A6A02824850CB202028EA028121A81A040000000000001F202648E8A9CA8A482869E5894A09C58605921432C80588E8A9CA8A482A8B0584AE658508E8A9C9AA68E40CECADCC8EECE406868528092024050E445020000000000000510107004060000000000000F9000000000000003E4041CF4F125511534F901406
310
0000000000000F9000000000000003E4041CF4F125511534F9014060000000000000D100000000000000344041CF4F125511534F9014060000000000000D100000000000000344041CF4F125511534F90140A4040000000000003E400000000000000F901073D3C4954454D3E405063D3C5154593E4050180000000000003E
310
400000000000000F901073D3C4954454D3E406404000000000000003E400000000000000F9028880000000000002081A0881A068120480A032208521122080D21480D211480A1485214852050000000000003C2FC000000000000F0BF4050241CCDCCCCCCCCCCEC3F3373333333333B0FC0000000000000C40480D0590140D
310
04416406800000000000018808120E812026280A02
340
0
340
0
 94
        0
  0
ACAD_PROXY_OBJECT
  5
14B4
330
14AC
100
AcDbProxyObject
 90
      499
 91
      591
 95
   851991
 70
     0
161
               864
310
5704000000000000144048CF4F11115510525317D3105091530F880A0F11115510525317D05094D4D0D053114F8A51141C9A9999999999B93F26A666666666724FC000000000000E03F4000000000000004000000000000005100000000000000244041C000000000000144000
340
3D9
340
149D
 94
        0
  0
ACAD_PROXY_OBJECT
  5
14B5
330
14AC
100
AcDbProxyObject
 90
      499
 91
      592
 95
   851991
 70
     0
161
               745
310
5700B00000000000002880959E9E29A2A1AA24A7A72FA620A122A62FA324A929AA1F169E29A2A1AA24A7A72FA620A122A62FA620A9AA1F00000000000004880FF41C88A0E0000000000001220000000000000028800000000000000A204C
340
3F8
340
149D
 94
        0
  0
ACAD_PROXY_OBJECT
  5
14B6
330
14AC
100
AcDbProxyObject
 90
      499
 91
      593
 95
   851991
 70
     0
161
               151
310
57280000000000000840A3D0A5723F0BD1F200
 94
        0
  0
ACAD_PROXY_OBJECT
  5
14B7
330
14AC
100
AcDbProxyObject
 90
      499
 91
      594
 95
   851991
 70
     0
161
                14
310
5720
340
0
 94
        0
  0
ACAD_PROXY_OBJECT
  5
14B8
330
14AC
100
AcDbProxyObject
 90
      499
 91
      595
 95
   851991
 70
     0
161
              5762
310
571084050B90142A4050240509C3DDCCDFDAB0C42031405DC3D2525633C486F6C653A63746469613E2078203C486F6C653A637464657074683E20555C503C696628657175616C28486F6C653A7461707065642C223022292C222525632220486F6C653A6469612C20486F6C653A6E6F6D696E616C20222078202220486F6C6
310
53A70697463686465736320696628657175616C28486F6C653A7461707065642C223122292C222078202220486F6C653A74617064657074682C222229293E203C696628657175616C28486F6C653A7465726D696E6174696F6E2C223022292C22202F202220486F6C653A64657074682C222022293E4064050340509C3DDCC
310
DFDAB0C42031405DD3D2525633C486F6C653A63746469613E2078203C486F6C653A6374616E676C653E2525645C503C696628657175616C28486F6C653A7461707065642C223022292C222525632220486F6C653A6469612C20486F6C653A6E6F6D696E616C20222078202220486F6C653A706974636864657363206966286
310
57175616C28486F6C653A7461707065642C223122292C222078202220486F6C653A74617064657074682C222229293E203C696628657175616C28486F6C653A7465726D696E6174696F6E2C223022292C22202F202220486F6C653A64657074682C222022293E4064050140509C3DDCCDFDAB0C42031405B83D3C696628657
310
175616C28486F6C653A7461707065642C223022292C222525632220486F6C653A6469612C20486F6C653A6E6F6D696E616C20222078202220486F6C653A70697463686465736320696628657175616C28486F6C653A7461707065642C223122292C222078202220486F6C653A74617064657074682C222229293E203C69662
310
8657175616C28486F6C653A7465726D696E6174696F6E2C223022292C22202F202220486F6C653A64657074682C222022293E4064051E40509C3DDCCDFDAB0C420314050C3D3C535444503A444553433E40640515A8C
 94
        0
  0
ACAD_PROXY_OBJECT
  5
14B9
330
14AC
100
AcDbProxyObject
 90
      499
 91
      577
 95
   851991
 70
     0
161
                20
310
57101C
340
0
 94
        0
  0
ACAD_PROXY_OBJECT
  5
14BA
330
14AC
100
AcDbProxyObject
 90
      499
 91
      578
 95
   851991
 70
     0
161
               250
310
571020000000000000A1000000000000002440408F0F9023C3E409A0DCFFFF8C
340
149F
340
0
340
0
340
14A0
340
14A1
340
14A2
340
14A3
340
14A4
340
14A5
340
0
 94
        0
  0
ACAD_PROXY_OBJECT
  5
14BB
330
14AC
100
AcDbProxyObject
 90
      499
 91
      596
 95
   851991
 70
     0
161
             13131
310
5711A003FFFFFFFD03030003000000000000031000903030003000000000000031000805098DC0955782CCD8BDC4014E11D15395149050D3CB1294138B0C0B23702555E0B3362F710B11D15395149055160B095CCB0A11D1539354D1C819D95B991A5B5E880CCC0A78000C0000000000000000000000000000000100000000
310
0000031010240000000000000C4040A0141E322B0EC3337B64053647454E545241434F2C4A504E2C302C8C8AC3B0CCDED92C47454E54524154582C25732C2847454E4D53472067656E64696D7A20333129E00030000000000000000000000000000000040000000000000C40409000000000000031010290D4411140903411
310
0541D0C4350F4050E44D03449074510F000141232D24D7C053247454E545241434F2C4A504E2C302C8CB4935F2C47454E54524154582C25732C2847454E4D53472067656E64696D7A20312900010105002214000281464500A608E8A9CA8A482869E5894A09C5860591914588E8A9CA8A482A8B0584AE658508E8A9C9AA68E
310
40CECADCC8D2DAF4406452029F9E9E27B934B3B4B71F1E24A31427A91424A9A12620A7259427B934B3B4B7149624A9A12620A7259424B73232BC149496111116111711149F1E24B73232BC1F00808200111A000140560052F47454E545241434F2C4A504E2C302C582C47454E54524154582C25732C2847454E4D534720676
310
56E64696D7A20332900010100002054000280AC80A5E8E8A9CA8A482869E5894A09C586058B2588E8A9CA8A482A8B0584AE658508E8A9C9AA68E40CECADCC8D2DAF4406852000202000040E800050152014BD1D15395149050D3CB1294138B0C0B148B11D15395149055160B095CCB0A11D1539354D1C819D95B991A5B5E88
310
0D8A400040400008250000A0507A6029823A2A72A2920A1A79625282716181641E99623A2A72A2920AA2C1612B9961423A2A726A9A39033B2B73234B6BD101B948000808180105A000140A0F4C053047454E545241434F2C4A504E2C302C83D32C47454E54524154582C25732C2847454E4D53472067656E64696D7A203829
310
000101010020F400028248704B5F00A668E8A9CA8A482869E5894A09C58605921C12D7C588E8A9CA8A482A8B0584AE658508E8A9C9AA68E40CECADCC8D2DAF440646052000200080043280005048B4B8A69014CD1D15395149050D3CB1294138B0C0B22D2E29A4B11D15395149055160B095CCB0A11D1539354D1C819D95B9
310
91A5B5E880C8C4A4000400100086D0000A09196926BE029923A2A72A2920A1A796252827161816465A49AF9623A2A72A2920AA2C1612B9961423A2A726A9A39033B2B73234B6BD10189480A026202020A0043E80005048D8096DA014CD1D15395149050D3CB1294138B0C0B236025B68B11D15395149055160B095CCB0A11D
310
1539354D1C819D95B991A5B5E880C4D0A4000404140080D0000A0F65BB87BD5F717A029B23A2A72A2920A1A796252827161816596EE1EF57DC5E9623A2A72A2920AA2C1612B9961423A2A726A9A39033B2B73234B6BD10189A94800080828010EA0001426322ACB770F7ABEE2F4053847454E545241434F2C4A504E2C302C8
310
C8AB2DDC3DEAFB8BD2C47454E54524154582C25732C2847454E4D53472067656E64696D7A2031372900010105002274000281464500A628E8A9CA8A482869E5894A09C5860591914588E8A9CA8A482A8B0584AE658508E8A9C9AA68E40CECADCC8D2DAF440626C52000202080044A8000504909497CA014CD1D15395149050
310
D3CB1294138B0C0B242525F28B11D15395149055160B095CCB0A11D1539354D1C819D95B991A5B5E880C4E4A400040418008A521E000000000000001CA040C00000000000034408080000000000006881010000000000000D102040000000000001A2040800000000000034408180000000000007281030000000000001250
310
20600000000004028A040000000000000034408000000000000004881000000000000000D102000000000000001A204000000000000003440818000000000000508143C0000000000000039408180000000000006881030000000000000D102060000000000001A2040C000000000000344081800000000000068810300000
310
00000000E5020600000000000024A040C000000000080514080000000000000068810000000000000009102000000000000001A2040000000000000034408180000000000006881030000000000000A10283A2000000087800000204000000818000002080000008280000020E00000080A24000000C
340
0
340
0
340
0
340
0
 94
        0
  0
ACAD_PROXY_OBJECT
  5
14BC
330
14AC
100
AcDbProxyObject
 90
      499
 91
      580
 95
   851991
 70
     0
161
              6922
310
5719740D254D3D0649534F5F4133429254D3D7D5125513115051349534F5F42525F5265766973696F6E6C69737446111413478342028323937783834316D6D2920421254D3D7D04D1E0D11141327835202835393478323130326D6D29421254D3D7D04C9E0D51141337837202834323078323038306D6D29421254D3D7D04C
310
DE0DD1141347839202832393778313839326D6D29421254D3D7D04D1E0E50E41312028353934783834316D6D29419254D3D7D04C51141327834202835393478313638326D6D29421254D3D7D04C9E0D11141347838202832393778313638326D6D29421254D3D7D04D1E0E10E41332028323937783432306D6D29419254D3D
310
7D04CD104130202838343078313138396D6D2920419254D3D7D04C11141347835202832393778313035316D6D29421254D3D7D04D1E0D51141347836202832393778313236316D6D29421254D3D7D04D1E0D91141347837202832393778313437316D6D29421254D3D7D04D1E0DD1141327833202835393478313236316D6D
310
29421254D3D7D04C9E0CD1141337834202834323078313138396D6D29421254D3D7D04CDE0D110413478332028323937783633306D6D29421254D3D7D04D1E0CD1141337835202834323078313438366D6D29421254D3D7D04CDE0D51141337836202834323078313738336D6D29421254D3D7D04CDE0D9104133783320283
310
43230783839316D6D29421254D3D7D04CDE0CD0E41322028343230783539346D6D29419254D3D7D04C9124130783220283131383978313638326D6D29421254D3D7D04C1E0C90E41342028323937783231306D6D29419254D3D7D04D1124130783320283131383978323532336D6D29421254D3D7D04C1E0CD114131783420
310
2838343178323337386D6D29421254D3D7D04C5E0D11141317833202838343178313738336D6D29421254D3D7D04C5E0CD02431254D3C82557247A25E4C81050A49534F5F5449544C4541431254D3C82557247A25E4C81090A49534F5F5449544C45424110B979A97F0D8BDC45F424C5F44D254D3D7D09317D4995D9A5CDA5
310
BDB9B1A5CDD10B979A97F0D8BDC45F544C5F44D254D3D7D51317D4995D9A5CDA5BDB9B1A5CDD10B979A97F0D8BDC45F42525F44D254D3D7D09497D4995D9A5CDA5BDB9B1A5CDD10B979A97F0D8BDC45F54525F44D254D3D7D51497D4995D9A5CDA5BDB9B1A5CDD0C
 94
        0
  0
ENDSEC
  0
SECTION
  2
ACDSDATA
 70
     2
 71
     8
  0
ACDSSCHEMA
 90
        0
  1
AcDb_Thumbnail_Schema
  2
AcDbDs::ID
280
    10
 91
        8
  2
Thumbnail_Data
280
    15
 91
        0
101
ACDSRECORD
 95
        0
 90
        1
  2
AcDbDs::TreatedAsObjectData
280
     1
291
     1
101
ACDSRECORD
 95
        0
 90
        2
  2
AcDbDs::Legacy
280
     1
291
     1
101
ACDSRECORD
  1
AcDbDs::ID
 90
        3
  2
AcDs:Indexable
280
     1
291
     1
101
ACDSRECORD
  1
AcDbDs::ID
 90
        4
  2
AcDbDs::HandleAttribute
280
     7
282
     1
  0
ACDSSCHEMA
 90
        1
  1
AcDbDs::TreatedAsObjectDataSchema
  2
AcDbDs::TreatedAsObjectData
280
     1
 91
        0
  0
ACDSSCHEMA
 90
        2
  1
AcDbDs::LegacySchema
  2
AcDbDs::Legacy
280
     1
 91
        0
  0
ACDSSCHEMA
 90
        3
  1
AcDbDs::IndexedPropertySchema
  2
AcDs:Indexable
280
     1
 91
        0
  0
ACDSSCHEMA
 90
        4
  1
AcDbDs::HandleAttributeSchema
  2
AcDbDs::HandleAttribute
280
     7
 91
        1
284
     1
  0
ACDSRECORD
 90
        0
  2
AcDbDs::ID
280
    10
320
132A
  2
Thumbnail_Data
280
    15
 94
     1063
310
89504E470D0A1A0A0000000D49484452000001000000009D08030000006C23567D00000300504C5445FFFFFFFFFFFFFFFFFF0000000000000000000000000000000000000000000000000000330000660000990000CC0000FF0033000033330033660033990033CC0033FF0066000066330066660066990066CC0066FF0099
310
000099330099660099990099CC0099FF00CC0000CC3300CC6600CC9900CCCC00CCFF00FF0000FF3300FF6600FF9900FFCC00FFFF3300003300333300663300993300CC3300FF3333003333333333663333993333CC3333FF3366003366333366663366993366CC3366FF3399003399333399663399993399CC3399FF33CC00
310
33CC3333CC6633CC9933CCCC33CCFF33FF0033FF3333FF6633FF9933FFCC33FFFF6600006600336600666600996600CC6600FF6633006633336633666633996633CC6633FF6666006666336666666666996666CC6666FF6699006699336699666699996699CC6699FF66CC0066CC3366CC6666CC9966CCCC66CCFF66FF0066
310
FF3366FF6666FF9966FFCC66FFFF9900009900339900669900999900CC9900FF9933009933339933669933999933CC9933FF9966009966339966669966999966CC9966FF9999009999339999669999999999CC9999FF99CC0099CC3399CC6699CC9999CCCC99CCFF99FF0099FF3399FF6699FF9999FFCC99FFFFCC0000CC00
310
33CC0066CC0099CC00CCCC00FFCC3300CC3333CC3366CC3399CC33CCCC33FFCC6600CC6633CC6666CC6699CC66CCCC66FFCC9900CC9933CC9966CC9999CC99CCCC99FFCCCC00CCCC33CCCC66CCCC99CCCCCCCCCCFFCCFF00CCFF33CCFF66CCFF99CCFFCCCCFFFFFF0000FF0033FF0066FF0099FF00CCFF00FFFF3300FF3333
310
FF3366FF3399FF33CCFF33FFFF6600FF6633FF6666FF6699FF66CCFF66FFFF9900FF9933FF9966FF9999FF99CCFF99FFFFCC00FFCC33FFCC66FFCC99FFCCCCFFCCFFFFFF00FFFF33FFFF66FFFF99FFFFCCFFFFFF0000000D0D0D1A1A1A2828283535354343435050505D5D5D6B6B6B787878868686939393A1A1A1AEAEAEBB
310
BBBBC9C9C9D6D6D6E4E4E4F1F1F1FFFFFF000000000000000000000000000000000000000000000000000000000000AD4AB4E4000000E24944415478DAEDD78B0D82301405D06EF0F65F86619C444041430B018CA425E724127EA17D97023525000000000000000000265DF30D084000FFEB5F14DD2A80E862ABFCC58E2C96
310
1D0D1C0DECDAF2A3BF416B3D8CB9E245009F8DD8517ED41C418C199C0C60CF53315CBDE20086DE75692D813D23200A07962155FA1474A378FF7AD909311F9AC47223625E2F3630D4FF5A945A687D047C793438027E7F077C87D0EC4B70EB2B900F8DC86E7FEB5F81ED79402ACD038E565477F9276682FE0B084000F70A0000
310
000000000000000000000000000000000000000000000000AEF4041A124ED1633175D30000000049454E44AE426082
  0
ENDSEC
  0
EOF
