  0
SECTION
  2
HEADER
  9
$ACADVER
  1
AC1014
  9
$ACADMAINTVER
 70
     0
  9
$DWGCODEPAGE
  3
ANSI_932
  9
$INSBASE
 10
0.0
 20
0.0
 30
0.0
  9
$EXTMIN
 10
32.932137
 20
65.0
 30
0.0
  9
$EXTMAX
 10
220.209346
 20
109.654263
 30
0.0
  9
$LIMMIN
 10
0.0
 20
0.0
  9
$LIMMAX
 10
250.0
 20
160.0
  9
$ORTHOMODE
 70
     0
  9
$REGENMODE
 70
     1
  9
$FILLMODE
 70
     1
  9
$QTEXTMODE
 70
     0
  9
$MIRRTEXT
 70
     1
  9
$DRAGMODE
 70
     1
  9
$LTSCALE
 40
10.0
  9
$OSMODE
 70
     0
  9
$ATTMODE
 70
     1
  9
$TEXTSIZE
 40
5.5
  9
$TRACEWID
 40
0.05
  9
$TEXTSTYLE
  7
BIGFONT
  9
$CLAYER
  8
0
  9
$CELTYPE
  6
BYLAYER
  9
$CECOLOR
 62
   256
  9
$CELTSCALE
 40
1.0
  9
$DELOBJ
 70
     1
  9
$DISPSILH
 70
     0
  9
$DIMSCALE
 40
1.0
  9
$DIMASZ
 40
3.0
  9
$DIMEXO
 40
2.0
  9
$DIMDLI
 40
0.38
  9
$DIMRND
 40
0.0
  9
$DIMDLE
 40
0.0
  9
$DIMEXE
 40
2.0
  9
$DIMTP
 40
0.0
  9
$DIMTM
 40
0.0
  9
$DIMTXT
 40
3.2
  9
$DIMCEN
 40
0.0
  9
$DIMTSZ
 40
0.0
  9
$DIMTOL
 70
     0
  9
$DIMLIM
 70
     0
  9
$DIMTIH
 70
     0
  9
$DIMTOH
 70
     0
  9
$DIMSE1
 70
     0
  9
$DIMSE2
 70
     0
  9
$DIMTAD
 70
     1
  9
$DIMZIN
 70
     0
  9
$DIMBLK
  1

  9
$DIMASO
 70
     0
  9
$DIMSHO
 70
     0
  9
$DIMPOST
  1

  9
$DIMAPOST
  1

  9
$DIMALT
 70
     0
  9
$DIMALTD
 70
     2
  9
$DIMALTF
 40
25.4
  9
$DIMLFAC
 40
1.0
  9
$DIMTOFL
 70
     0
  9
$DIMTVP
 40
1.6
  9
$DIMTIX
 70
     1
  9
$DIMSOXD
 70
     0
  9
$DIMSAH
 70
     0
  9
$DIMBLK1
  1

  9
$DIMBLK2
  1

  9
$DIMSTYLE
  2
STANDARD
  9
$DIMCLRD
 70
     0
  9
$DIMCLRE
 70
     0
  9
$DIMCLRT
 70
     0
  9
$DIMTFAC
 40
1.0
  9
$DIMGAP
 40
0.09
  9
$DIMJUST
 70
     0
  9
$DIMSD1
 70
     0
  9
$DIMSD2
 70
     0
  9
$DIMTOLJ
 70
     1
  9
$DIMTZIN
 70
     0
  9
$DIMALTZ
 70
     0
  9
$DIMALTTZ
 70
     0
  9
$DIMFIT
 70
     5
  9
$DIMUPT
 70
     0
  9
$DIMUNIT
 70
     2
  9
$DIMDEC
 70
     4
  9
$DIMTDEC
 70
     4
  9
$DIMALTU
 70
     2
  9
$DIMALTTD
 70
     2
  9
$DIMTXSTY
  7
BIGFONT
  9
$DIMAUNIT
 70
     0
  9
$LUNITS
 70
     2
  9
$LUPREC
 70
     4
  9
$SKETCHINC
 40
0.1
  9
$FILLETRAD
 40
0.0
  9
$AUNITS
 70
     0
  9
$AUPREC
 70
     0
  9
$MENU
  1
ACAD
  9
$ELEVATION
 40
0.0
  9
$PELEVATION
 40
0.0
  9
$THICKNESS
 40
0.0
  9
$LIMCHECK
 70
     0
  9
$BLIPMODE
 70
     0
  9
$CHAMFERA
 40
0.0
  9
$CHAMFERB
 40
0.0
  9
$CHAMFERC
 40
0.0
  9
$CHAMFERD
 40
0.0
  9
$SKPOLY
 70
     0
  9
$TDCREATE
 40
2450868.914083449
  9
$TDUPDATE
 40
2453593.633810393
  9
$TDINDWG
 40
0.0004432523
  9
$TDUSRTIMER
 40
0.0004432523
  9
$USRTIMER
 70
     1
  9
$ANGBASE
 50
0.0
  9
$ANGDIR
 70
     0
  9
$PDMODE
 70
     0
  9
$PDSIZE
 40
0.0
  9
$PLINEWID
 40
0.0
  9
$COORDS
 70
     2
  9
$SPLFRAME
 70
     0
  9
$SPLINETYPE
 70
     6
  9
$SPLINESEGS
 70
     8
  9
$ATTDIA
 70
     0
  9
$ATTREQ
 70
     1
  9
$HANDLING
 70
     1
  9
$HANDSEED
  5
16B
  9
$SURFTAB1
 70
     6
  9
$SURFTAB2
 70
     6
  9
$SURFTYPE
 70
     6
  9
$SURFU
 70
     6
  9
$SURFV
 70
     6
  9
$UCSNAME
  2

  9
$UCSORG
 10
0.0
 20
0.0
 30
0.0
  9
$UCSXDIR
 10
1.0
 20
0.0
 30
0.0
  9
$UCSYDIR
 10
0.0
 20
1.0
 30
0.0
  9
$PUCSNAME
  2

  9
$PUCSORG
 10
0.0
 20
0.0
 30
0.0
  9
$PUCSXDIR
 10
1.0
 20
0.0
 30
0.0
  9
$PUCSYDIR
 10
0.0
 20
1.0
 30
0.0
  9
$USERI1
 70
     0
  9
$USERI2
 70
     0
  9
$USERI3
 70
     0
  9
$USERI4
 70
     0
  9
$USERI5
 70
     0
  9
$USERR1
 40
0.0
  9
$USERR2
 40
0.0
  9
$USERR3
 40
0.0
  9
$USERR4
 40
0.0
  9
$USERR5
 40
0.0
  9
$WORLDVIEW
 70
     1
  9
$SHADEDGE
 70
     3
  9
$SHADEDIF
 70
    70
  9
$TILEMODE
 70
     1
  9
$MAXACTVP
 70
    16
  9
$PINSBASE
 10
0.0
 20
0.0
 30
0.0
  9
$PLIMCHECK
 70
     0
  9
$PEXTMIN
 10
1.000000E+20
 20
1.000000E+20
 30
1.000000E+20
  9
$PEXTMAX
 10
-1.000000E+20
 20
-1.000000E+20
 30
-1.000000E+20
  9
$PLIMMIN
 10
0.0
 20
0.0
  9
$PLIMMAX
 10
12.0
 20
9.0
  9
$UNITMODE
 70
     0
  9
$VISRETAIN
 70
     0
  9
$PLINEGEN
 70
   152
  9
$PSLTSCALE
 70
     0
  9
$TREEDEPTH
 70
  3020
  9
$PICKSTYLE
 70
     1
  9
$CMLSTYLE
  2
STANDARD
  9
$CMLJUST
 70
     0
  9
$CMLSCALE
 40
1.0
  9
$PROXYGRAPHICS
 70
     1
  9
$MEASUREMENT
 70
     0
  0
ENDSEC
  0
SECTION
  2
CLASSES
  0
CLASS
  1
DICTIONARYVAR
  2
AcDbDictionaryVar
  3
"AutoCAD"
 90
        0
280
     0
281
     0
  0
CLASS
  1
LWPOLYLINE
  2
AcDbPolyline
  3
"AutoCAD"
 90
        0
280
     0
281
     1
  0
ENDSEC
  0
SECTION
  2
TABLES
  0
TABLE
  2
VPORT
  5
BD
100
AcDbSymbolTable
 70
     4
  0
VPORT
  5
16A
100
AcDbSymbolTableRecord
100
AcDbViewportTableRecord
  2
*ACTIVE
 70
     0
 10
0.0
 20
0.0
 11
1.0
 21
1.0
 12
141.889764
 22
98.881727
 13
0.0
 23
0.0
 14
5.0
 24
5.0
 15
10.0
 25
10.0
 16
0.0
 26
0.0
 36
1.0
 17
0.0
 27
0.0
 37
0.0
 40
197.763453
 41
1.434944
 42
50.0
 43
0.0
 44
0.0
 50
0.0
 51
0.0
 71
     0
 72
   500
 73
     1
 74
     1
 75
     0
 76
     0
 77
     0
 78
     1
  0
ENDTAB
  0
TABLE
  2
LTYPE
  5
BA
100
AcDbSymbolTable
 70
     3
  0
LTYPE
  5
C6
100
AcDbSymbolTableRecord
100
AcDbLinetypeTableRecord
  2
BYBLOCK
 70
     0
  3

 72
    65
 73
     0
 40
0.0
  0
LTYPE
  5
C7
100
AcDbSymbolTableRecord
100
AcDbLinetypeTableRecord
  2
BYLAYER
 70
     0
  3

 72
    65
 73
     0
 40
0.0
  0
LTYPE
  5
C8
100
AcDbSymbolTableRecord
100
AcDbLinetypeTableRecord
  2
CONTINUOUS
 70
     0
  3
実線
 72
    65
 73
     0
 40
0.0
  0
LTYPE
  5
D4
100
AcDbSymbolTableRecord
100
AcDbLinetypeTableRecord
  2
CENTER
 70
     0
  3
____ _ ____ _ ____ _ ____ _ ____ _ ____ _ ____
 72
    65
 73
     4
 40
2.0
 49
1.25
 74
     0
 49
-0.25
 74
     0
 49
0.25
 74
     0
 49
-0.25
 74
     0
  0
LTYPE
  5
ED
100
AcDbSymbolTableRecord
100
AcDbLinetypeTableRecord
  2
ITTEN1
 70
     0
  3

 72
    65
 73
     4
 40
8.2
 49
5.0
 74
     0
 49
-1.0
 74
     0
 49
1.2
 74
     0
 49
-1.0
 74
     0
  0
ENDTAB
  0
TABLE
  2
LAYER
  5
B7
100
AcDbSymbolTable
 70
     5
  0
LAYER
  5
C3
100
AcDbSymbolTableRecord
100
AcDbLayerTableRecord
  2
0
 70
     0
 62
     7
  6
CONTINUOUS
  0
LAYER
  5
D9
100
AcDbSymbolTableRecord
100
AcDbLayerTableRecord
  2
1
 70
     0
 62
     1
  6
CENTER
  0
LAYER
  5
DA
100
AcDbSymbolTableRecord
100
AcDbLayerTableRecord
  2
3
 70
     0
 62
     3
  6
CONTINUOUS
  0
LAYER
  5
DB
100
AcDbSymbolTableRecord
100
AcDbLayerTableRecord
  2
10
 70
     0
 62
     7
  6
CONTINUOUS
  0
LAYER
  5
DC
100
AcDbSymbolTableRecord
100
AcDbLayerTableRecord
  2
11
 70
     0
 62
     3
  6
CONTINUOUS
  0
ENDTAB
  0
TABLE
  2
STYLE
  5
B8
100
AcDbSymbolTable
 70
     4
  0
STYLE
  5
C4
100
AcDbSymbolTableRecord
100
AcDbTextStyleTableRecord
  2
STANDARD
 70
     0
 40
0.0
 41
1.0
 50
0.0
 71
     0
 42
0.2
  3
TXT
  4
BIGFONT
  0
STYLE
  5
D2
100
AcDbSymbolTableRecord
100
AcDbTextStyleTableRecord
  2
07500
 70
     0
 40
0.0
 41
0.75
 50
0.0
 71
     0
 42
6.0
  3
TXT
  4
BIGFONT
  0
STYLE
  5
D3
100
AcDbSymbolTableRecord
100
AcDbTextStyleTableRecord
  2
BIGFONT
 70
     0
 40
5.5
 41
0.8
 50
0.0
 71
     0
 42
5.5
  3

  4
bigfont
  0
STYLE
  5
EE
100
AcDbSymbolTableRecord
100
AcDbTextStyleTableRecord
  2
EXTFONT
 70
     0
 40
4.0
 41
0.75
 50
0.0
 71
     0
 42
4.0
  3
txt.shx
  4
extfont.shx
  0
ENDTAB
  0
TABLE
  2
VIEW
  5
BB
100
AcDbSymbolTable
 70
     1
  0
VIEW
  5
D5
100
AcDbSymbolTableRecord
100
AcDbViewTableRecord
  2
ALL
 70
     0
 40
270.0
 10
220.991597
 20
135.0
 41
0.0
 11
0.0
 21
0.0
 31
1.0
 12
0.0
 22
0.0
 32
0.0
 42
0.0
 43
0.0
 44
0.0
 50
0.0
 71
     0
  0
ENDTAB
  0
TABLE
  2
UCS
  5
BC
100
AcDbSymbolTable
 70
     0
  0
ENDTAB
  0
TABLE
  2
APPID
  5
BE
100
AcDbSymbolTable
 70
     1
  0
APPID
  5
C5
100
AcDbSymbolTableRecord
100
AcDbRegAppTableRecord
  2
ACAD
 70
     0
  0
ENDTAB
  0
TABLE
  2
DIMSTYLE
  5
BF
100
AcDbSymbolTable
 70
     1
  0
DIMSTYLE
105
D8
100
AcDbSymbolTableRecord
100
AcDbDimStyleTableRecord
  2
STANDARD
 70
     0
  3

  4

  5

  6

  7

 40
1.0
 41
0.18
 42
0.0625
 43
0.38
 44
0.18
 45
0.0
 46
0.0
 47
0.0
 48
0.0
140
0.18
141
0.09
142
0.0
143
25.4
144
1.0
145
0.0
146
1.0
147
0.09
 71
     0
 72
     0
 73
     1
 74
     1
 75
     0
 76
     0
 77
     0
 78
     0
170
     0
171
     2
172
     0
173
     0
174
     0
175
     0
176
     0
177
     0
178
     0
270
     2
271
     4
272
     4
273
     2
274
     2
340
D3
275
     0
280
     0
281
     0
282
     0
283
     1
284
     0
285
     0
286
     0
287
     5
288
     0
  0
ENDTAB
  0
TABLE
  2
BLOCK_RECORD
  5
B6
100
AcDbSymbolTable
 70
     3
  0
BLOCK_RECORD
  5
CC
100
AcDbSymbolTableRecord
100
AcDbBlockTableRecord
  2
*MODEL_SPACE
  0
BLOCK_RECORD
  5
C9
100
AcDbSymbolTableRecord
100
AcDbBlockTableRecord
  2
*PAPER_SPACE
  0
BLOCK_RECORD
  5
D1
100
AcDbSymbolTableRecord
100
AcDbBlockTableRecord
  2
QQ
  0
BLOCK_RECORD
  5
E7
100
AcDbSymbolTableRecord
100
AcDbBlockTableRecord
  2
A$C2DD26471
  0
BLOCK_RECORD
  5
EF
100
AcDbSymbolTableRecord
100
AcDbBlockTableRecord
  2
A$C5A656A21
  0
ENDTAB
  0
ENDSEC
  0
SECTION
  2
BLOCKS
  0
BLOCK
  5
DF
100
AcDbEntity
  8
0
100
AcDbBlockBegin
  2
*MODEL_SPACE
 70
     0
 10
0.0
 20
0.0
 30
0.0
  3
*MODEL_SPACE
  1

  0
ENDBLK
  5
E0
100
AcDbEntity
  8
0
100
AcDbBlockEnd
  0
BLOCK
  5
DD
100
AcDbEntity
 67
     1
  8
0
100
AcDbBlockBegin
  2
*PAPER_SPACE
 70
     0
 10
0.0
 20
0.0
 30
0.0
  3
*PAPER_SPACE
  1

  0
ENDBLK
  5
DE
100
AcDbEntity
 67
     1
  8
0
100
AcDbBlockEnd
  0
BLOCK
  5
2B
100
AcDbEntity
  8
0
100
AcDbBlockBegin
  2
QQ
 70
     0
 10
270.0
 20
0.0
 30
0.0
  3
QQ
  1

  0
LINE
  5
2C
100
AcDbEntity
  8
11
100
AcDbLine
 10
173.0
 20
36.0
 30
0.0
 11
270.0
 21
36.0
 31
0.0
  0
TEXT
  5
2D
100
AcDbEntity
  8
11
100
AcDbText
 10
175.0
 20
32.5
 30
0.0
 40
2.5
  1
部品名称
100
AcDbText
  0
LINE
  5
2E
100
AcDbEntity
  8
11
100
AcDbLine
 10
173.0
 20
36.0
 30
0.0
 11
173.0
 21
0.0
 31
0.0
  0
LINE
  5
2F
100
AcDbEntity
  8
11
100
AcDbLine
 10
173.0
 20
24.0
 30
0.0
 11
270.0
 21
24.0
 31
0.0
  0
TEXT
  5
30
100
AcDbEntity
  8
11
100
AcDbText
 10
175.0
 20
20.5
 30
0.0
 40
2.5
  1
品番
100
AcDbText
  0
LINE
  5
31
100
AcDbEntity
  8
11
100
AcDbLine
 10
173.0
 20
12.0
 30
0.0
 11
270.0
 21
12.0
 31
0.0
  0
TEXT
  5
32
100
AcDbEntity
  8
11
100
AcDbText
 10
175.0
 20
8.5
 30
0.0
 40
2.5
  1
尺度
100
AcDbText
  0
TEXT
  5
33
100
AcDbEntity
  8
11
100
AcDbText
 10
200.0
 20
8.5
 30
0.0
 40
2.5
  1
図番
100
AcDbText
  0
LINE
  5
34
100
AcDbEntity
  8
11
100
AcDbLine
 10
198.0
 20
0.0
 30
0.0
 11
198.0
 21
12.0
 31
0.0
  0
ENDBLK
  5
35
100
AcDbEntity
  8
0
100
AcDbBlockEnd
  0
BLOCK
  5
EB
100
AcDbEntity
  8
0
100
AcDbBlockBegin
  2
A$C2DD26471
 70
     0
 10
0.0
 20
0.0
 30
0.0
  3
A$C2DD26471
  1

  0
ARC
  5
E8
100
AcDbEntity
  8
3
100
AcDbCircle
 10
2.863913
 20
20.616675
 30
0.0
 40
2.864087
100
AcDbArc
 50
123.680686
 51
236.319314
  0
ARC
  5
E9
100
AcDbEntity
  8
3
100
AcDbCircle
 10
9.512877
 20
11.5
 30
0.0
 40
9.487283
100
AcDbArc
 50
150.255297
 51
209.744703
  0
ARC
  5
EA
100
AcDbEntity
  8
3
100
AcDbCircle
 10
2.863913
 20
2.383325
 30
0.0
 40
2.864087
100
AcDbArc
 50
123.680686
 51
236.319314
  0
ENDBLK
  5
EC
100
AcDbEntity
  8
0
100
AcDbBlockEnd
  0
BLOCK
  5
12B
100
AcDbEntity
  8
0
100
AcDbBlockBegin
  2
A$C5A656A21
 70
     0
 10
0.0
 20
0.0
 30
0.0
  3
A$C5A656A21
  1

  0
LINE
  5
F0
100
AcDbEntity
  8
1
100
AcDbLine
 10
52.493663
 20
21.489254
 30
0.0
 11
187.27721
 21
21.489254
 31
0.0
  0
LINE
  5
F1
100
AcDbEntity
  8
3
100
AcDbLine
 10
87.544589
 20
34.226922
 30
0.0
 11
172.545189
 21
35.435412
 31
0.0
  0
LINE
  5
F2
100
AcDbEntity
  8
3
100
AcDbLine
 10
87.532136
 20
8.726925
 30
0.0
 11
172.531515
 21
7.435416
 31
0.0
  0
LINE
  5
F3
100
AcDbEntity
  8
1
100
AcDbLine
 10
23.489498
 20
0.0
 30
0.0
 11
23.50952
 21
40.999995
 31
0.0
  0
LINE
  5
F4
100
AcDbEntity
  8
3
100
AcDbLine
 10
55.038368
 20
25.989254
 30
0.0
 11
75.038368
 21
25.989254
 31
0.0
  0
LINE
  5
F5
100
AcDbEntity
  8
3
100
AcDbLine
 10
72.038368
 20
27.489254
 30
0.0
 11
56.538368
 21
27.489254
 31
0.0
  0
LINE
  5
F6
100
AcDbEntity
  8
3
100
AcDbLine
 10
72.038368
 20
15.489254
 30
0.0
 11
56.538368
 21
15.489254
 31
0.0
  0
LINE
  5
F7
100
AcDbEntity
  8
3
100
AcDbLine
 10
55.038368
 20
16.989254
 30
0.0
 11
75.038368
 21
16.989254
 31
0.0
  0
LWPOLYLINE
  5
F8
100
AcDbEntity
  8
3
100
AcDbPolyline
 90
        2
 70
     0
 43
0.0
 10
21.152664
 20
32.757885
 10
14.924048
 20
29.161791
  0
LWPOLYLINE
  5
F9
100
AcDbEntity
  8
3
100
AcDbPolyline
 90
        2
 70
     0
 43
0.0
 10
14.924048
 20
13.838204
 10
21.152664
 20
10.24211
  0
CIRCLE
  5
FA
100
AcDbEntity
  8
3
100
AcDbCircle
 10
23.499997
 20
21.499998
 30
0.0
 40
9.5
  0
CIRCLE
  5
FB
100
AcDbEntity
  8
3
100
AcDbCircle
 10
23.499997
 20
21.499998
 30
0.0
 40
12.75
  0
LINE
  5
FC
100
AcDbEntity
  8
1
100
AcDbLine
 10
45.499995
 20
21.489254
 30
0.0
 11
0.0
 21
21.511474
 31
0.0
  0
CIRCLE
  5
FD
100
AcDbEntity
  8
3
100
AcDbCircle
 10
23.499997
 20
21.499998
 30
0.0
 40
14.0
  0
LWPOLYLINE
  5
FE
100
AcDbEntity
  8
3
100
AcDbPolyline
 90
        2
 70
     0
 43
0.0
 10
12.576714
 20
25.096091
 10
12.576714
 20
17.903904
  0
ARC
  5
FF
100
AcDbEntity
  8
3
100
AcDbCircle
 10
23.499997
 20
21.499998
 30
0.0
 40
11.5
100
AcDbArc
 50
198.222249
 51
221.777751
  0
ARC
  5
100
100
AcDbEntity
  8
3
100
AcDbCircle
 10
23.499997
 20
21.499998
 30
0.0
 40
11.5
100
AcDbArc
 50
138.222249
 51
161.777751
  0
LWPOLYLINE
  5
101
100
AcDbEntity
  8
3
100
AcDbPolyline
 90
        2
 70
     0
 43
0.0
 10
34.42328
 20
17.903904
 10
34.42328
 20
25.096091
  0
CIRCLE
  5
102
100
AcDbEntity
  8
0
100
AcDbCircle
 10
23.499997
 20
21.499998
 30
0.0
 40
4.775901
  0
CIRCLE
  5
103
100
AcDbEntity
  8
3
100
AcDbCircle
 10
23.499997
 20
21.499998
 30
0.0
 40
6.0
  0
LWPOLYLINE
  5
104
100
AcDbEntity
  8
3
100
AcDbPolyline
 90
        2
 70
     0
 43
0.0
 10
25.847331
 20
10.24211
 10
32.075947
 20
13.838204
  0
ARC
  5
105
100
AcDbEntity
  8
3
100
AcDbCircle
 10
23.499997
 20
21.499998
 30
0.0
 40
11.5
100
AcDbArc
 50
258.222249
 51
281.777751
  0
ARC
  5
106
100
AcDbEntity
  8
3
100
AcDbCircle
 10
23.499997
 20
21.499998
 30
0.0
 40
11.5
100
AcDbArc
 50
318.222249
 51
341.777751
  0
LWPOLYLINE
  5
107
100
AcDbEntity
  8
3
100
AcDbPolyline
 90
        2
 70
     0
 43
0.0
 10
32.075947
 20
29.161791
 10
25.847331
 20
32.757885
  0
ARC
  5
108
100
AcDbEntity
  8
3
100
AcDbCircle
 10
23.499997
 20
21.499998
 30
0.0
 40
11.5
100
AcDbArc
 50
78.222249
 51
101.777751
  0
ARC
  5
109
100
AcDbEntity
  8
3
100
AcDbCircle
 10
23.499997
 20
21.499998
 30
0.0
 40
11.5
100
AcDbArc
 50
18.222249
 51
41.777751
  0
LINE
  5
10A
100
AcDbEntity
  8
3
100
AcDbLine
 10
55.038368
 20
16.989254
 30
0.0
 11
55.038368
 21
21.489254
 31
0.0
  0
LINE
  5
10B
100
AcDbEntity
  8
3
100
AcDbLine
 10
56.538368
 20
15.489254
 30
0.0
 11
56.538368
 21
21.489254
 31
0.0
  0
LINE
  5
10C
100
AcDbEntity
  8
3
100
AcDbLine
 10
55.038368
 20
16.989254
 30
0.0
 11
56.538368
 21
15.489254
 31
0.0
  0
LINE
  5
10D
100
AcDbEntity
  8
3
100
AcDbLine
 10
56.538368
 20
27.489254
 30
0.0
 11
56.538368
 21
21.489254
 31
0.0
  0
LINE
  5
10E
100
AcDbEntity
  8
3
100
AcDbLine
 10
55.038368
 20
25.989254
 30
0.0
 11
55.038368
 21
21.489254
 31
0.0
  0
LINE
  5
10F
100
AcDbEntity
  8
3
100
AcDbLine
 10
55.038368
 20
25.989254
 30
0.0
 11
56.538368
 21
27.489254
 31
0.0
  0
LINE
  5
110
100
AcDbEntity
  8
3
100
AcDbLine
 10
87.538362
 20
21.476923
 30
0.0
 11
87.544589
 21
34.226922
 31
0.0
  0
LINE
  5
111
100
AcDbEntity
  8
3
100
AcDbLine
 10
76.796255
 20
32.747141
 30
0.0
 11
87.538368
 21
32.747141
 31
0.0
  0
LINE
  5
112
100
AcDbEntity
  8
3
100
AcDbLine
 10
77.038368
 20
26.196239
 30
0.0
 11
87.538368
 21
26.196239
 31
0.0
  0
LINE
  5
113
100
AcDbEntity
  8
3
100
AcDbLine
 10
77.038368
 20
28.222605
 30
0.0
 11
87.538368
 21
28.222605
 31
0.0
  0
LINE
  5
114
100
AcDbEntity
  8
3
100
AcDbLine
 10
77.038368
 20
32.989254
 30
0.0
 11
87.538368
 21
32.989254
 31
0.0
  0
LINE
  5
115
100
AcDbEntity
  8
3
100
AcDbLine
 10
77.038368
 20
9.989254
 30
0.0
 11
87.538368
 21
9.989254
 31
0.0
  0
LINE
  5
116
100
AcDbEntity
  8
3
100
AcDbLine
 10
76.796255
 20
10.231367
 30
0.0
 11
87.538368
 21
10.231367
 31
0.0
  0
LINE
  5
117
100
AcDbEntity
  8
3
100
AcDbLine
 10
77.038368
 20
14.755903
 30
0.0
 11
87.538368
 21
14.755903
 31
0.0
  0
LINE
  5
118
100
AcDbEntity
  8
3
100
AcDbLine
 10
77.038368
 20
16.782269
 30
0.0
 11
87.538368
 21
16.782269
 31
0.0
  0
INSERT
  5
119
100
AcDbEntity
  8
0
100
AcDbBlockReference
  2
A$C2DD26471
 10
75.762775
 20
9.989254
 30
0.0
  0
LINE
  5
11A
100
AcDbEntity
  8
3
100
AcDbLine
 10
75.038368
 20
21.489254
 30
0.0
 11
75.038368
 21
11.989254
 31
0.0
  0
LINE
  5
11B
100
AcDbEntity
  8
3
100
AcDbLine
 10
72.038368
 20
15.489254
 30
0.0
 11
72.038368
 21
21.489254
 31
0.0
  0
LINE
  5
11C
100
AcDbEntity
  8
3
100
AcDbLine
 10
75.038368
 20
11.989254
 30
0.0
 11
77.038368
 21
9.989254
 31
0.0
  0
LINE
  5
11D
100
AcDbEntity
  8
3
100
AcDbLine
 10
77.038368
 20
14.755903
 30
0.0
 11
77.038368
 21
16.782269
 31
0.0
  0
LINE
  5
11E
100
AcDbEntity
  8
3
100
AcDbLine
 10
75.038368
 20
21.489254
 30
0.0
 11
75.038368
 21
30.989254
 31
0.0
  0
LINE
  5
11F
100
AcDbEntity
  8
3
100
AcDbLine
 10
72.038368
 20
27.489254
 30
0.0
 11
72.038368
 21
21.489254
 31
0.0
  0
LINE
  5
120
100
AcDbEntity
  8
3
100
AcDbLine
 10
75.038368
 20
30.989254
 30
0.0
 11
77.038368
 21
32.989254
 31
0.0
  0
LINE
  5
121
100
AcDbEntity
  8
3
100
AcDbLine
 10
77.038368
 20
28.222605
 30
0.0
 11
77.038368
 21
26.196239
 31
0.0
  0
LINE
  5
122
100
AcDbEntity
  8
3
100
AcDbLine
 10
87.538368
 20
9.989254
 30
0.0
 11
87.538368
 21
21.489254
 31
0.0
  0
LINE
  5
123
100
AcDbEntity
  8
3
100
AcDbLine
 10
87.538368
 20
9.989254
 30
0.0
 11
87.538368
 21
21.489254
 31
0.0
  0
LINE
  5
124
100
AcDbEntity
  8
3
100
AcDbLine
 10
87.538362
 20
21.476923
 30
0.0
 11
87.532136
 21
8.726925
 31
0.0
  0
LINE
  5
125
100
AcDbEntity
  8
3
100
AcDbLine
 10
87.538368
 20
32.989254
 30
0.0
 11
87.538368
 21
21.489254
 31
0.0
  0
ARC
  5
126
100
AcDbEntity
  8
3
100
AcDbCircle
 10
173.708757
 20
30.434843
 30
0.0
 40
5.0
100
AcDbArc
 50
23.007704
 51
89.97202
  0
ARC
  5
127
100
AcDbEntity
  8
3
100
AcDbCircle
 10
152.538354
 20
21.445181
 30
0.0
 40
28.0
100
AcDbArc
 50
335.347702
 51
23.007704
  0
ARC
  5
128
100
AcDbEntity
  8
3
100
AcDbCircle
 10
173.699967
 20
12.434846
 30
0.0
 40
5.0
100
AcDbArc
 50
269.97202
 51
336.936336
  0
LINE
  5
129
100
AcDbEntity
  8
3
100
AcDbLine
 10
173.697526
 20
7.434846
 30
0.0
 11
172.531515
 21
7.435416
 31
0.0
  0
LINE
  5
12A
100
AcDbEntity
  8
3
100
AcDbLine
 10
173.711199
 20
35.434843
 30
0.0
 11
172.545189
 21
35.435412
 31
0.0
  0
ENDBLK
  5
12C
100
AcDbEntity
  8
0
100
AcDbBlockEnd
  0
ENDSEC
  0
SECTION
  2
ENTITIES
  0
LINE
  5
12F
100
AcDbEntity
  8
1
100
AcDbLine
 10
85.425799
 20
90.143522
 30
0.0
 11
220.209346
 21
90.143522
 31
0.0
  0
LINE
  5
130
100
AcDbEntity
  8
3
100
AcDbLine
 10
120.476725
 20
102.88119
 30
0.0
 11
205.477325
 21
104.08968
 31
0.0
  0
LINE
  5
131
100
AcDbEntity
  8
3
100
AcDbLine
 10
120.464272
 20
77.381193
 30
0.0
 11
205.463651
 21
76.089684
 31
0.0
  0
LINE
  5
132
100
AcDbEntity
  8
1
100
AcDbLine
 10
56.421634
 20
68.654268
 30
0.0
 11
56.441656
 21
109.654263
 31
0.0
  0
LINE
  5
133
100
AcDbEntity
  8
3
100
AcDbLine
 10
87.970504
 20
94.643522
 30
0.0
 11
107.970504
 21
94.643522
 31
0.0
  0
LINE
  5
134
100
AcDbEntity
  8
3
100
AcDbLine
 10
104.970504
 20
96.143522
 30
0.0
 11
89.470504
 21
96.143522
 31
0.0
  0
LINE
  5
135
100
AcDbEntity
  8
3
100
AcDbLine
 10
104.970504
 20
84.143522
 30
0.0
 11
89.470504
 21
84.143522
 31
0.0
  0
LINE
  5
136
100
AcDbEntity
  8
3
100
AcDbLine
 10
87.970504
 20
85.643522
 30
0.0
 11
107.970504
 21
85.643522
 31
0.0
  0
LWPOLYLINE
  5
137
100
AcDbEntity
  8
3
100
AcDbPolyline
 90
        2
 70
     0
 43
0.0
 10
54.084801
 20
101.412153
 10
47.856184
 20
97.816059
  0
LWPOLYLINE
  5
138
100
AcDbEntity
  8
3
100
AcDbPolyline
 90
        2
 70
     0
 43
0.0
 10
47.856184
 20
82.492472
 10
54.084801
 20
78.896378
  0
CIRCLE
  5
139
100
AcDbEntity
  8
3
100
AcDbCircle
 10
56.432134
 20
90.154266
 30
0.0
 40
9.5
  0
CIRCLE
  5
13A
100
AcDbEntity
  8
3
100
AcDbCircle
 10
56.432134
 20
90.154266
 30
0.0
 40
12.75
  0
LINE
  5
13B
100
AcDbEntity
  8
1
100
AcDbLine
 10
78.432131
 20
90.143522
 30
0.0
 11
32.932137
 21
90.165742
 31
0.0
  0
CIRCLE
  5
13C
100
AcDbEntity
  8
3
100
AcDbCircle
 10
56.432134
 20
90.154266
 30
0.0
 40
14.0
  0
LWPOLYLINE
  5
13D
100
AcDbEntity
  8
3
100
AcDbPolyline
 90
        2
 70
     0
 43
0.0
 10
45.508851
 20
93.750359
 10
45.508851
 20
86.558172
  0
ARC
  5
13E
100
AcDbEntity
  8
3
100
AcDbCircle
 10
56.432134
 20
90.154266
 30
0.0
 40
11.5
100
AcDbArc
 50
198.222249
 51
221.777751
  0
ARC
  5
13F
100
AcDbEntity
  8
3
100
AcDbCircle
 10
56.432134
 20
90.154266
 30
0.0
 40
11.5
100
AcDbArc
 50
138.222249
 51
161.777751
  0
LWPOLYLINE
  5
140
100
AcDbEntity
  8
3
100
AcDbPolyline
 90
        2
 70
     0
 43
0.0
 10
67.355417
 20
86.558172
 10
67.355417
 20
93.750359
  0
CIRCLE
  5
141
100
AcDbEntity
  8
0
100
AcDbCircle
 10
56.432134
 20
90.154266
 30
0.0
 40
4.775901
  0
CIRCLE
  5
142
100
AcDbEntity
  8
3
100
AcDbCircle
 10
56.432134
 20
90.154266
 30
0.0
 40
6.0
  0
LWPOLYLINE
  5
143
100
AcDbEntity
  8
3
100
AcDbPolyline
 90
        2
 70
     0
 43
0.0
 10
58.779467
 20
78.896378
 10
65.008084
 20
82.492472
  0
ARC
  5
144
100
AcDbEntity
  8
3
100
AcDbCircle
 10
56.432134
 20
90.154266
 30
0.0
 40
11.5
100
AcDbArc
 50
258.222249
 51
281.777751
  0
ARC
  5
145
100
AcDbEntity
  8
3
100
AcDbCircle
 10
56.432134
 20
90.154266
 30
0.0
 40
11.5
100
AcDbArc
 50
318.222249
 51
341.777751
  0
LWPOLYLINE
  5
146
100
AcDbEntity
  8
3
100
AcDbPolyline
 90
        2
 70
     0
 43
0.0
 10
65.008084
 20
97.816059
 10
58.779467
 20
101.412153
  0
ARC
  5
147
100
AcDbEntity
  8
3
100
AcDbCircle
 10
56.432134
 20
90.154266
 30
0.0
 40
11.5
100
AcDbArc
 50
78.222249
 51
101.777751
  0
ARC
  5
148
100
AcDbEntity
  8
3
100
AcDbCircle
 10
56.432134
 20
90.154266
 30
0.0
 40
11.5
100
AcDbArc
 50
18.222249
 51
41.777751
  0
LINE
  5
149
100
AcDbEntity
  8
3
100
AcDbLine
 10
87.970504
 20
85.643522
 30
0.0
 11
87.970504
 21
90.143522
 31
0.0
  0
LINE
  5
14A
100
AcDbEntity
  8
3
100
AcDbLine
 10
89.470504
 20
84.143522
 30
0.0
 11
89.470504
 21
90.143522
 31
0.0
  0
LINE
  5
14B
100
AcDbEntity
  8
3
100
AcDbLine
 10
87.970504
 20
85.643522
 30
0.0
 11
89.470504
 21
84.143522
 31
0.0
  0
LINE
  5
14C
100
AcDbEntity
  8
3
100
AcDbLine
 10
89.470504
 20
96.143522
 30
0.0
 11
89.470504
 21
90.143522
 31
0.0
  0
LINE
  5
14D
100
AcDbEntity
  8
3
100
AcDbLine
 10
87.970504
 20
94.643522
 30
0.0
 11
87.970504
 21
90.143522
 31
0.0
  0
LINE
  5
14E
100
AcDbEntity
  8
3
100
AcDbLine
 10
87.970504
 20
94.643522
 30
0.0
 11
89.470504
 21
96.143522
 31
0.0
  0
LINE
  5
14F
100
AcDbEntity
  8
3
100
AcDbLine
 10
120.470498
 20
90.131191
 30
0.0
 11
120.476725
 21
102.88119
 31
0.0
  0
LINE
  5
150
100
AcDbEntity
  8
3
100
AcDbLine
 10
109.728392
 20
101.401409
 30
0.0
 11
120.470504
 21
101.401409
 31
0.0
  0
LINE
  5
151
100
AcDbEntity
  8
3
100
AcDbLine
 10
109.970504
 20
94.850507
 30
0.0
 11
120.470504
 21
94.850507
 31
0.0
  0
LINE
  5
152
100
AcDbEntity
  8
3
100
AcDbLine
 10
109.970504
 20
96.876873
 30
0.0
 11
120.470504
 21
96.876873
 31
0.0
  0
LINE
  5
153
100
AcDbEntity
  8
3
100
AcDbLine
 10
109.970504
 20
101.643522
 30
0.0
 11
120.470504
 21
101.643522
 31
0.0
  0
LINE
  5
154
100
AcDbEntity
  8
3
100
AcDbLine
 10
109.970504
 20
78.643522
 30
0.0
 11
120.470504
 21
78.643522
 31
0.0
  0
LINE
  5
155
100
AcDbEntity
  8
3
100
AcDbLine
 10
109.728392
 20
78.885635
 30
0.0
 11
120.470504
 21
78.885635
 31
0.0
  0
LINE
  5
156
100
AcDbEntity
  8
3
100
AcDbLine
 10
109.970504
 20
83.410171
 30
0.0
 11
120.470504
 21
83.410171
 31
0.0
  0
LINE
  5
157
100
AcDbEntity
  8
3
100
AcDbLine
 10
109.970504
 20
85.436537
 30
0.0
 11
120.470504
 21
85.436537
 31
0.0
  0
INSERT
  5
158
100
AcDbEntity
  8
0
100
AcDbBlockReference
  2
A$C2DD26471
 10
108.694911
 20
78.643522
 30
0.0
  0
LINE
  5
159
100
AcDbEntity
  8
3
100
AcDbLine
 10
107.970504
 20
90.143522
 30
0.0
 11
107.970504
 21
80.643522
 31
0.0
  0
LINE
  5
15A
100
AcDbEntity
  8
3
100
AcDbLine
 10
104.970504
 20
84.143522
 30
0.0
 11
104.970504
 21
90.143522
 31
0.0
  0
LINE
  5
15B
100
AcDbEntity
  8
3
100
AcDbLine
 10
107.970504
 20
80.643522
 30
0.0
 11
109.970504
 21
78.643522
 31
0.0
  0
LINE
  5
15C
100
AcDbEntity
  8
3
100
AcDbLine
 10
109.970504
 20
83.410171
 30
0.0
 11
109.970504
 21
85.436537
 31
0.0
  0
LINE
  5
15D
100
AcDbEntity
  8
3
100
AcDbLine
 10
107.970504
 20
90.143522
 30
0.0
 11
107.970504
 21
99.643522
 31
0.0
  0
LINE
  5
15E
100
AcDbEntity
  8
3
100
AcDbLine
 10
104.970504
 20
96.143522
 30
0.0
 11
104.970504
 21
90.143522
 31
0.0
  0
LINE
  5
15F
100
AcDbEntity
  8
3
100
AcDbLine
 10
107.970504
 20
99.643522
 30
0.0
 11
109.970504
 21
101.643522
 31
0.0
  0
LINE
  5
160
100
AcDbEntity
  8
3
100
AcDbLine
 10
109.970504
 20
96.876873
 30
0.0
 11
109.970504
 21
94.850507
 31
0.0
  0
LINE
  5
161
100
AcDbEntity
  8
3
100
AcDbLine
 10
120.470504
 20
78.643522
 30
0.0
 11
120.470504
 21
90.143522
 31
0.0
  0
LINE
  5
162
100
AcDbEntity
  8
3
100
AcDbLine
 10
120.470504
 20
78.643522
 30
0.0
 11
120.470504
 21
90.143522
 31
0.0
  0
LINE
  5
163
100
AcDbEntity
  8
3
100
AcDbLine
 10
120.470498
 20
90.131191
 30
0.0
 11
120.464272
 21
77.381193
 31
0.0
  0
LINE
  5
164
100
AcDbEntity
  8
3
100
AcDbLine
 10
120.470504
 20
101.643522
 30
0.0
 11
120.470504
 21
90.143522
 31
0.0
  0
ARC
  5
165
100
AcDbEntity
  8
3
100
AcDbCircle
 10
206.640894
 20
99.089112
 30
0.0
 40
5.0
100
AcDbArc
 50
23.007704
 51
89.97202
  0
ARC
  5
166
100
AcDbEntity
  8
3
100
AcDbCircle
 10
185.470491
 20
90.099449
 30
0.0
 40
28.0
100
AcDbArc
 50
335.347702
 51
23.007704
  0
ARC
  5
167
100
AcDbEntity
  8
3
100
AcDbCircle
 10
206.632104
 20
81.089114
 30
0.0
 40
5.0
100
AcDbArc
 50
269.97202
 51
336.936336
  0
LINE
  5
168
100
AcDbEntity
  8
3
100
AcDbLine
 10
206.629662
 20
76.089114
 30
0.0
 11
205.463651
 21
76.089684
 31
0.0
  0
LINE
  5
169
100
AcDbEntity
  8
3
100
AcDbLine
 10
206.643335
 20
104.089111
 30
0.0
 11
205.477325
 21
104.08968
 31
0.0
  0
ENDSEC
  0
SECTION
  2
OBJECTS
  0
DICTIONARY
  5
C1
100
AcDbDictionary
  3
ACAD_GROUP
350
C2
  3
ACAD_MLINESTYLE
350
CF
  3
ACDBVARIABLEDICTIONARY
350
E1
  0
DICTIONARY
  5
C2
102
{ACAD_REACTORS
330
C1
102
}
100
AcDbDictionary
  0
DICTIONARY
  5
CF
102
{ACAD_REACTORS
330
C1
102
}
100
AcDbDictionary
  3
STANDARD
350
D0
  0
DICTIONARY
  5
E1
102
{ACAD_REACTORS
330
C1
102
}
100
AcDbDictionary
  3
DIMADEC
350
E2
  0
MLINESTYLE
  5
D0
102
{ACAD_REACTORS
330
CF
102
}
100
AcDbMlineStyle
  2
STANDARD
 70
     0
  3

 62
   256
 51
90.0
 52
90.0
 71
     2
 49
0.5
 62
   256
  6
BYLAYER
 49
-0.5
 62
   256
  6
BYLAYER
  0
DICTIONARYVAR
  5
E2
102
{ACAD_REACTORS
330
E1
102
}
100
DictionaryVariables
280
     0
  1
0
  0
ENDSEC
  0
EOF
