  0
SECTION
  2
HEADER
  9
$ACADVER
  1
AC1015
  9
$ACADMAINTVER
 70
    13
  9
$DWGCODEPAGE
  3
ANSI_932
  9
$INSBASE
 10
0.0
 20
0.0
 30
0.0
  9
$EXTMIN
 10
43.37274006905258
 20
47.99804739653836
 30
-0.0015258207003583
  9
$EXTMAX
 10
250.5020148010249
 20
172.0062260190097
 30
0.0000000349246037
  9
$LIMMIN
 10
0.0
 20
0.0
  9
$LIMMAX
 10
300.0
 20
200.0
  9
$ORTHOMODE
 70
     1
  9
$REGENMODE
 70
     1
  9
$FILLMODE
 70
     1
  9
$QTEXTMODE
 70
     0
  9
$MIRRTEXT
 70
     1
  9
$LTSCALE
 40
1.0
  9
$ATTMODE
 70
     1
  9
$TEXTSIZE
 40
5.0
  9
$TRACEWID
 40
0.05
  9
$TEXTSTYLE
  7
BIGFONT
  9
$CLAYER
  8
0
  9
$CELTYPE
  6
ByLayer
  9
$CECOLOR
 62
   256
  9
$CELTSCALE
 40
1.0
  9
$DISPSILH
 70
     0
  9
$DIMSCALE
 40
1.0
  9
$DIMASZ
 40
0.18
  9
$DIMEXO
 40
0.0625
  9
$DIMDLI
 40
0.38
  9
$DIMRND
 40
0.0
  9
$DIMDLE
 40
0.0
  9
$DIMEXE
 40
0.18
  9
$DIMTP
 40
0.0
  9
$DIMTM
 40
0.0
  9
$DIMTXT
 40
0.18
  9
$DIMCEN
 40
0.09
  9
$DIMTSZ
 40
0.0
  9
$DIMTOL
 70
     0
  9
$DIMLIM
 70
     0
  9
$DIMTIH
 70
     1
  9
$DIMTOH
 70
     1
  9
$DIMSE1
 70
     0
  9
$DIMSE2
 70
     0
  9
$DIMTAD
 70
     0
  9
$DIMZIN
 70
     0
  9
$DIMBLK
  1

  9
$DIMASO
 70
     1
  9
$DIMSHO
 70
     1
  9
$DIMPOST
  1

  9
$DIMAPOST
  1

  9
$DIMALT
 70
     0
  9
$DIMALTD
 70
     2
  9
$DIMALTF
 40
25.4
  9
$DIMLFAC
 40
1.0
  9
$DIMTOFL
 70
     0
  9
$DIMTVP
 40
0.0
  9
$DIMTIX
 70
     0
  9
$DIMSOXD
 70
     0
  9
$DIMSAH
 70
     0
  9
$DIMBLK1
  1

  9
$DIMBLK2
  1

  9
$DIMSTYLE
  2
STANDARD
  9
$DIMCLRD
 70
     0
  9
$DIMCLRE
 70
     0
  9
$DIMCLRT
 70
     0
  9
$DIMTFAC
 40
1.0
  9
$DIMGAP
 40
0.09
  9
$DIMJUST
 70
     0
  9
$DIMSD1
 70
     0
  9
$DIMSD2
 70
     0
  9
$DIMTOLJ
 70
     1
  9
$DIMTZIN
 70
     0
  9
$DIMALTZ
 70
     0
  9
$DIMALTTZ
 70
     0
  9
$DIMUPT
 70
     0
  9
$DIMDEC
 70
     4
  9
$DIMTDEC
 70
     4
  9
$DIMALTU
 70
     2
  9
$DIMALTTD
 70
     2
  9
$DIMTXSTY
  7
STANDARD
  9
$DIMAUNIT
 70
     0
  9
$DIMADEC
 70
     0
  9
$DIMALTRND
 40
0.0
  9
$DIMAZIN
 70
     0
  9
$DIMDSEP
 70
    46
  9
$DIMATFIT
 70
     3
  9
$DIMFRAC
 70
     0
  9
$DIMLDRBLK
  1

  9
$DIMLUNIT
 70
     2
  9
$DIMLWD
 70
    -2
  9
$DIMLWE
 70
    -2
  9
$DIMTMOVE
 70
     0
  9
$LUNITS
 70
     2
  9
$LUPREC
 70
     4
  9
$SKETCHINC
 40
0.1
  9
$FILLETRAD
 40
0.0
  9
$AUNITS
 70
     0
  9
$AUPREC
 70
     0
  9
$MENU
  1
acad
  9
$ELEVATION
 40
0.0
  9
$PELEVATION
 40
0.0
  9
$THICKNESS
 40
0.0
  9
$LIMCHECK
 70
     0
  9
$CHAMFERA
 40
0.0
  9
$CHAMFERB
 40
0.0
  9
$CHAMFERC
 40
0.0
  9
$CHAMFERD
 40
0.0
  9
$SKPOLY
 70
     0
  9
$TDCREATE
 40
2450686.794502314
  9
$TDUCREATE
 40
2450686.419502314
  9
$TDUPDATE
 40
2456451.604280590
  9
$TDUUPDATE
 40
2456451.229280590
  9
$TDINDWG
 40
0.0052197222
  9
$TDUSRTIMER
 40
0.0052197222
  9
$USRTIMER
 70
     1
  9
$ANGBASE
 50
0.0
  9
$ANGDIR
 70
     0
  9
$PDMODE
 70
     0
  9
$PDSIZE
 40
0.0
  9
$PLINEWID
 40
0.0
  9
$SPLFRAME
 70
     0
  9
$SPLINETYPE
 70
     6
  9
$SPLINESEGS
 70
     8
  9
$HANDSEED
  5
481
  9
$SURFTAB1
 70
     6
  9
$SURFTAB2
 70
     6
  9
$SURFTYPE
 70
     6
  9
$SURFU
 70
     6
  9
$SURFV
 70
     6
  9
$UCSBASE
  2

  9
$UCSNAME
  2

  9
$UCSORG
 10
0.0
 20
0.0
 30
0.0
  9
$UCSXDIR
 10
1.0
 20
0.0
 30
0.0
  9
$UCSYDIR
 10
0.0
 20
1.0
 30
0.0
  9
$UCSORTHOREF
  2

  9
$UCSORTHOVIEW
 70
     0
  9
$UCSORGTOP
 10
0.0
 20
0.0
 30
0.0
  9
$UCSORGBOTTOM
 10
0.0
 20
0.0
 30
0.0
  9
$UCSORGLEFT
 10
0.0
 20
0.0
 30
0.0
  9
$UCSORGRIGHT
 10
0.0
 20
0.0
 30
0.0
  9
$UCSORGFRONT
 10
0.0
 20
0.0
 30
0.0
  9
$UCSORGBACK
 10
0.0
 20
0.0
 30
0.0
  9
$PUCSBASE
  2

  9
$PUCSNAME
  2

  9
$PUCSORG
 10
0.0
 20
0.0
 30
0.0
  9
$PUCSXDIR
 10
1.0
 20
0.0
 30
0.0
  9
$PUCSYDIR
 10
0.0
 20
1.0
 30
0.0
  9
$PUCSORTHOREF
  2

  9
$PUCSORTHOVIEW
 70
     0
  9
$PUCSORGTOP
 10
0.0
 20
0.0
 30
0.0
  9
$PUCSORGBOTTOM
 10
0.0
 20
0.0
 30
0.0
  9
$PUCSORGLEFT
 10
0.0
 20
0.0
 30
0.0
  9
$PUCSORGRIGHT
 10
0.0
 20
0.0
 30
0.0
  9
$PUCSORGFRONT
 10
0.0
 20
0.0
 30
0.0
  9
$PUCSORGBACK
 10
0.0
 20
0.0
 30
0.0
  9
$USERI1
 70
     0
  9
$USERI2
 70
     0
  9
$USERI3
 70
     0
  9
$USERI4
 70
     0
  9
$USERI5
 70
     0
  9
$USERR1
 40
0.0
  9
$USERR2
 40
0.0
  9
$USERR3
 40
0.0
  9
$USERR4
 40
0.0
  9
$USERR5
 40
0.0
  9
$WORLDVIEW
 70
     1
  9
$SHADEDGE
 70
     3
  9
$SHADEDIF
 70
    70
  9
$TILEMODE
 70
     1
  9
$MAXACTVP
 70
    16
  9
$PINSBASE
 10
0.0
 20
0.0
 30
0.0
  9
$PLIMCHECK
 70
     0
  9
$PEXTMIN
 10
1.000000000000000E+20
 20
1.000000000000000E+20
 30
1.000000000000000E+20
  9
$PEXTMAX
 10
-1.000000000000000E+20
 20
-1.000000000000000E+20
 30
-1.000000000000000E+20
  9
$PLIMMIN
 10
0.0
 20
0.0
  9
$PLIMMAX
 10
12.0
 20
9.0
  9
$UNITMODE
 70
     0
  9
$VISRETAIN
 70
     0
  9
$PLINEGEN
 70
     0
  9
$PSLTSCALE
 70
     1
  9
$TREEDEPTH
 70
  3020
  9
$CMLSTYLE
  2
Standard
  9
$CMLJUST
 70
     0
  9
$CMLSCALE
 40
1.0
  9
$PROXYGRAPHICS
 70
     1
  9
$MEASUREMENT
 70
     0
  9
$CELWEIGHT
370
    -1
  9
$ENDCAPS
280
     0
  9
$JOINSTYLE
280
     0
  9
$LWDISPLAY
290
     0
  9
$INSUNITS
 70
     0
  9
$HYPERLINKBASE
  1

  9
$STYLESHEET
  1

  9
$XEDIT
290
     1
  9
$CEPSNTYPE
380
     0
  9
$PSTYLEMODE
290
     1
  9
$FINGERPRINTGUID
  2
{68CBDDBF-D25C-4AB5-8A5F-E1BC67851593}
  9
$VERSIONGUID
  2
{32E41720-5124-451F-A37E-396107BF9635}
  9
$EXTNAMES
290
     1
  9
$PSVPSCALE
 40
0.0
  9
$OLESTARTUP
290
     0
  0
ENDSEC
  0
SECTION
  2
CLASSES
  0
CLASS
  1
ACDBDICTIONARYWDFLT
  2
AcDbDictionaryWithDefault
  3
AutoCAD 2000
 90
        0
280
     0
281
     0
  0
CLASS
  1
ACDBPLACEHOLDER
  2
AcDbPlaceHolder
  3
AutoCAD 2000
 90
        0
280
     0
281
     0
  0
CLASS
  1
LAYOUT
  2
AcDbLayout
  3
AutoCAD 2000
 90
        0
280
     0
281
     0
  0
CLASS
  1
AMGSETTINGSOBJ
  2
AmgSettingsObj
  3
"AcadM|Product Description: AutoCAD Mechanical 2000|Company: Autodesk"
 90
        0
280
     0
281
     0
  0
CLASS
  1
ACME_DOCUMENT
  2
AcMeDbDoc
  3
AcMeServices
 90
        0
280
     0
281
     0
  0
CLASS
  1
ACMESCOPE
  2
AcMeScope
  3
AcMeServices
 90
        0
280
     0
281
     0
  0
CLASS
  1
ACMECOMMANDHISTORY
  2
AcMeCommandHistory
  3
AcMeServices
 90
        0
280
     0
281
     0
  0
CLASS
  1
ACIMSYSVARMAN
  2
AcImSysVarManager
  3
AcMeServices
 90
        0
280
     0
281
     0
  0
CLASS
  1
ACIMREALSYSVAR
  2
AcImRealSysVar
  3
AcMeServices
 90
        0
280
     0
281
     0
  0
CLASS
  1
ACIMINTSYSVAR
  2
AcImIntSysVar
  3
AcMeServices
 90
        0
280
     0
281
     0
  0
CLASS
  1
ACMEDRAWINGMAN
  2
AcMeDrawingMan
  3
AcMeServices
 90
        0
280
     0
281
     0
  0
CLASS
  1
ACMEVIEW
  2
AcMeView
  3
AcMeServices
 90
        0
280
     0
281
     0
  0
CLASS
  1
ACDBENTITYCACHE
  2
AcMeEntityCache
  3
AcMeServices
 90
        0
280
     0
281
     0
  0
CLASS
  1
GSMANAGER
  2
AcMeGSManager
  3
AcMeServices
 90
        0
280
     0
281
     0
  0
CLASS
  1
AMDTINTERNALREACTOR
  2
AmdtInternalReactor
  3
AcMeServices
 90
        0
280
     0
281
     0
  0
CLASS
  1
ACMESTATEMGR
  2
AcMeStateMgr
  3
AcMeServices
 90
        0
280
     0
281
     0
  0
CLASS
  1
ACGREFMASTER
  2
AcGrefMaster
  3
AcAttribServices
 90
        0
280
     0
281
     0
  0
CLASS
  1
AM_DRAWING_MGR
  2
AcDmDwgMgr
  3
AcMechDwgViewMgmt
 90
        0
280
     0
281
     0
  0
CLASS
  1
AM_DWG_DOCUMENT
  2
AcDmDwgDocument
  3
AcMechDwgViewMgmt
 90
        0
280
     0
281
     0
  0
CLASS
  1
AM_DWG_SHEET
  2
AcDmSheet
  3
AcMechDwgViewMgmt
 90
        0
280
     0
281
     0
  0
CLASS
  1
AM_VIEWDIMPARMAP
  2
AcDmViewDimParMap
  3
AcMechDwgViewMgmt
 90
        0
280
     0
281
     0
  0
CLASS
  1
AM_DWGMGR_NAME
  2
AcDmDwgMgrName
  3
AcMechDwgViewMgmt
 90
        0
280
     0
281
     0
  0
CLASS
  1
ACME_DATABASE
  2
AcMeDbDatabase
  3
AcMeServices
 90
        0
280
     0
281
     0
  0
CLASS
  1
ACRFINSADJUSTERMGR
  2
AcRfInsAdjusterMgr
  3
AcMeServices
 90
        0
280
     0
281
     0
  0
CLASS
  1
ACGREFACADMASTER
  2
AcGrefacadMaster
  3
AcGrefServices
 90
        0
280
     0
281
     0
  0
CLASS
  1
AMDTMENUSTATEMGR
  2
AmdtMenuStateMgr
  3
McadcomServices
 90
        0
280
     0
281
     0
  0
CLASS
  1
AMDTMCOMMENUSTATE
  2
AmdtMcomMenuState
  3
McadcomServices
 90
        0
280
     0
281
     0
  0
CLASS
  1
AMIMASTER
  2
AmiMaster
  3
AmiServices
 90
        0
280
     0
281
     0
  0
CLASS
  1
ASAPP
  2
AcAsAppObject
  3
AutoSurfServices
 90
        0
280
     0
281
     0
  0
CLASS
  1
IM_STATIC_MAN
  2
AcImStaticVarManager
  3
AcMeServices
 90
        0
280
     0
281
     0
  0
CLASS
  1
ACIMSTRSYSVAR
  2
AcImStrSysVar
  3
AcMeServices
 90
        0
280
     0
281
     0
  0
CLASS
  1
ACIMDBLSTATICVAR
  2
AcImDblStaticVar
  3
AcMeServices
 90
        0
280
     0
281
     0
  0
CLASS
  1
ACIMSTRSTATICVAR
  2
AcImStrStaticVar
  3
AcMeServices
 90
        0
280
     0
281
     0
  0
CLASS
  1
ACIMINTSTATICVAR
  2
AcImIntStaticVar
  3
AcMeServices
 90
        0
280
     0
281
     0
  0
CLASS
  1
ACASGREFMASTER
  2
AcAsGrefMaster
  3
AutoSurfResolverServices
 90
        0
280
     0
281
     0
  0
CLASS
  1
ACADGREFMODULE
  2
AcAdGrefModule
  3
AdGrefServices
 90
        0
280
     0
281
     0
  0
CLASS
  1
AMDTMAPISURFMOUDULE
  2
AmdtMApiSurfModule
  3
MApiSurfServices
 90
        0
280
     0
281
     0
  0
CLASS
  1
MAPIAMMOUDLE
  2
MApiAmModule
  3
MApiAmServices
 90
        0
280
     0
281
     0
  0
CLASS
  1
AMDTADMENUSTATE
  2
AmdtAdMenuState
  3
DesignerServices
 90
        0
280
     0
281
     0
  0
CLASS
  1
ADAPPL
  2
AcAdAppl
  3
DesignerServices
 90
        0
280
     0
281
     0
  0
CLASS
  1
DEPMGR
  2
AcAdDepMgr
  3
DesignerServices
 90
        0
280
     0
281
     0
  0
CLASS
  1
PARAMMGR
  2
AcAdParamMgr
  3
DesignerServices
 90
        0
280
     0
281
     0
  0
CLASS
  1
PARAMSCOPE
  2
AcAdParamScope
  3
DesignerServices
 90
        0
280
     0
281
     0
  0
CLASS
  1
NAMEDAPPL
  2
AcAdNamedAppl
  3
DesignerServices
 90
        0
280
     0
281
     0
  0
CLASS
  1
AMDTDMMENUSTATE
  2
AmdtDmMenuState
  3
AcMechDwgViewMgmt
 90
        0
280
     0
281
     0
  0
CLASS
  1
MAPIADMODULE
  2
MApiAdModule
  3
MApiAdServices
 90
        0
280
     0
281
     0
  0
CLASS
  1
AMDTAMMENUSTATE
  2
AmdtAmMenuState
  3
DesignerAssemblies
 90
        0
280
     0
281
     0
  0
CLASS
  1
ACAMPROJECT
  2
AcAmProject
  3
DesignerAssemblies
 90
        0
280
     0
281
     0
  0
CLASS
  1
ACAMGRCOMPDEF
  2
AcAmGrCompDef
  3
DesignerAssemblies
 90
        0
280
     0
281
     0
  0
CLASS
  1
ACCMCONTEXT
  2
AcCmContext
  3
DesignerAssemblies
 90
        0
280
     0
281
     0
  0
CLASS
  1
ACAMCOMPDEF
  2
AcAmCompDef
  3
DesignerAssemblies
 90
        0
280
     0
281
     0
  0
CLASS
  1
ACAMCOMPDEFMGR
  2
AcAmCompDefMgr
  3
DesignerAssemblies
 90
        0
280
     0
281
     0
  0
CLASS
  1
AMCONTEXTMGR
  2
AcAmContextMgr
  3
DesignerAssemblies
 90
        0
280
     0
281
     0
  0
CLASS
  1
ACAMCONTEXTMODELER
  2
AcAmContextModeler
  3
DesignerAssemblies
 90
        0
280
     0
281
     0
  0
CLASS
  1
ACMDATADICTIONARY
  2
AcmDataDictionary
  3
"AcmSymBB|Product Description: AutoCAD Mechanical 2000|Company: Autodesk"
 90
        0
280
     0
281
     0
  0
CLASS
  1
ACMDATAENTRYBLOCK
  2
AcmDataEntryBlock
  3
"AcmSymBB|Product Description: AutoCAD Mechanical 2000|Company: Autodesk"
 90
        0
280
     0
281
     0
  0
CLASS
  1
CATALOGSTATE
  2
AcAmCatalogState
  3
DesignerAssemblies
 90
        0
280
     0
281
     0
  0
CLASS
  1
ACAMGRCOMPDEFSET
  2
AcAmGrCompDefSet
  3
DesignerAssemblies
 90
        0
280
     0
281
     0
  0
CLASS
  1
AMDTBROWSERDBTAB
  2
AmdtBrowserDbTab
  3
McadcomServices
 90
        0
280
     0
281
     0
  0
CLASS
  1
CBROWSERAPPOBJECT
  2
CBrowserAppObject
  3
McadcomServices
 90
        0
280
     0
281
     0
  0
CLASS
  1
DM_PLACEHOLDER
  2
AcDmSelsetPlaceholder
  3
AcMechDwgViewMgmt
 90
        0
280
     0
281
     0
  0
CLASS
  1
AMGOBJPROPCFG
  2
AmgObjPropCfg
  3
"AmgLay|Product Description: AutoCAD Mechanical 2000|Company: Autodesk"
 90
        1
280
     0
281
     0
  0
CLASS
  1
ACAMGFILTERDAT
  2
AcAmgFilterDat
  3
"AcadM|Product Description: AutoCAD Mechanical 2000|Company: Autodesk"
 90
        0
280
     0
281
     0
  0
CLASS
  1
LAYER_INDEX
  2
AcDbLayerIndex
  3
AutoCAD 2000
 90
        0
280
     0
281
     0
  0
CLASS
  1
IDBUFFER
  2
AcDbIdBuffer
  3
AutoCAD 2000
 90
        0
280
     0
281
     0
  0
CLASS
  1
DICTIONARYVAR
  2
AcDbDictionaryVar
  3
AutoCAD 2000
 90
        0
280
     0
281
     0
  0
CLASS
  1
AMDTFORMULAUPDATEDISPATCHER
  2
AmdtFormulaUpdateDispatcher
  3
AcMeServices
 90
        0
280
     0
281
     0
  0
CLASS
  1
ACMSTANDARDANSI
  2
AcmStandardANSI
  3
"Amdt_StdImp|Product Description: AutoCAD Mechanical 2000|Company: Autodesk"
 90
        0
280
     0
281
     0
  0
CLASS
  1
ACMSURFSTANDARDANSI
  2
AcmSurfTextStdANSI
  3
"Amdt_StdImp|Product Description: AutoCAD Mechanical 2000|Company: Autodesk"
 90
        0
280
     0
281
     0
  0
CLASS
  1
ACMFCFSTANDARDANSI
  2
AcmFCFStdANSI
  3
"Amdt_StdImp|Product Description: AutoCAD Mechanical 2000|Company: Autodesk"
 90
        0
280
     0
281
     0
  0
CLASS
  1
ACMWELDSTANDARDANSI
  2
AcmWeldingStdANSI
  3
"Amdt_StdImp|Product Description: AutoCAD Mechanical 2000|Company: Autodesk"
 90
        0
280
     0
281
     0
  0
CLASS
  1
ACMIDSTANDARDANSI
  2
AcmIdStdANSI
  3
"Amdt_StdImp|Product Description: AutoCAD Mechanical 2000|Company: Autodesk"
 90
        0
280
     0
281
     0
  0
CLASS
  1
ACMDATUMSTANDARDANSI
  2
AcmDatumStdANSI
  3
"Amdt_StdImp|Product Description: AutoCAD Mechanical 2000|Company: Autodesk"
 90
        0
280
     0
281
     0
  0
CLASS
  1
ACMBOMSTANDARDANSI
  2
AcmBOMStdANSI
  3
"Amdt_StdImp|Product Description: AutoCAD Mechanical 2000|Company: Autodesk"
 90
        0
280
     0
281
     0
  0
CLASS
  1
ACMDETAILSTANDARDANSI
  2
AmdtDetailSymStdANSI
  3
"Amdt_StdImp|Product Description: AutoCAD Mechanical 2000|Company: Autodesk"
 90
        0
280
     0
281
     0
  0
CLASS
  1
ACMSECTIONSTANDARDANSI
  2
AmdtSectionSymStdANSI
  3
"Amdt_StdImp|Product Description: AutoCAD Mechanical 2000|Company: Autodesk"
 90
        0
280
     0
281
     0
  0
CLASS
  1
ACMCENTERLINESTANDARDANSI
  2
AmdtCenterLineStdANSI
  3
"Amdt_StdImp|Product Description: AutoCAD Mechanical 2000|Company: Autodesk"
 90
        0
280
     0
281
     0
  0
CLASS
  1
ACMTHREADLINESTANDARDANSI
  2
AmdtThreadLineStdANSI
  3
"Amdt_StdImp|Product Description: AutoCAD Mechanical 2000|Company: Autodesk"
 90
        0
280
     0
281
     0
  0
CLASS
  1
ACMNOTESTANDARDANSI
  2
AmdtNoteStdANSI
  3
"Amdt_StdImp|Product Description: AutoCAD Mechanical 2000|Company: Autodesk"
 90
        0
280
     0
281
     0
  0
CLASS
  1
ACAMGLAYSTD
  2
AcAmgLayStd
  3
"AcAmgLayStd|Product Description: AutoCAD Mechanical 2000|Company: Autodesk"
 90
        0
280
     0
281
     0
  0
CLASS
  1
ACAMGDIMSTD
  2
AcAmgDimStd
  3
"AcAmgDimStd|Product Description: AutoCAD Mechanical 2000|Company: Autodesk"
 90
        0
280
     0
281
     0
  0
CLASS
  1
ACAMGHOLECHARTSTDANSI
  2
AcAmgHoleChartStdANSI
  3
ACMSYMBB_MODULE_NAME
 90
        0
280
     0
281
     0
  0
CLASS
  1
ACAMGTITLESTD
  2
AcAmgTitleStd
  3
"TITLEAPP"
 90
        0
280
     0
281
     0
  0
ENDSEC
  0
SECTION
  2
TABLES
  0
TABLE
  2
VPORT
  5
8
330
0
100
AcDbSymbolTable
 70
     8
  0
VPORT
  5
480
330
8
100
AcDbSymbolTableRecord
100
AcDbViewportTableRecord
  2
*Active
 70
     0
 10
0.0
 20
0.0
 11
1.0
 21
1.0
 12
-65.8567266629538
 22
-28.95706665542013
 13
0.0
 23
0.0
 14
0.5
 24
0.5
 15
1.0
 25
1.0
 16
0.0
 26
0.0
 36
1.0
 17
172.4418859649122
 27
115.7544153352129
 37
0.0
 40
87.83921313649322
 41
1.489721886336154
 42
50.0
 43
0.0
 44
0.0
 50
0.0
 51
0.0
 71
     0
 72
   100
 73
     1
 74
     1
 75
     0
 76
     0
 77
     0
 78
     0
281
     0
 65
     0
110
0.0
120
0.0
130
0.0
111
1.0
121
0.0
131
0.0
112
0.0
122
1.0
132
0.0
 79
     0
146
0.0
  0
ENDTAB
  0
TABLE
  2
LTYPE
  5
5
330
0
100
AcDbSymbolTable
 70
    23
  0
LTYPE
  5
13
330
5
100
AcDbSymbolTableRecord
100
AcDbLinetypeTableRecord
  2
ByBlock
 70
     0
  3

 72
    65
 73
     0
 40
0.0
  0
LTYPE
  5
14
330
5
100
AcDbSymbolTableRecord
100
AcDbLinetypeTableRecord
  2
ByLayer
 70
     0
  3

 72
    65
 73
     0
 40
0.0
  0
LTYPE
  5
15
330
5
100
AcDbSymbolTableRecord
100
AcDbLinetypeTableRecord
  2
CONTINUOUS
 70
     0
  3
Solid line
 72
    65
 73
     0
 40
0.0
  0
LTYPE
  5
23
330
5
100
AcDbSymbolTableRecord
100
AcDbLinetypeTableRecord
  2
BYLAYER
 70
     0
  3

 72
    65
 73
     0
 40
0.0
  0
LTYPE
  5
24
330
5
100
AcDbSymbolTableRecord
100
AcDbLinetypeTableRecord
  2
ITTEN1
 70
     0
  3

 72
    65
 73
     4
 40
8.199999999999999
 49
5.0
 74
     0
 49
-1.0
 74
     0
 49
1.199999999999999
 74
     0
 49
-1.0
 74
     0
  0
LTYPE
  5
10B
330
5
100
AcDbSymbolTableRecord
100
AcDbLinetypeTableRecord
  2
HIDDEN
 70
     0
  3
Hidden __ __ __ __ __ __ __ __ __ __ __ __ __ _
 72
    65
 73
     2
 40
0.375
 49
0.25
 74
     0
 49
-0.125
 74
     0
  0
LTYPE
  5
10C
330
5
100
AcDbSymbolTableRecord
100
AcDbLinetypeTableRecord
  2
PHANTOM2
 70
     0
  3
Phantom (.5x) ___ _ _ ___ _ _ ___ _ _ ___ _ _
 72
    65
 73
     6
 40
1.25
 49
0.625
 74
     0
 49
-0.125
 74
     0
 49
0.125
 74
     0
 49
-0.125
 74
     0
 49
0.125
 74
     0
 49
-0.125
 74
     0
  0
LTYPE
  5
10D
330
5
100
AcDbSymbolTableRecord
100
AcDbLinetypeTableRecord
  2
CENTER
 70
     0
  3
Center ____ _ ____ _ ____ _ ____ _ ____ _ ____
 72
    65
 73
     4
 40
2.0
 49
1.25
 74
     0
 49
-0.25
 74
     0
 49
0.25
 74
     0
 49
-0.25
 74
     0
  0
LTYPE
  5
16F
330
5
100
AcDbSymbolTableRecord
100
AcDbLinetypeTableRecord
  2
ASULTYPE
 70
     0
  3
実線
 72
    65
 73
     2
 40
3.0
 49
2.5
 74
     0
 49
0.5
 74
     0
  0
LTYPE
  5
170
330
5
100
AcDbSymbolTableRecord
100
AcDbLinetypeTableRecord
  2
ASVLTYPE
 70
     0
  3
__ __ __ __ __ __ __ __ __ __ __ __ __ __ __ __ __ __ __ __ __
 72
    65
 73
     2
 40
0.75
 49
0.5
 74
     0
 49
-0.25
 74
     0
  0
LTYPE
  5
1B1
330
5
100
AcDbSymbolTableRecord
100
AcDbLinetypeTableRecord
  2
AM_ISO02W050
 70
     0
  3
__ __ __ __ __ __ __ __ __ __ __ __ __ __ __
 72
    65
 73
     2
 40
7.5
 49
6.0
 74
     0
 49
-1.5
 74
     0
  0
LTYPE
  5
1B2
330
5
100
AcDbSymbolTableRecord
100
AcDbLinetypeTableRecord
  2
AM_ISO08W050
 70
     0
  3
____ . ____ . ____ . ____ . ____ . ____ . ____
 72
    65
 73
     4
 40
18.0
 49
12.0
 74
     0
 49
-1.5
 74
     0
 49
3.0
 74
     0
 49
-1.5
 74
     0
  0
LTYPE
  5
1B3
330
5
100
AcDbSymbolTableRecord
100
AcDbLinetypeTableRecord
  2
AM_ISO09W050
 70
     0
  3
_____ . . _____ . . _____ . . ____ .. ____
 72
    65
 73
     6
 40
22.5
 49
12.0
 74
     0
 49
-1.5
 74
     0
 49
3.0
 74
     0
 49
-1.5
 74
     0
 49
3.0
 74
     0
 49
-1.5
 74
     0
  0
LTYPE
  5
1B4
330
5
100
AcDbSymbolTableRecord
100
AcDbLinetypeTableRecord
  2
Amconstr
 70
     0
  3
_______________________
 72
    65
 73
     2
 40
9999.0
 49
9999.0
 74
     0
 49
0.0
 74
     0
  0
LTYPE
  5
1B5
330
5
100
AcDbSymbolTableRecord
100
AcDbLinetypeTableRecord
  2
AM_ISO08W050x2
 70
     0
  3
__ . __ . __ . __ . __ . __
 72
    65
 73
     4
 40
9.0
 49
6.0
 74
     0
 49
-0.75
 74
     0
 49
1.5
 74
     0
 49
-0.75
 74
     0
  0
LTYPE
  5
1B6
330
5
100
AcDbSymbolTableRecord
100
AcDbLinetypeTableRecord
  2
AM_ISO02W050x2
 70
     0
  3
 _ _ _ _ _ _ _ _ _ _ _ _
 72
    65
 73
     2
 40
3.75
 49
3.0
 74
     0
 49
-0.75
 74
     0
  0
LTYPE
  5
1B9
330
5
100
AcDbSymbolTableRecord
100
AcDbLinetypeTableRecord
  2
Amzigzag
 70
     0
  3
/\/-/\/-/\/-/\/-/\/-/\/
 72
    65
 73
     2
 40
11.00009999999999
 49
0.0001
 74
     4
 75
   135
340
1B8
 46
0.04
 50
0.0
 44
0.0
 45
0.0
 49
-11.0
 74
     0
  0
LTYPE
  5
1BA
330
5
100
AcDbSymbolTableRecord
100
AcDbLinetypeTableRecord
  2
CENTER2
 70
     0
  3
Center (.5x) ___ _ ___ _ ___ _ ___ _ ___ _ ___
 72
    65
 73
     4
 40
1.125
 49
0.75
 74
     0
 49
-0.125
 74
     0
 49
0.125
 74
     0
 49
-0.125
 74
     0
  0
LTYPE
  5
1BB
330
5
100
AcDbSymbolTableRecord
100
AcDbLinetypeTableRecord
  2
HIDDEN2
 70
     0
  3
Hidden (.5x) _ _ _ _ _ _ _ _ _ _ _ _ _ _ _ _ _
 72
    65
 73
     2
 40
0.1875
 49
0.125
 74
     0
 49
-0.0625
 74
     0
  0
LTYPE
  5
1BC
330
5
100
AcDbSymbolTableRecord
100
AcDbLinetypeTableRecord
  2
Amzigzag2
 70
     0
  3
/\/-/\/-/\/-/\/-/\/-/\/
 72
    65
 73
     2
 40
0.4401
 49
0.0001
 74
     4
 75
   135
340
1B8
 46
0.0016
 50
0.0
 44
0.0
 45
0.0
 49
-0.4400000000000001
 74
     0
  0
LTYPE
  5
1DF
330
5
100
AcDbSymbolTableRecord
100
AcDbLinetypeTableRecord
  2
ITTEN
 70
     0
  3

 72
    65
 73
     4
 40
5.5
 49
2.5
 74
     0
 49
-1.0
 74
     0
 49
1.0
 74
     0
 49
-1.0
 74
     0
  0
LTYPE
  5
1E0
330
5
100
AcDbSymbolTableRecord
100
AcDbLinetypeTableRecord
  2
DASHED
 70
     0
  3
Dashed __ __ __ __ __ __ __ __ __ __ __ __ __ _
 72
    65
 73
     2
 40
0.75
 49
0.5
 74
     0
 49
-0.25
 74
     0
  0
LTYPE
  5
38D
330
5
100
AcDbSymbolTableRecord
100
AcDbLinetypeTableRecord
  2
TENSEN
 70
     0
  3

 72
    65
 73
     2
 40
4.0
 49
3.0
 74
     0
 49
-1.0
 74
     0
  0
LTYPE
  5
38E
330
5
100
AcDbSymbolTableRecord
100
AcDbLinetypeTableRecord
  2
ACANSTGB
 70
     0
  3
__ . . __ . .
 72
    65
 73
     6
 40
0.35433070866
 49
0.15748031496
 74
     0
 49
-0.03937007874
 74
     0
 49
0.03937007874
 74
     0
 49
-0.03937007874
 74
     0
 49
0.03937007874
 74
     0
 49
-0.03937007874
 74
     0
  0
LTYPE
  5
38F
330
5
100
AcDbSymbolTableRecord
100
AcDbLinetypeTableRecord
  2
ACANSTGL
 70
     0
  3
_ _ _ _ _
 72
    65
 73
     2
 40
0.11811023622
 49
0.07874015748
 74
     0
 49
-0.03937007874
 74
     0
  0
ENDTAB
  0
TABLE
  2
LAYER
  5
2
330
0
100
AcDbSymbolTable
 70
     5
  0
LAYER
  5
10
330
2
100
AcDbSymbolTableRecord
100
AcDbLayerTableRecord
  2
0
 70
     0
 62
     7
  6
CONTINUOUS
370
    -3
390
F
  0
LAYER
  5
25
330
2
100
AcDbSymbolTableRecord
100
AcDbLayerTableRecord
  2
1
 70
     0
 62
     1
  6
ITTEN1
370
    -3
390
F
  0
LAYER
  5
26
330
2
100
AcDbSymbolTableRecord
100
AcDbLayerTableRecord
  2
3
 70
     0
 62
     3
  6
CONTINUOUS
370
    -3
390
F
  0
LAYER
  5
1E1
330
2
100
AcDbSymbolTableRecord
100
AcDbLayerTableRecord
  2
2
 70
     0
 62
     7
  6
DASHED
370
    35
390
F
  0
LAYER
  5
1E2
330
2
100
AcDbSymbolTableRecord
100
AcDbLayerTableRecord
  2
DEFPOINTS
 70
     0
 62
     7
  6
CONTINUOUS
290
     0
370
    -3
390
F
  0
ENDTAB
  0
TABLE
  2
STYLE
  5
3
330
0
100
AcDbSymbolTable
 70
     5
  0
STYLE
  5
11
330
3
100
AcDbSymbolTableRecord
100
AcDbTextStyleTableRecord
  2
STANDARD
 70
     0
 40
0.0
 41
1.0
 50
0.0
 71
     0
 42
0.2
  3
txt
  4

  0
STYLE
  5
22
330
3
100
AcDbSymbolTableRecord
100
AcDbTextStyleTableRecord
  2
BIGFONT
 70
     0
 40
5.0
 41
1.0
 50
0.0
 71
     0
 42
5.0
  3

  4
bigfont
  0
STYLE
  5
1B8
330
3
100
AcDbSymbolTableRecord
100
AcDbTextStyleTableRecord
  2

 70
     1
 40
0.0
 41
1.0
 50
0.0
 71
     0
 42
5.0
  3
ltypeshp.shx
  4

  0
STYLE
  5
390
330
3
100
AcDbSymbolTableRecord
100
AcDbTextStyleTableRecord
  2
ACANSTS
 70
     0
 40
1.0
 41
1.0
 50
0.0
 71
     0
 42
5.0
  3
romans.shx
  4
extfont.shx
  0
STYLE
  5
391
330
3
100
AcDbSymbolTableRecord
100
AcDbTextStyleTableRecord
  2
ACANSGDT
 70
     0
 40
0.0
 41
1.0
 50
0.0
 71
     0
 42
5.0
  3
amgdtans.shx
  4

  0
ENDTAB
  0
TABLE
  2
VIEW
  5
6
330
0
100
AcDbSymbolTable
 70
     0
  0
ENDTAB
  0
TABLE
  2
UCS
  5
7
330
0
100
AcDbSymbolTable
 70
     0
  0
ENDTAB
  0
TABLE
  2
APPID
  5
9
330
0
100
AcDbSymbolTable
 70
    12
  0
APPID
  5
12
330
9
100
AcDbSymbolTableRecord
100
AcDbRegAppTableRecord
  2
ACAD
 70
     0
  0
APPID
  5
EA
330
9
100
AcDbSymbolTableRecord
100
AcDbRegAppTableRecord
  2
GENIUS_GENDIM_13
 70
     0
  0
APPID
  5
EB
330
9
100
AcDbSymbolTableRecord
100
AcDbRegAppTableRecord
  2
GENIUS_GENDTOL_13
 70
     0
  0
APPID
  5
EC
330
9
100
AcDbSymbolTableRecord
100
AcDbRegAppTableRecord
  2
GENIUS_GE3DTOL_13
 70
     0
  0
APPID
  5
EE
330
9
100
AcDbSymbolTableRecord
100
AcDbRegAppTableRecord
  2
MCAD_NO_VIS
 70
     0
  0
APPID
  5
EF
330
9
100
AcDbSymbolTableRecord
100
AcDbRegAppTableRecord
  2
ACAD_TEMP_GRAPHIC
 70
     0
  0
APPID
  5
122
330
9
100
AcDbSymbolTableRecord
100
AcDbRegAppTableRecord
  2
AD_DRAW
 70
     0
  0
APPID
  5
125
330
9
100
AcDbSymbolTableRecord
100
AcDbRegAppTableRecord
  2
ACATTRIBSERVICES
 70
     0
  0
APPID
  5
171
330
9
100
AcDbSymbolTableRecord
100
AcDbRegAppTableRecord
  2
ASURF_PCURVE_APPNAME
 70
     0
  0
APPID
  5
1A0
330
9
100
AcDbSymbolTableRecord
100
AcDbRegAppTableRecord
  2
DESIGNERASSEMBLIES
 70
     0
  0
APPID
  5
1A8
330
9
100
AcDbSymbolTableRecord
100
AcDbRegAppTableRecord
  2
ACADM_DIM_EDIT
 70
     0
  0
APPID
  5
1A9
330
9
100
AcDbSymbolTableRecord
100
AcDbRegAppTableRecord
  2
AMDT_DM_ADJ
 70
     0
  0
ENDTAB
  0
TABLE
  2
DIMSTYLE
  5
A
330
0
100
AcDbSymbolTable
 70
     7
100
AcDbDimStyleTable
 71
     0
  0
DIMSTYLE
105
27
330
A
100
AcDbSymbolTableRecord
100
AcDbDimStyleTableRecord
  2
STANDARD
 70
     0
279
     2
340
22
  0
DIMSTYLE
105
392
330
A
100
AcDbSymbolTableRecord
100
AcDbDimStyleTableRecord
  2
AM_ANSI
 70
     0
  4
mm
 41
0.1
 42
0.05
 43
0.5
 44
0.1
 47
0.1
 48
0.1
 78
     7
 79
     2
140
0.12
141
0.0
146
0.71
147
0.06
176
   256
177
   256
178
     2
274
     4
284
     7
340
11
371
    -1
372
    -1
  0
DIMSTYLE
105
393
330
A
100
AcDbSymbolTableRecord
100
AcDbDimStyleTableRecord
  2
AM_ANSI$3
 70
     0
  4
mm
 41
0.1
 42
0.05
 43
0.5
 44
0.1
 47
0.1
 48
0.1
 78
     7
 79
     2
140
0.12
141
0.0
146
0.71
147
0.06
176
   256
177
   256
178
     2
274
     4
284
     7
288
     1
289
     0
340
11
371
    -1
372
    -1
  0
DIMSTYLE
105
394
330
A
100
AcDbSymbolTableRecord
100
AcDbDimStyleTableRecord
  2
AM_ANSI$4
 70
     0
  4
mm
 41
0.1
 42
0.05
 43
0.5
 44
0.1
 47
0.1
 48
0.1
 78
     7
 79
     2
140
0.12
141
0.0
146
0.71
147
0.06
176
   256
177
   256
178
     2
274
     4
284
     7
288
     1
289
     0
340
11
371
    -1
372
    -1
  0
DIMSTYLE
105
395
330
A
100
AcDbSymbolTableRecord
100
AcDbDimStyleTableRecord
  2
AM_ANSI$7
 70
     0
  4
mm
 41
0.1
 42
0.05
 43
0.5
 44
0.1
 47
0.1
 48
0.1
 78
     7
 79
     2
140
0.24
141
0.0
146
0.71
147
0.06
176
   256
177
   256
178
     2
274
     4
284
     7
340
11
371
    -1
372
    -1
  0
DIMSTYLE
105
396
330
A
100
AcDbSymbolTableRecord
100
AcDbDimStyleTableRecord
  2
AM_ANSI$SF
 70
     0
  4
mm
 41
0.1
 42
0.05
 43
0.5
 44
0.1
 47
0.1
 48
0.1
 75
     1
 76
     1
 78
     7
 79
     2
140
0.12
141
0.0
146
0.71
147
0.06
176
   256
177
   256
178
     2
274
     4
284
     7
340
11
371
    -1
372
    -1
  0
DIMSTYLE
105
397
330
A
100
AcDbSymbolTableRecord
100
AcDbDimStyleTableRecord
  2
AM_ANSI$SH
 70
     0
  4
mm
 41
0.1
 42
0.05
 43
0.5
 44
0.1
 47
0.1
 48
0.1
 75
     1
 76
     1
 78
     7
 79
     2
140
0.12
141
0.0
146
0.71
147
0.06
173
     1
176
   256
177
   256
178
     2
274
     4
284
     7
340
11
343
381
371
    -1
372
    -1
  0
ENDTAB
  0
TABLE
  2
BLOCK_RECORD
  5
1
330
0
100
AcDbSymbolTable
 70
    11
  0
BLOCK_RECORD
  5
1E
102
{ACAD_XDICTIONARY
360
1C5
102
}
330
1
100
AcDbSymbolTableRecord
100
AcDbBlockTableRecord
  2
*Model_Space
340
21
  0
BLOCK_RECORD
  5
1A
330
1
100
AcDbSymbolTableRecord
100
AcDbBlockTableRecord
  2
*Paper_Space
340
1D
  0
BLOCK_RECORD
  5
197
330
1
100
AcDbSymbolTableRecord
100
AcDbBlockTableRecord
  2
*U0
340
0
  0
BLOCK_RECORD
  5
1D1
330
1
100
AcDbSymbolTableRecord
100
AcDbBlockTableRecord
  2
*D1
340
0
  0
BLOCK_RECORD
  5
27C
330
1
100
AcDbSymbolTableRecord
100
AcDbBlockTableRecord
  2
*D3
340
0
  0
BLOCK_RECORD
  5
2A7
330
1
100
AcDbSymbolTableRecord
100
AcDbBlockTableRecord
  2
*D4
340
0
  0
BLOCK_RECORD
  5
358
330
1
100
AcDbSymbolTableRecord
100
AcDbBlockTableRecord
  2
*D6
340
0
  0
BLOCK_RECORD
  5
381
330
1
100
AcDbSymbolTableRecord
100
AcDbBlockTableRecord
  2
GENAXEH
340
0
  0
BLOCK_RECORD
  5
385
330
1
100
AcDbSymbolTableRecord
100
AcDbBlockTableRecord
  2
*D8
340
0
  0
BLOCK_RECORD
  5
46E
330
1
100
AcDbSymbolTableRecord
100
AcDbBlockTableRecord
  2
*D10
340
0
  0
ENDTAB
  0
ENDSEC
  0
SECTION
  2
BLOCKS
  0
BLOCK
  5
1F
330
1E
100
AcDbEntity
  8
0
100
AcDbBlockBegin
  2
*Model_Space
 70
     0
 10
0.0
 20
0.0
 30
0.0
  3
*Model_Space
  1

  0
ENDBLK
  5
20
330
1E
100
AcDbEntity
  8
0
100
AcDbBlockEnd
  0
BLOCK
  5
1B
330
1A
100
AcDbEntity
 67
     1
  8
0
100
AcDbBlockBegin
  2
*Paper_Space
 70
     0
 10
0.0
 20
0.0
 30
0.0
  3
*Paper_Space
  1

  0
ENDBLK
  5
1C
330
1A
100
AcDbEntity
 67
     1
  8
0
100
AcDbBlockEnd
  0
BLOCK
  5
198
330
197
100
AcDbEntity
  8
0
100
AcDbBlockBegin
  2
*U0
 70
     1
 10
0.0
 20
0.0
 30
0.0
  3
*U0
  1

  0
ENDBLK
  5
199
330
197
100
AcDbEntity
  8
0
100
AcDbBlockEnd
  0
BLOCK
  5
1DD
330
1D1
100
AcDbEntity
  8
0
100
AcDbBlockBegin
  2
*D1
 70
     1
 10
0.0
 20
0.0
 30
0.0
  3
*D1
  1

  0
LINE
  5
1D2
330
1D1
100
AcDbEntity
  8
0
 62
     0
370
    -2
100
AcDbLine
 10
186.388888951676
 20
102.2499999999999
 30
0.0
 11
201.8101159903226
 21
102.2499999999999
 31
0.0
  0
LINE
  5
1D3
330
1D1
100
AcDbEntity
  8
0
 62
     0
370
    -2
100
AcDbLine
 10
186.388888951676
 20
98.25000000000001
 30
0.0
 11
201.8101159903226
 21
98.25000000000001
 31
0.0
  0
LINE
  5
1D4
330
1D1
100
AcDbEntity
  8
0
 62
     0
370
    -2
100
AcDbLine
 10
201.3101159903226
 20
100.75
 30
0.0
 11
201.3101159903226
 21
99.75000000000001
 31
0.0
  0
LINE
  5
1D5
330
1D1
100
AcDbEntity
  8
0
 62
     0
370
    -2
100
AcDbLine
 10
201.3101159903226
 20
98.25000000000001
 30
0.0
 11
201.3101159903226
 21
91.94006530269168
 31
0.0
  0
LINE
  5
1D6
330
1D1
100
AcDbEntity
  8
0
 62
     0
370
    -2
100
AcDbLine
 10
201.3101159903226
 20
91.94006530269168
 30
0.0
 11
199.8101159903226
 21
91.94006530269168
 31
0.0
  0
SOLID
  5
1D7
330
1D1
100
AcDbEntity
  8
0
 62
     0
100
AcDbTrace
 10
201.0601159903226
 20
100.75
 30
0.0
 11
201.5601159903226
 21
100.75
 31
0.0
 12
201.3101159903226
 22
102.2499999999999
 32
0.0
 13
201.3101159903226
 23
102.2499999999999
 33
0.0
  0
SOLID
  5
1D8
330
1D1
100
AcDbEntity
  8
0
 62
     0
100
AcDbTrace
 10
201.0601159903226
 20
99.75000000000001
 30
0.0
 11
201.5601159903226
 21
99.75000000000001
 31
0.0
 12
201.3101159903226
 22
98.25000000000001
 32
0.0
 13
201.3101159903226
 23
98.25000000000001
 33
0.0
  0
MTEXT
  5
1D9
330
1D1
100
AcDbEntity
  8
0
 62
     0
100
AcDbMText
 10
196.7934493236559
 20
91.9400653026917
 30
0.0
 40
5.0
 41
0.0
 71
     5
 72
     1
  1
\A1;%%C4
 73
     1
 44
1.0
  0
POINT
  5
1DA
330
1D1
100
AcDbEntity
  8
DEFPOINTS
 62
     0
100
AcDbPoint
 10
185.8888889516759
 20
102.2499999999999
 30
0.0
  0
POINT
  5
1DB
330
1D1
100
AcDbEntity
  8
DEFPOINTS
 62
     0
100
AcDbPoint
 10
185.8888889516759
 20
98.25000000000001
 30
0.0
  0
POINT
  5
1DC
330
1D1
100
AcDbEntity
  8
DEFPOINTS
 62
     0
100
AcDbPoint
 10
201.3101159903226
 20
98.25000000000001
 30
0.0
  0
ENDBLK
  5
1DE
330
1D1
100
AcDbEntity
  8
0
100
AcDbBlockEnd
  0
BLOCK
  5
286
330
27C
100
AcDbEntity
  8
0
100
AcDbBlockBegin
  2
*D3
 70
     1
 10
0.0
 20
0.0
 30
0.0
  3
*D3
  1

  0
LINE
  5
291
330
27C
100
AcDbEntity
  8
0
 62
     0
370
    -2
100
AcDbLine
 10
141.4766179502534
 20
93.35696557814113
 30
0.0
 11
156.8978449889001
 21
93.35696557814113
 31
0.0
  0
LINE
  5
292
330
27C
100
AcDbEntity
  8
0
 62
     0
370
    -2
100
AcDbLine
 10
141.4766179502534
 20
89.35696557814113
 30
0.0
 11
156.8978449889001
 21
89.35696557814113
 31
0.0
  0
LINE
  5
293
330
27C
100
AcDbEntity
  8
0
 62
     0
370
    -2
100
AcDbLine
 10
156.3978449889001
 20
91.85696557814113
 30
0.0
 11
156.3978449889001
 21
90.85696557814113
 31
0.0
  0
MTEXT
  5
294
330
27C
100
AcDbEntity
  8
0
 62
     0
100
AcDbMText
 10
151.8811783222334
 20
83.04703088083284
 30
0.0
 40
5.0
 41
0.0
 71
     5
 72
     1
  1
\A1;%%C4
  7
BIGFONT
 73
     1
 44
1.0
  0
SOLID
  5
295
330
27C
100
AcDbEntity
  8
0
 62
     0
100
AcDbTrace
 10
156.1478449889001
 20
91.85696557814113
 30
0.0
 11
156.6478449889001
 21
91.85696557814113
 31
0.0
 12
156.3978449889001
 22
93.35696557814113
 32
0.0
 13
156.3978449889001
 23
93.35696557814113
 33
0.0
  0
SOLID
  5
296
330
27C
100
AcDbEntity
  8
0
 62
     0
100
AcDbTrace
 10
156.1478449889001
 20
90.85696557814113
 30
0.0
 11
156.6478449889001
 21
90.85696557814113
 31
0.0
 12
156.3978449889001
 22
89.35696557814113
 32
0.0
 13
156.3978449889001
 23
89.35696557814113
 33
0.0
  0
POINT
  5
297
330
27C
100
AcDbEntity
  8
DEFPOINTS
 62
     0
100
AcDbPoint
 10
140.9766179502534
 20
93.35696557814113
 30
0.0
  0
POINT
  5
298
330
27C
100
AcDbEntity
  8
DEFPOINTS
 62
     0
100
AcDbPoint
 10
140.9766179502534
 20
89.35696557814113
 30
0.0
  0
POINT
  5
299
330
27C
100
AcDbEntity
  8
DEFPOINTS
 62
     0
100
AcDbPoint
 10
156.3978449889001
 20
89.35696557814113
 30
0.0
  0
ENDBLK
  5
287
330
27C
100
AcDbEntity
  8
0
100
AcDbBlockEnd
  0
BLOCK
  5
2B3
330
2A7
100
AcDbEntity
  8
0
100
AcDbBlockBegin
  2
*D4
 70
     1
 10
0.0
 20
0.0
 30
0.0
  3
*D4
  1

  0
LINE
  5
2A8
330
2A7
100
AcDbEntity
  8
0
 62
     0
370
    -2
100
AcDbLine
 10
186.388888951676
 20
102.2499999999999
 30
0.0
 11
201.8101159903226
 21
102.2499999999999
 31
0.0
  0
LINE
  5
2A9
330
2A7
100
AcDbEntity
  8
0
 62
     0
370
    -2
100
AcDbLine
 10
186.388888951676
 20
98.25000000000001
 30
0.0
 11
201.8101159903226
 21
98.25000000000001
 31
0.0
  0
LINE
  5
2AA
330
2A7
100
AcDbEntity
  8
0
 62
     0
370
    -2
100
AcDbLine
 10
201.3101159903226
 20
100.75
 30
0.0
 11
201.3101159903226
 21
99.75000000000001
 31
0.0
  0
LINE
  5
2AB
330
2A7
100
AcDbEntity
  8
0
 62
     0
370
    -2
100
AcDbLine
 10
201.3101159903226
 20
98.25000000000001
 30
0.0
 11
201.3101159903226
 21
91.94006530269168
 31
0.0
  0
LINE
  5
2AC
330
2A7
100
AcDbEntity
  8
0
 62
     0
370
    -2
100
AcDbLine
 10
201.3101159903226
 20
91.94006530269168
 30
0.0
 11
199.8101159903226
 21
91.94006530269168
 31
0.0
  0
SOLID
  5
2AD
330
2A7
100
AcDbEntity
  8
0
 62
     0
100
AcDbTrace
 10
201.0601159903226
 20
100.75
 30
0.0
 11
201.5601159903226
 21
100.75
 31
0.0
 12
201.3101159903226
 22
102.2499999999999
 32
0.0
 13
201.3101159903226
 23
102.2499999999999
 33
0.0
  0
SOLID
  5
2AE
330
2A7
100
AcDbEntity
  8
0
 62
     0
100
AcDbTrace
 10
201.0601159903226
 20
99.75000000000001
 30
0.0
 11
201.5601159903226
 21
99.75000000000001
 31
0.0
 12
201.3101159903226
 22
98.25000000000001
 32
0.0
 13
201.3101159903226
 23
98.25000000000001
 33
0.0
  0
MTEXT
  5
2AF
330
2A7
100
AcDbEntity
  8
0
 62
     0
100
AcDbMText
 10
196.7934493236559
 20
91.9400653026917
 30
0.0
 40
5.0
 41
0.0
 71
     5
 72
     1
  1
\A1;%%C4
 73
     1
 44
1.0
  0
POINT
  5
2B0
330
2A7
100
AcDbEntity
  8
DEFPOINTS
 62
     0
100
AcDbPoint
 10
185.8888889516759
 20
102.2499999999999
 30
0.0
  0
POINT
  5
2B1
330
2A7
100
AcDbEntity
  8
DEFPOINTS
 62
     0
100
AcDbPoint
 10
185.8888889516759
 20
98.25000000000001
 30
0.0
  0
POINT
  5
2B2
330
2A7
100
AcDbEntity
  8
DEFPOINTS
 62
     0
100
AcDbPoint
 10
201.3101159903226
 20
98.25000000000001
 30
0.0
  0
ENDBLK
  5
2B4
330
2A7
100
AcDbEntity
  8
0
100
AcDbBlockEnd
  0
BLOCK
  5
362
330
358
100
AcDbEntity
  8
0
100
AcDbBlockBegin
  2
*D6
 70
     1
 10
0.0
 20
0.0
 30
0.0
  3
*D6
  1

  0
LINE
  5
36D
330
358
100
AcDbEntity
  8
0
 62
     0
370
    -2
100
AcDbLine
 10
160.1447364495316
 20
92.86521551616425
 30
0.0
 11
175.5659634881783
 21
92.86521551616425
 31
0.0
  0
LINE
  5
36E
330
358
100
AcDbEntity
  8
0
 62
     0
370
    -2
100
AcDbLine
 10
160.1447364495316
 20
88.86521551616425
 30
0.0
 11
175.5659634881783
 21
88.86521551616425
 31
0.0
  0
LINE
  5
36F
330
358
100
AcDbEntity
  8
0
 62
     0
370
    -2
100
AcDbLine
 10
175.0659634881783
 20
91.36521551616425
 30
0.0
 11
175.0659634881783
 21
90.36521551616425
 31
0.0
  0
MTEXT
  5
370
330
358
100
AcDbEntity
  8
0
 62
     0
100
AcDbMText
 10
170.5492968215116
 20
82.55528081885598
 30
0.0
 40
5.0
 41
0.0
 71
     5
 72
     1
  1
\A1;%%C4
  7
BIGFONT
 73
     1
 44
1.0
  0
SOLID
  5
371
330
358
100
AcDbEntity
  8
0
 62
     0
100
AcDbTrace
 10
174.8159634881783
 20
91.36521551616425
 30
0.0
 11
175.3159634881783
 21
91.36521551616425
 31
0.0
 12
175.0659634881783
 22
92.86521551616425
 32
0.0
 13
175.0659634881783
 23
92.86521551616425
 33
0.0
  0
SOLID
  5
372
330
358
100
AcDbEntity
  8
0
 62
     0
100
AcDbTrace
 10
174.8159634881783
 20
90.36521551616425
 30
0.0
 11
175.3159634881783
 21
90.36521551616425
 31
0.0
 12
175.0659634881783
 22
88.86521551616425
 32
0.0
 13
175.0659634881783
 23
88.86521551616425
 33
0.0
  0
POINT
  5
373
330
358
100
AcDbEntity
  8
DEFPOINTS
 62
     0
100
AcDbPoint
 10
159.6447364495316
 20
92.86521551616427
 30
0.0
  0
POINT
  5
374
330
358
100
AcDbEntity
  8
DEFPOINTS
 62
     0
100
AcDbPoint
 10
159.6447364495316
 20
88.86521551616427
 30
0.0
  0
POINT
  5
375
330
358
100
AcDbEntity
  8
DEFPOINTS
 62
     0
100
AcDbPoint
 10
175.0659634881783
 20
88.86521551616425
 30
0.0
  0
ENDBLK
  5
363
330
358
100
AcDbEntity
  8
0
100
AcDbBlockEnd
  0
BLOCK
  5
383
330
381
100
AcDbEntity
  8
0
100
AcDbBlockBegin
  2
GENAXEH
 70
     0
 10
0.0
 20
0.0
 30
0.0
  3
GENAXEH
  1

  0
LINE
  5
382
330
381
100
AcDbEntity
  8
0
100
AcDbLine
 10
-1.0
 20
0.0
 30
0.0
 11
1.0
 21
0.0
 31
0.0
  0
ENDBLK
  5
384
330
381
100
AcDbEntity
  8
0
100
AcDbBlockEnd
  0
BLOCK
  5
38B
330
385
100
AcDbEntity
  8
0
100
AcDbBlockBegin
  2
*D8
 70
     1
 10
0.0
 20
0.0
 30
0.0
  3
*D8
  1

  0
LINE
  5
386
330
385
100
AcDbEntity
  8
0
 62
     0
370
    -2
100
AcDbLine
 10
104.0161593297541
 20
121.6337181701173
 30
0.0
 11
111.5876049033765
 21
122.1256082428671
 31
0.0
  0
MTEXT
  5
387
330
385
100
AcDbEntity
  8
0
 62
     0
100
AcDbMText
 10
97.67615932975417
 20
121.6337181701173
 30
0.0
 40
5.0
 41
0.0
 71
     5
 72
     1
  1
\A1;R20
 73
     1
 44
1.0
  0
SOLID
  5
388
330
385
100
AcDbEntity
  8
0
 62
     0
100
AcDbTrace
 10
111.5746389434036
 20
122.3251875100317
 30
0.0
 11
111.6005708633495
 21
121.9260289757024
 31
0.0
 12
112.7850805063644
 22
122.2034040027048
 32
0.0
 13
112.7850805063644
 23
122.2034040027048
 33
0.0
  0
POINT
  5
389
330
385
100
AcDbEntity
  8
DEFPOINTS
 62
     0
100
AcDbPoint
 10
112.7850805063644
 20
122.2034040027048
 30
0.0
  0
POINT
  5
38A
330
385
100
AcDbEntity
  8
DEFPOINTS
 62
     0
100
AcDbPoint
 10
132.7430072228297
 20
123.4999999999999
 30
0.0
  0
ENDBLK
  5
38C
330
385
100
AcDbEntity
  8
0
100
AcDbBlockEnd
  0
BLOCK
  5
474
330
46E
100
AcDbEntity
  8
0
100
AcDbBlockBegin
  2
*D10
 70
     1
 10
0.0
 20
0.0
 30
0.0
  3
*D10
  1

  0
LINE
  5
47B
330
46E
100
AcDbEntity
  8
0
 62
     0
370
    -2
100
AcDbLine
 10
112.6105864482743
 20
90.26871155980598
 30
0.0
 11
93.85013533479712
 21
89.0499113223486
 31
0.0
  0
MTEXT
  5
47C
330
46E
100
AcDbEntity
  8
0
 62
     0
100
AcDbMText
 10
83.88373855519882
 20
88.4024297299234
 30
0.0
 40
5.0
 41
0.0
 71
     5
 72
     1
  1
\A1;R20
  7
BIGFONT
 11
0.9978963358232636
 21
0.0648297998647558
 31
0.0
 73
     1
 44
1.0
  0
SOLID
  5
47D
330
46E
100
AcDbEntity
  8
0
 62
     0
100
AcDbTrace
 10
93.83716937482416
 20
89.24949058951325
 30
0.0
 11
93.86310129477008
 21
88.85033205518395
 31
0.0
 12
92.6526597318092
 22
88.97211556251088
 32
0.0
 13
92.6526597318092
 23
88.97211556251088
 33
0.0
  0
POINT
  5
47E
330
46E
100
AcDbEntity
  8
DEFPOINTS
 62
     0
100
AcDbPoint
 10
92.6526597318092
 20
88.97211556251088
 30
0.0
  0
POINT
  5
47F
330
46E
100
AcDbEntity
  8
DEFPOINTS
 62
     0
100
AcDbPoint
 10
112.6105864482743
 20
90.26871155980598
 30
0.0
  0
ENDBLK
  5
475
330
46E
100
AcDbEntity
  8
0
100
AcDbBlockEnd
  0
ENDSEC
  0
SECTION
  2
ENTITIES
  0
LINE
  5
40F
330
1E
100
AcDbEntity
  8
0
100
AcDbLine
 10
121.8105864482744
 20
87.76871155980597
 30
0.0
 11
122.6105864482744
 21
88.56871155980597
 31
0.0
  0
LINE
  5
410
330
1E
100
AcDbEntity
  8
0
100
AcDbLine
 10
121.8105864482744
 20
92.76871155980597
 30
0.0
 11
122.6105864482744
 21
91.96871155980595
 31
0.0
  0
LINE
  5
411
330
1E
100
AcDbEntity
  8
1
100
AcDbLine
 10
90.86757922544467
 20
90.26871155980604
 30
0.0
 11
124.562129213518
 21
90.26871155980604
 31
0.0
  0
LINE
  5
413
330
1E
100
AcDbEntity
  8
1
100
AcDbLine
 10
63.62411610848465
 20
97.01871155980605
 30
0.0
 11
63.62411610848465
 21
82.51871155980603
 31
0.0
  0
LINE
  5
414
330
1E
100
AcDbEntity
  8
1
100
AcDbLine
 10
56.56637093461137
 20
90.26871155980604
 30
0.0
 11
70.82889599644062
 21
90.26871155980604
 31
0.0
  0
CIRCLE
  5
415
330
1E
100
AcDbEntity
  8
3
100
AcDbCircle
 10
63.62411610848465
 20
90.26871155980604
 30
0.0
 40
5.0
  0
LINE
  5
419
330
1E
100
AcDbEntity
  8
3
100
AcDbLine
 10
103.6105864482744
 20
85.26871155980602
 30
0.0
 11
95.29007837258566
 21
85.26871155980604
 31
0.0
  0
LINE
  5
41A
330
1E
100
AcDbEntity
  8
3
100
AcDbLine
 10
103.6105864482746
 20
95.26871155980604
 30
0.0
 11
95.29007837258566
 21
95.26871155980604
 31
0.0
  0
ARC
  5
422
330
1E
100
AcDbEntity
  8
3
100
AcDbCircle
 10
112.6105864482744
 20
90.26871155980604
 30
0.0
 40
20.0
100
AcDbArc
 50
180.0
 51
188.2132107017379
  0
ARC
  5
424
330
1E
100
AcDbEntity
  8
3
100
AcDbCircle
 10
95.29007837258566
 20
87.76871155980602
 30
0.0
 40
2.5
100
AcDbArc
 50
188.2132107017379
 51
270.0
  0
ARC
  5
428
330
1E
100
AcDbEntity
  8
3
100
AcDbCircle
 10
95.29007837258566
 20
92.76871155980606
 30
0.0
 40
2.5
100
AcDbArc
 50
90.0
 51
171.786789298262
  0
ARC
  5
42A
330
1E
100
AcDbEntity
  8
3
100
AcDbCircle
 10
112.6105864482744
 20
90.26871155980604
 30
0.0
 40
20.0
100
AcDbArc
 50
171.786789298262
 51
180.0
  0
LINE
  5
432
330
1E
100
AcDbEntity
  8
3
100
AcDbLine
 10
111.6105864482743
 20
85.96871155980604
 30
0.0
 11
103.6105864482744
 21
85.26871155980604
 31
0.0
  0
LINE
  5
433
330
1E
100
AcDbEntity
  8
3
100
AcDbLine
 10
111.6105864482743
 20
94.56871155980604
 30
0.0
 11
103.6105864482744
 21
95.26871155980604
 31
0.0
  0
LINE
  5
43C
330
1E
100
AcDbEntity
  8
3
100
AcDbLine
 10
103.6105864482744
 20
95.26871155980604
 30
0.0
 11
103.6105864482744
 21
85.26871155980602
 31
0.0
  0
LINE
  5
443
330
1E
100
AcDbEntity
  8
3
100
AcDbLine
 10
111.6105864482743
 20
90.26871155980606
 30
0.0
 11
111.6105864482743
 21
85.96871155980604
 31
0.0
  0
LINE
  5
444
330
1E
100
AcDbEntity
  8
0
100
AcDbLine
 10
117.4105864482744
 20
92.76871155980597
 30
0.0
 11
117.4105864482744
 21
87.76871155980597
 31
0.0
  0
LINE
  5
445
330
1E
100
AcDbEntity
  8
0
100
AcDbLine
 10
121.8105864482744
 20
92.76871155980597
 30
0.0
 11
121.8105864482744
 21
87.76871155980597
 31
0.0
  0
ARC
  5
446
330
1E
100
AcDbEntity
  8
3
100
AcDbCircle
 10
121.9817145659128
 20
90.26871155980606
 30
0.0
 40
10.37112811763843
100
AcDbArc
 50
168.7295817968913
 51
191.2704182031094
  0
ARC
  5
447
330
1E
100
AcDbEntity
  8
3
100
AcDbCircle
 10
106.2394583306359
 20
90.26871155980606
 30
0.0
 40
10.37112811763843
100
AcDbArc
 50
348.7295817968905
 51
11.27041820310864
  0
LINE
  5
44A
330
1E
100
AcDbEntity
  8
3
100
AcDbLine
 10
116.6105864482744
 20
90.26871155980602
 30
0.0
 11
116.6105864482744
 21
86.75796324339742
 31
0.0
  0
LINE
  5
44B
330
1E
100
AcDbEntity
  8
0
100
AcDbLine
 10
116.6105864482744
 20
87.76871155980597
 30
0.0
 11
121.8105864482744
 21
87.76871155980597
 31
0.0
  0
LINE
  5
44C
330
1E
100
AcDbEntity
  8
3
100
AcDbLine
 10
116.4105864482744
 20
86.21484858873506
 30
0.0
 11
111.8105864482744
 21
86.21484858873504
 31
0.0
  0
LINE
  5
44D
330
1E
100
AcDbEntity
  8
3
100
AcDbLine
 10
116.4105864482744
 20
88.24178007427054
 30
0.0
 11
111.8105864482744
 21
88.24178007427056
 31
0.0
  0
ARC
  5
44E
330
1E
100
AcDbEntity
  8
3
100
AcDbCircle
 10
114.2783684776843
 20
87.22831433150281
 30
0.0
 40
2.667782029409923
100
AcDbArc
 50
157.6730837512913
 51
202.3269162487085
  0
LINE
  5
44F
330
1E
100
AcDbEntity
  8
3
100
AcDbLine
 10
111.6105864482744
 20
86.75796324339748
 30
0.0
 11
111.8105864482744
 21
86.21484858873506
 31
0.0
  0
ARC
  5
450
330
1E
100
AcDbEntity
  8
3
100
AcDbCircle
 10
113.9428044188644
 20
87.22831433150281
 30
0.0
 40
2.667782029409923
100
AcDbArc
 50
337.6730837512914
 51
22.32691624870861
  0
LINE
  5
451
330
1E
100
AcDbEntity
  8
3
100
AcDbLine
 10
116.6105864482744
 20
86.75796324339748
 30
0.0
 11
116.4105864482744
 21
86.21484858873506
 31
0.0
  0
LINE
  5
452
330
1E
100
AcDbEntity
  8
3
100
AcDbLine
 10
117.4105864482744
 20
88.20171155980579
 30
0.0
 11
122.2435864482742
 21
88.20171155980579
 31
0.0
  0
LINE
  5
453
330
1E
100
AcDbEntity
  8
0
100
AcDbLine
 10
116.6105864482744
 20
92.76871155980597
 30
0.0
 11
121.8105864482744
 21
92.76871155980597
 31
0.0
  0
LINE
  5
454
330
1E
100
AcDbEntity
  8
3
100
AcDbLine
 10
111.6105864482743
 20
90.26871155980602
 30
0.0
 11
111.6105864482743
 21
94.56871155980604
 31
0.0
  0
ARC
  5
455
330
1E
100
AcDbEntity
  8
3
100
AcDbCircle
 10
114.2783684776843
 20
93.30910878810927
 30
0.0
 40
2.667782029409923
100
AcDbArc
 50
157.6730837512913
 51
202.3269162487085
  0
ARC
  5
456
330
1E
100
AcDbEntity
  8
3
100
AcDbCircle
 10
113.9428044188644
 20
93.30910878810927
 30
0.0
 40
2.667782029409923
100
AcDbArc
 50
337.6730837512914
 51
22.32691624870861
  0
LINE
  5
457
330
1E
100
AcDbEntity
  8
3
100
AcDbLine
 10
116.6105864482744
 20
90.26871155980606
 30
0.0
 11
116.6105864482744
 21
93.77945987621464
 31
0.0
  0
LINE
  5
458
330
1E
100
AcDbEntity
  8
3
100
AcDbLine
 10
116.4105864482744
 20
92.29564304534155
 30
0.0
 11
111.8105864482744
 21
92.29564304534152
 31
0.0
  0
LINE
  5
461
330
1E
100
AcDbEntity
  8
3
100
AcDbLine
 10
116.4105864482744
 20
94.32257453087702
 30
0.0
 11
111.8105864482744
 21
94.32257453087704
 31
0.0
  0
LINE
  5
462
330
1E
100
AcDbEntity
  8
3
100
AcDbLine
 10
111.6105864482744
 20
93.77945987621458
 30
0.0
 11
111.8105864482744
 21
94.32257453087702
 31
0.0
  0
LINE
  5
463
330
1E
100
AcDbEntity
  8
3
100
AcDbLine
 10
116.6105864482744
 20
93.77945987621458
 30
0.0
 11
116.4105864482744
 21
94.32257453087702
 31
0.0
  0
LINE
  5
464
330
1E
100
AcDbEntity
  8
3
100
AcDbLine
 10
117.4105864482744
 20
92.33571155980614
 30
0.0
 11
122.2435864482742
 21
92.33571155980614
 31
0.0
  0
LINE
  5
465
330
1E
100
AcDbEntity
  8
1
100
AcDbLine
 10
148.8675792254446
 20
97.01871155980605
 30
0.0
 11
148.8675792254446
 21
82.51871155980603
 31
0.0
  0
CIRCLE
  5
466
330
1E
100
AcDbEntity
  8
3
100
AcDbCircle
 10
148.8675792254446
 20
90.26871155980604
 30
0.0
 40
4.299999999999999
  0
CIRCLE
  5
467
330
1E
100
AcDbEntity
  8
3
100
AcDbCircle
 10
148.8675792254446
 20
90.26871155980604
 30
0.0
 40
5.0
  0
LINE
  5
468
330
1E
100
AcDbEntity
  8
1
100
AcDbLine
 10
141.8098340515713
 20
90.26871155980604
 30
0.0
 11
156.0723591134006
 21
90.26871155980604
 31
0.0
  0
LINE
  5
469
330
1E
100
AcDbEntity
  8
0
100
AcDbLine
 10
122.6105864482744
 20
91.96871155980595
 30
0.0
 11
122.6105864482744
 21
88.56871155980604
 31
0.0
  0
CIRCLE
  5
46A
330
1E
100
AcDbEntity
  8
3
100
AcDbCircle
 10
148.8675792254446
 20
90.26871155980604
 30
0.0
 40
3.510748316408552
  0
LWPOLYLINE
  5
46B
330
1E
100
AcDbEntity
  8
3
100
AcDbPolyline
 90
        6
 70
     1
 43
0.0
 10
148.8675792254446
 20
86.21484858873504
 10
152.3783275418532
 20
88.24178007427054
 10
152.3783275418532
 20
92.29564304534154
 10
148.8675792254446
 20
94.32257453087704
 10
145.3568309090361
 20
92.29564304534154
 10
145.3568309090361
 20
88.24178007427054
  0
CIRCLE
  5
46C
330
1E
100
AcDbEntity
  8
0
100
AcDbCircle
 10
148.8675792254446
 20
90.26871155980604
 30
0.0
 40
2.500000000000003
  0
CIRCLE
  5
46D
330
1E
100
AcDbEntity
  8
3
100
AcDbCircle
 10
148.8675792254446
 20
90.26871155980604
 30
0.0
 40
2.067000000000199
  0
ENDSEC
  0
SECTION
  2
OBJECTS
  0
DICTIONARY
  5
C
330
0
100
AcDbDictionary
281
     1
  3
ACAD_GROUP
350
D
  3
ACAD_LAYOUT
350
19
  3
ACAD_MLINESTYLE
350
16
  3
ACAD_PLOTSETTINGS
350
18
  3
ACAD_PLOTSTYLENAME
350
E
  3
AcDbVariableDictionary
350
1CB
  3
AcmDictionary
350
1A1
  3
AMG
350
E7
  3
AMGSNAPSETTINGS
350
1BE
  3
DWGPROPS
350
380
  3
MAPISURF_MODULE
350
174
  0
DICTIONARY
  5
1C5
330
1E
100
AcDbDictionary
280
     1
281
     1
  3
ACAD_INDEX
360
1C6
  0
DICTIONARY
  5
D
102
{ACAD_REACTORS
330
C
102
}
330
C
100
AcDbDictionary
281
     1
  0
DICTIONARY
  5
19
102
{ACAD_REACTORS
330
C
102
}
330
C
100
AcDbDictionary
281
     1
  3
Model
350
21
  3
ﾚｲｱｳﾄ1
350
1D
  0
DICTIONARY
  5
16
102
{ACAD_REACTORS
330
C
102
}
330
C
100
AcDbDictionary
281
     1
  3
Standard
350
17
  0
DICTIONARY
  5
18
102
{ACAD_REACTORS
330
C
102
}
330
C
100
AcDbDictionary
281
     1
  0
ACDBDICTIONARYWDFLT
  5
E
102
{ACAD_REACTORS
330
C
102
}
330
C
100
AcDbDictionary
281
     1
  3
Normal
350
F
100
AcDbDictionaryWithDefault
340
F
  0
DICTIONARY
  5
1CB
102
{ACAD_REACTORS
330
C
102
}
330
C
100
AcDbDictionary
281
     1
  3
DIMASSOC
350
1CD
  3
INDEXCTL
350
1CC
  0
DICTIONARY
  5
1A1
102
{ACAD_REACTORS
330
C
102
}
330
C
100
AcDbDictionary
281
     1
  3
AcmBOMDATA
350
1A2
  3
AcmStdDictionary
350
3FA
  0
DICTIONARY
  5
E7
102
{ACAD_REACTORS
330
C
102
}
330
C
100
AcDbDictionary
281
     1
  3
AcMgSettings
350
E8
  3
AMGLAYCFG
350
1AE
  0
DICTIONARY
  5
1BE
102
{ACAD_REACTORS
330
C
102
}
330
C
100
AcDbDictionary
281
     1
  3
DIMENSION
350
1C3
  3
FEA
350
1C2
  3
HATCH (1)
350
1BF
  3
HATCH (2)
350
1C0
  3
SIMPLE WELD
350
1C4
  3
SYMBOLS
350
1C1
  0
XRECORD
  5
380
102
{ACAD_REACTORS
330
C
102
}
330
C
100
AcDbXrecord
280
     1
  1
DWGPROPS COOKIE
  2

  3

  4

  6

  7

  8

  9

300
AmdtFileType=84
301
=
302
=
303
=
304
=
305
=
306
=
307
=
308
=
309
=
 40
0.0045936342592593
 41
2450686.794502314
 42
2456451.602794409
  1

 90
        1
  0
DICTIONARY
  5
1C6
102
{ACAD_REACTORS
330
1C5
102
}
330
1C5
100
AcDbDictionary
281
     1
  3
*A1
350
1C7
  0
LAYOUT
  5
21
102
{ACAD_REACTORS
330
19
102
}
330
19
100
AcDbPlotSettings
  1

  2
\\KONISHIDENXP\SHARP MX-2700FG
  4

  6

 40
0.0
 41
0.0
 42
0.0
 43
0.0
 44
0.0
 45
0.0
 46
0.0
 47
0.0
 48
0.0
 49
0.0
140
0.0
141
0.0
142
1.0
143
1.0
 70
  1712
 72
     0
 73
     0
 74
     0
  7

 75
     0
147
1.0
148
0.0
149
0.0
100
AcDbLayout
  1
Model
 70
     1
 71
     0
 10
0.0
 20
0.0
 11
12.0
 21
9.0
 12
0.0
 22
0.0
 32
0.0
 14
0.0
 24
0.0
 34
0.0
 15
0.0
 25
0.0
 35
0.0
146
0.0
 13
0.0
 23
0.0
 33
0.0
 16
1.0
 26
0.0
 36
0.0
 17
0.0
 27
1.0
 37
0.0
 76
     0
330
1E
  0
LAYOUT
  5
1D
102
{ACAD_REACTORS
330
19
102
}
330
19
100
AcDbPlotSettings
  1

  2
\\KONISHIDENXP\SHARP MX-2700FG
  4

  6

 40
0.0
 41
0.0
 42
0.0
 43
0.0
 44
0.0
 45
0.0
 46
0.0
 47
0.0
 48
0.0
 49
0.0
140
0.0
141
0.0
142
1.0
143
1.0
 70
   688
 72
     0
 73
     0
 74
     5
  7

 75
    16
147
1.0
148
0.0
149
0.0
100
AcDbLayout
  1
ﾚｲｱｳﾄ1
 70
     1
 71
     1
 10
0.0
 20
0.0
 11
12.0
 21
9.0
 12
0.0
 22
0.0
 32
0.0
 14
1.000000000000000E+20
 24
1.000000000000000E+20
 34
1.000000000000000E+20
 15
-1.000000000000000E+20
 25
-1.000000000000000E+20
 35
-1.000000000000000E+20
146
0.0
 13
0.0
 23
0.0
 33
0.0
 16
1.0
 26
0.0
 36
0.0
 17
0.0
 27
1.0
 37
0.0
 76
     0
330
1A
  0
MLINESTYLE
  5
17
102
{ACAD_REACTORS
330
16
102
}
330
16
100
AcDbMlineStyle
  2
STANDARD
 70
     0
  3

 62
   256
 51
90.0
 52
90.0
 71
     2
 49
0.5
 62
   256
  6
BYLAYER
 49
-0.5
 62
   256
  6
BYLAYER
  0
ACDBPLACEHOLDER
  5
F
102
{ACAD_REACTORS
330
E
102
}
330
E
  0
DICTIONARYVAR
  5
1CD
102
{ACAD_REACTORS
330
1CB
102
}
330
1CB
100
DictionaryVariables
280
     0
  1
1
  0
DICTIONARYVAR
  5
1CC
102
{ACAD_REACTORS
330
1CB
102
}
330
1CB
100
DictionaryVariables
280
     0
  1
1
  0
ACMDATADICTIONARY
  5
1A2
102
{ACAD_REACTORS
330
1A1
102
}
330
1A1
100
AcDbDictionary
281
     1
  3
*A1
350
1A3
100
AcmDataDictionary
  0
DICTIONARY
  5
3FA
102
{ACAD_REACTORS
330
1A1
102
}
330
1A1
100
AcDbDictionary
281
     1
  3
ANSI
350
3FB
  0
DICTIONARY
  5
E8
102
{ACAD_REACTORS
330
E7
102
}
330
E7
100
AcDbDictionary
281
     1
  3
DWGSETTINGS
350
E9
  0
ACAMGFILTERDAT
  5
1C3
102
{ACAD_REACTORS
330
1BE
102
}
330
1BE
100
AcAmgFilterDat
 70
    15
  1
DIMENSION,AMDT_*_DIM
  2
*
  3
*
  4
*
  5
*
290
     1
  0
ACAMGFILTERDAT
  5
1C2
102
{ACAD_REACTORS
330
1BE
102
}
330
1BE
100
AcAmgFilterDat
 70
    15
  1
*
  2
AM_FEA-AM_*
  3
*
  4
*
  5
*
290
     1
  0
ACAMGFILTERDAT
  5
1BF
102
{ACAD_REACTORS
330
1BE
102
}
330
1BE
100
AcAmgFilterDat
 70
    15
  1
HATCH
  2
*
  3
*
  4
*
  5
*
290
     1
  0
ACAMGFILTERDAT
  5
1C0
102
{ACAD_REACTORS
330
1BE
102
}
330
1BE
100
AcAmgFilterDat
 70
    15
  1
LINE
  2
8,8N,*-8,*-8N,AM_8,AM_8N,*-AM_8,*-AM_8N
  3
*
  4
*
  5
INSERT,STDPART2D
290
     1
  0
ACAMGFILTERDAT
  5
1C4
102
{ACAD_REACTORS
330
1BE
102
}
330
1BE
100
AcAmgFilterDat
 70
    15
  1
ARC
  2
AM_5
  3
*
  4
2
  5
INSERT
290
     0
  0
ACAMGFILTERDAT
  5
1C1
102
{ACAD_REACTORS
330
1BE
102
}
330
1BE
100
AcAmgFilterDat
 70
    15
  1
ACMFCFRAME,ACMDATUMTARGET,ACMDATUMID,ACMWELDSYM,ACMSURFSYM,ACMFEATID,ACMPARTREF,ACMBALLOON,AMDTEDGESYM,AMGSCREWCALCTABLE
  2
*
  3
*
  4
*
  5
*
290
     1
  0
LAYER_INDEX
  5
1C7
102
{ACAD_REACTORS
330
1C6
102
}
330
1C6
100
AcDbIndex
 40
2456451.60428059
100
AcDbLayerIndex
  8
0
360
1C8
 90
        8
  8
1
360
1C9
 90
        5
  8
3
360
1CA
 90
       35
  8
2
360
2A1
 90
        0
  8
DEFPOINTS
360
2A2
 90
        0
  0
ACMDATAENTRYBLOCK
  5
1A3
102
{ACAD_REACTORS
330
1A2
102
}
330
1A2
100
AcmDataEntry
100
AcmDataEntryBlock
  0
IDBUFFER
  5
1C8
330
0
100
AcDbIdBuffer
330
40F
330
410
330
444
330
445
330
44B
330
453
330
469
330
46C
  0
IDBUFFER
  5
1C9
330
0
100
AcDbIdBuffer
330
411
330
413
330
414
330
465
330
468
  0
IDBUFFER
  5
1CA
330
0
100
AcDbIdBuffer
330
415
330
419
330
41A
330
422
330
424
330
428
330
42A
330
432
330
433
330
43C
330
443
330
446
330
447
330
44A
330
44C
330
44D
330
44E
330
44F
330
450
330
451
330
452
330
454
330
455
330
456
330
457
330
458
330
461
330
462
330
463
330
464
330
466
330
467
330
46A
330
46B
330
46D
  0
IDBUFFER
  5
2A1
330
0
100
AcDbIdBuffer
  0
IDBUFFER
  5
2A2
330
0
100
AcDbIdBuffer
  0
ENDSEC
  0
EOF
