  0
SECTION
  2
HEADER
  9
$ACADVER
  1
AC1015
  9
$ACADMAINTVER
 70
    13
  9
$DWGCODEPAGE
  3
ANSI_932
  9
$INSBASE
 10
0.0
 20
0.0
 30
0.0
  9
$EXTMIN
 10
14.15829450548597
 20
47.99804739653836
 30
-0.0015258207003583
  9
$EXTMAX
 10
250.5020148010249
 20
172.0062260190097
 30
0.0000000349246037
  9
$LIMMIN
 10
0.0
 20
0.0
  9
$LIMMAX
 10
300.0
 20
200.0
  9
$ORTHOMODE
 70
     1
  9
$REGENMODE
 70
     1
  9
$FILLMODE
 70
     1
  9
$QTEXTMODE
 70
     0
  9
$MIRRTEXT
 70
     1
  9
$LTSCALE
 40
1.0
  9
$ATTMODE
 70
     1
  9
$TEXTSIZE
 40
5.0
  9
$TRACEWID
 40
0.05
  9
$TEXTSTYLE
  7
BIGFONT
  9
$CLAYER
  8
0
  9
$CELTYPE
  6
ByLayer
  9
$CECOLOR
 62
   256
  9
$CELTSCALE
 40
1.0
  9
$DISPSILH
 70
     0
  9
$DIMSCALE
 40
1.0
  9
$DIMASZ
 40
0.18
  9
$DIMEXO
 40
0.0625
  9
$DIMDLI
 40
0.38
  9
$DIMRND
 40
0.0
  9
$DIMDLE
 40
0.0
  9
$DIMEXE
 40
0.18
  9
$DIMTP
 40
0.0
  9
$DIMTM
 40
0.0
  9
$DIMTXT
 40
0.18
  9
$DIMCEN
 40
0.09
  9
$DIMTSZ
 40
0.0
  9
$DIMTOL
 70
     0
  9
$DIMLIM
 70
     0
  9
$DIMTIH
 70
     1
  9
$DIMTOH
 70
     1
  9
$DIMSE1
 70
     0
  9
$DIMSE2
 70
     0
  9
$DIMTAD
 70
     0
  9
$DIMZIN
 70
     0
  9
$DIMBLK
  1

  9
$DIMASO
 70
     1
  9
$DIMSHO
 70
     1
  9
$DIMPOST
  1

  9
$DIMAPOST
  1

  9
$DIMALT
 70
     0
  9
$DIMALTD
 70
     2
  9
$DIMALTF
 40
25.4
  9
$DIMLFAC
 40
1.0
  9
$DIMTOFL
 70
     0
  9
$DIMTVP
 40
0.0
  9
$DIMTIX
 70
     0
  9
$DIMSOXD
 70
     0
  9
$DIMSAH
 70
     0
  9
$DIMBLK1
  1

  9
$DIMBLK2
  1

  9
$DIMSTYLE
  2
STANDARD
  9
$DIMCLRD
 70
     0
  9
$DIMCLRE
 70
     0
  9
$DIMCLRT
 70
     0
  9
$DIMTFAC
 40
1.0
  9
$DIMGAP
 40
0.09
  9
$DIMJUST
 70
     0
  9
$DIMSD1
 70
     0
  9
$DIMSD2
 70
     0
  9
$DIMTOLJ
 70
     1
  9
$DIMTZIN
 70
     0
  9
$DIMALTZ
 70
     0
  9
$DIMALTTZ
 70
     0
  9
$DIMUPT
 70
     0
  9
$DIMDEC
 70
     4
  9
$DIMTDEC
 70
     4
  9
$DIMALTU
 70
     2
  9
$DIMALTTD
 70
     2
  9
$DIMTXSTY
  7
STANDARD
  9
$DIMAUNIT
 70
     0
  9
$DIMADEC
 70
     0
  9
$DIMALTRND
 40
0.0
  9
$DIMAZIN
 70
     0
  9
$DIMDSEP
 70
    46
  9
$DIMATFIT
 70
     3
  9
$DIMFRAC
 70
     0
  9
$DIMLDRBLK
  1

  9
$DIMLUNIT
 70
     2
  9
$DIMLWD
 70
    -2
  9
$DIMLWE
 70
    -2
  9
$DIMTMOVE
 70
     0
  9
$LUNITS
 70
     2
  9
$LUPREC
 70
     4
  9
$SKETCHINC
 40
0.1
  9
$FILLETRAD
 40
0.0
  9
$AUNITS
 70
     0
  9
$AUPREC
 70
     0
  9
$MENU
  1
acad
  9
$ELEVATION
 40
0.0
  9
$PELEVATION
 40
0.0
  9
$THICKNESS
 40
0.0
  9
$LIMCHECK
 70
     0
  9
$CHAMFERA
 40
0.0
  9
$CHAMFERB
 40
0.0
  9
$CHAMFERC
 40
0.0
  9
$CHAMFERD
 40
0.0
  9
$SKPOLY
 70
     0
  9
$TDCREATE
 40
2450686.794502314
  9
$TDUCREATE
 40
2450686.419502314
  9
$TDUPDATE
 40
2456451.607732743
  9
$TDUUPDATE
 40
2456451.232732743
  9
$TDINDWG
 40
0.0086718750
  9
$TDUSRTIMER
 40
0.0086718750
  9
$USRTIMER
 70
     1
  9
$ANGBASE
 50
0.0
  9
$ANGDIR
 70
     0
  9
$PDMODE
 70
     0
  9
$PDSIZE
 40
0.0
  9
$PLINEWID
 40
0.0
  9
$SPLFRAME
 70
     0
  9
$SPLINETYPE
 70
     6
  9
$SPLINESEGS
 70
     8
  9
$HANDSEED
  5
8EF
  9
$SURFTAB1
 70
     6
  9
$SURFTAB2
 70
     6
  9
$SURFTYPE
 70
     6
  9
$SURFU
 70
     6
  9
$SURFV
 70
     6
  9
$UCSBASE
  2

  9
$UCSNAME
  2

  9
$UCSORG
 10
0.0
 20
0.0
 30
0.0
  9
$UCSXDIR
 10
1.0
 20
0.0
 30
0.0
  9
$UCSYDIR
 10
0.0
 20
1.0
 30
0.0
  9
$UCSORTHOREF
  2

  9
$UCSORTHOVIEW
 70
     0
  9
$UCSORGTOP
 10
0.0
 20
0.0
 30
0.0
  9
$UCSORGBOTTOM
 10
0.0
 20
0.0
 30
0.0
  9
$UCSORGLEFT
 10
0.0
 20
0.0
 30
0.0
  9
$UCSORGRIGHT
 10
0.0
 20
0.0
 30
0.0
  9
$UCSORGFRONT
 10
0.0
 20
0.0
 30
0.0
  9
$UCSORGBACK
 10
0.0
 20
0.0
 30
0.0
  9
$PUCSBASE
  2

  9
$PUCSNAME
  2

  9
$PUCSORG
 10
0.0
 20
0.0
 30
0.0
  9
$PUCSXDIR
 10
1.0
 20
0.0
 30
0.0
  9
$PUCSYDIR
 10
0.0
 20
1.0
 30
0.0
  9
$PUCSORTHOREF
  2

  9
$PUCSORTHOVIEW
 70
     0
  9
$PUCSORGTOP
 10
0.0
 20
0.0
 30
0.0
  9
$PUCSORGBOTTOM
 10
0.0
 20
0.0
 30
0.0
  9
$PUCSORGLEFT
 10
0.0
 20
0.0
 30
0.0
  9
$PUCSORGRIGHT
 10
0.0
 20
0.0
 30
0.0
  9
$PUCSORGFRONT
 10
0.0
 20
0.0
 30
0.0
  9
$PUCSORGBACK
 10
0.0
 20
0.0
 30
0.0
  9
$USERI1
 70
     0
  9
$USERI2
 70
     0
  9
$USERI3
 70
     0
  9
$USERI4
 70
     0
  9
$USERI5
 70
     0
  9
$USERR1
 40
0.0
  9
$USERR2
 40
0.0
  9
$USERR3
 40
0.0
  9
$USERR4
 40
0.0
  9
$USERR5
 40
0.0
  9
$WORLDVIEW
 70
     1
  9
$SHADEDGE
 70
     3
  9
$SHADEDIF
 70
    70
  9
$TILEMODE
 70
     1
  9
$MAXACTVP
 70
    16
  9
$PINSBASE
 10
0.0
 20
0.0
 30
0.0
  9
$PLIMCHECK
 70
     0
  9
$PEXTMIN
 10
1.000000000000000E+20
 20
1.000000000000000E+20
 30
1.000000000000000E+20
  9
$PEXTMAX
 10
-1.000000000000000E+20
 20
-1.000000000000000E+20
 30
-1.000000000000000E+20
  9
$PLIMMIN
 10
0.0
 20
0.0
  9
$PLIMMAX
 10
12.0
 20
9.0
  9
$UNITMODE
 70
     0
  9
$VISRETAIN
 70
     0
  9
$PLINEGEN
 70
     0
  9
$PSLTSCALE
 70
     1
  9
$TREEDEPTH
 70
  3020
  9
$CMLSTYLE
  2
Standard
  9
$CMLJUST
 70
     0
  9
$CMLSCALE
 40
1.0
  9
$PROXYGRAPHICS
 70
     1
  9
$MEASUREMENT
 70
     0
  9
$CELWEIGHT
370
    -1
  9
$ENDCAPS
280
     0
  9
$JOINSTYLE
280
     0
  9
$LWDISPLAY
290
     0
  9
$INSUNITS
 70
     0
  9
$HYPERLINKBASE
  1

  9
$STYLESHEET
  1

  9
$XEDIT
290
     1
  9
$CEPSNTYPE
380
     0
  9
$PSTYLEMODE
290
     1
  9
$FINGERPRINTGUID
  2
{68CBDDBF-D25C-4AB5-8A5F-E1BC67851593}
  9
$VERSIONGUID
  2
{C5B0C242-28AA-455C-944E-0F21FC9D5C17}
  9
$EXTNAMES
290
     1
  9
$PSVPSCALE
 40
0.0
  9
$OLESTARTUP
290
     0
  0
ENDSEC
  0
SECTION
  2
CLASSES
  0
CLASS
  1
ACDBDICTIONARYWDFLT
  2
AcDbDictionaryWithDefault
  3
AutoCAD 2000
 90
        0
280
     0
281
     0
  0
CLASS
  1
ACDBPLACEHOLDER
  2
AcDbPlaceHolder
  3
AutoCAD 2000
 90
        0
280
     0
281
     0
  0
CLASS
  1
LAYOUT
  2
AcDbLayout
  3
AutoCAD 2000
 90
        0
280
     0
281
     0
  0
CLASS
  1
AMGSETTINGSOBJ
  2
AmgSettingsObj
  3
"AcadM|Product Description: AutoCAD Mechanical 2000|Company: Autodesk"
 90
        0
280
     0
281
     0
  0
CLASS
  1
ACME_DOCUMENT
  2
AcMeDbDoc
  3
AcMeServices
 90
        0
280
     0
281
     0
  0
CLASS
  1
ACMESCOPE
  2
AcMeScope
  3
AcMeServices
 90
        0
280
     0
281
     0
  0
CLASS
  1
ACMECOMMANDHISTORY
  2
AcMeCommandHistory
  3
AcMeServices
 90
        0
280
     0
281
     0
  0
CLASS
  1
ACIMSYSVARMAN
  2
AcImSysVarManager
  3
AcMeServices
 90
        0
280
     0
281
     0
  0
CLASS
  1
ACIMREALSYSVAR
  2
AcImRealSysVar
  3
AcMeServices
 90
        0
280
     0
281
     0
  0
CLASS
  1
ACIMINTSYSVAR
  2
AcImIntSysVar
  3
AcMeServices
 90
        0
280
     0
281
     0
  0
CLASS
  1
ACMEDRAWINGMAN
  2
AcMeDrawingMan
  3
AcMeServices
 90
        0
280
     0
281
     0
  0
CLASS
  1
ACMEVIEW
  2
AcMeView
  3
AcMeServices
 90
        0
280
     0
281
     0
  0
CLASS
  1
ACDBENTITYCACHE
  2
AcMeEntityCache
  3
AcMeServices
 90
        0
280
     0
281
     0
  0
CLASS
  1
GSMANAGER
  2
AcMeGSManager
  3
AcMeServices
 90
        0
280
     0
281
     0
  0
CLASS
  1
AMDTINTERNALREACTOR
  2
AmdtInternalReactor
  3
AcMeServices
 90
        0
280
     0
281
     0
  0
CLASS
  1
ACMESTATEMGR
  2
AcMeStateMgr
  3
AcMeServices
 90
        0
280
     0
281
     0
  0
CLASS
  1
ACGREFMASTER
  2
AcGrefMaster
  3
AcAttribServices
 90
        0
280
     0
281
     0
  0
CLASS
  1
AM_DRAWING_MGR
  2
AcDmDwgMgr
  3
AcMechDwgViewMgmt
 90
        0
280
     0
281
     0
  0
CLASS
  1
AM_DWG_DOCUMENT
  2
AcDmDwgDocument
  3
AcMechDwgViewMgmt
 90
        0
280
     0
281
     0
  0
CLASS
  1
AM_DWG_SHEET
  2
AcDmSheet
  3
AcMechDwgViewMgmt
 90
        0
280
     0
281
     0
  0
CLASS
  1
AM_VIEWDIMPARMAP
  2
AcDmViewDimParMap
  3
AcMechDwgViewMgmt
 90
        0
280
     0
281
     0
  0
CLASS
  1
AM_DWGMGR_NAME
  2
AcDmDwgMgrName
  3
AcMechDwgViewMgmt
 90
        0
280
     0
281
     0
  0
CLASS
  1
ACME_DATABASE
  2
AcMeDbDatabase
  3
AcMeServices
 90
        0
280
     0
281
     0
  0
CLASS
  1
ACRFINSADJUSTERMGR
  2
AcRfInsAdjusterMgr
  3
AcMeServices
 90
        0
280
     0
281
     0
  0
CLASS
  1
ACGREFACADMASTER
  2
AcGrefacadMaster
  3
AcGrefServices
 90
        0
280
     0
281
     0
  0
CLASS
  1
AMDTMENUSTATEMGR
  2
AmdtMenuStateMgr
  3
McadcomServices
 90
        0
280
     0
281
     0
  0
CLASS
  1
AMDTMCOMMENUSTATE
  2
AmdtMcomMenuState
  3
McadcomServices
 90
        0
280
     0
281
     0
  0
CLASS
  1
AMIMASTER
  2
AmiMaster
  3
AmiServices
 90
        0
280
     0
281
     0
  0
CLASS
  1
ASAPP
  2
AcAsAppObject
  3
AutoSurfServices
 90
        0
280
     0
281
     0
  0
CLASS
  1
IM_STATIC_MAN
  2
AcImStaticVarManager
  3
AcMeServices
 90
        0
280
     0
281
     0
  0
CLASS
  1
ACIMSTRSYSVAR
  2
AcImStrSysVar
  3
AcMeServices
 90
        0
280
     0
281
     0
  0
CLASS
  1
ACIMDBLSTATICVAR
  2
AcImDblStaticVar
  3
AcMeServices
 90
        0
280
     0
281
     0
  0
CLASS
  1
ACIMSTRSTATICVAR
  2
AcImStrStaticVar
  3
AcMeServices
 90
        0
280
     0
281
     0
  0
CLASS
  1
ACIMINTSTATICVAR
  2
AcImIntStaticVar
  3
AcMeServices
 90
        0
280
     0
281
     0
  0
CLASS
  1
ACASGREFMASTER
  2
AcAsGrefMaster
  3
AutoSurfResolverServices
 90
        0
280
     0
281
     0
  0
CLASS
  1
ACADGREFMODULE
  2
AcAdGrefModule
  3
AdGrefServices
 90
        0
280
     0
281
     0
  0
CLASS
  1
AMDTMAPISURFMOUDULE
  2
AmdtMApiSurfModule
  3
MApiSurfServices
 90
        0
280
     0
281
     0
  0
CLASS
  1
MAPIAMMOUDLE
  2
MApiAmModule
  3
MApiAmServices
 90
        0
280
     0
281
     0
  0
CLASS
  1
AMDTADMENUSTATE
  2
AmdtAdMenuState
  3
DesignerServices
 90
        0
280
     0
281
     0
  0
CLASS
  1
ADAPPL
  2
AcAdAppl
  3
DesignerServices
 90
        0
280
     0
281
     0
  0
CLASS
  1
DEPMGR
  2
AcAdDepMgr
  3
DesignerServices
 90
        0
280
     0
281
     0
  0
CLASS
  1
PARAMMGR
  2
AcAdParamMgr
  3
DesignerServices
 90
        0
280
     0
281
     0
  0
CLASS
  1
PARAMSCOPE
  2
AcAdParamScope
  3
DesignerServices
 90
        0
280
     0
281
     0
  0
CLASS
  1
NAMEDAPPL
  2
AcAdNamedAppl
  3
DesignerServices
 90
        0
280
     0
281
     0
  0
CLASS
  1
AMDTDMMENUSTATE
  2
AmdtDmMenuState
  3
AcMechDwgViewMgmt
 90
        0
280
     0
281
     0
  0
CLASS
  1
MAPIADMODULE
  2
MApiAdModule
  3
MApiAdServices
 90
        0
280
     0
281
     0
  0
CLASS
  1
AMDTAMMENUSTATE
  2
AmdtAmMenuState
  3
DesignerAssemblies
 90
        0
280
     0
281
     0
  0
CLASS
  1
ACAMPROJECT
  2
AcAmProject
  3
DesignerAssemblies
 90
        0
280
     0
281
     0
  0
CLASS
  1
ACAMGRCOMPDEF
  2
AcAmGrCompDef
  3
DesignerAssemblies
 90
        0
280
     0
281
     0
  0
CLASS
  1
ACCMCONTEXT
  2
AcCmContext
  3
DesignerAssemblies
 90
        0
280
     0
281
     0
  0
CLASS
  1
ACAMCOMPDEF
  2
AcAmCompDef
  3
DesignerAssemblies
 90
        0
280
     0
281
     0
  0
CLASS
  1
ACAMCOMPDEFMGR
  2
AcAmCompDefMgr
  3
DesignerAssemblies
 90
        0
280
     0
281
     0
  0
CLASS
  1
AMCONTEXTMGR
  2
AcAmContextMgr
  3
DesignerAssemblies
 90
        0
280
     0
281
     0
  0
CLASS
  1
ACAMCONTEXTMODELER
  2
AcAmContextModeler
  3
DesignerAssemblies
 90
        0
280
     0
281
     0
  0
CLASS
  1
ACMDATADICTIONARY
  2
AcmDataDictionary
  3
"AcmSymBB|Product Description: AutoCAD Mechanical 2000|Company: Autodesk"
 90
        0
280
     0
281
     0
  0
CLASS
  1
ACMDATAENTRYBLOCK
  2
AcmDataEntryBlock
  3
"AcmSymBB|Product Description: AutoCAD Mechanical 2000|Company: Autodesk"
 90
        0
280
     0
281
     0
  0
CLASS
  1
CATALOGSTATE
  2
AcAmCatalogState
  3
DesignerAssemblies
 90
        0
280
     0
281
     0
  0
CLASS
  1
ACAMGRCOMPDEFSET
  2
AcAmGrCompDefSet
  3
DesignerAssemblies
 90
        0
280
     0
281
     0
  0
CLASS
  1
AMDTBROWSERDBTAB
  2
AmdtBrowserDbTab
  3
McadcomServices
 90
        0
280
     0
281
     0
  0
CLASS
  1
CBROWSERAPPOBJECT
  2
CBrowserAppObject
  3
McadcomServices
 90
        0
280
     0
281
     0
  0
CLASS
  1
DM_PLACEHOLDER
  2
AcDmSelsetPlaceholder
  3
AcMechDwgViewMgmt
 90
        0
280
     0
281
     0
  0
CLASS
  1
AMGOBJPROPCFG
  2
AmgObjPropCfg
  3
"AmgLay|Product Description: AutoCAD Mechanical 2000|Company: Autodesk"
 90
        1
280
     0
281
     0
  0
CLASS
  1
ACAMGFILTERDAT
  2
AcAmgFilterDat
  3
"AcadM|Product Description: AutoCAD Mechanical 2000|Company: Autodesk"
 90
        0
280
     0
281
     0
  0
CLASS
  1
LAYER_INDEX
  2
AcDbLayerIndex
  3
AutoCAD 2000
 90
        0
280
     0
281
     0
  0
CLASS
  1
IDBUFFER
  2
AcDbIdBuffer
  3
AutoCAD 2000
 90
        0
280
     0
281
     0
  0
CLASS
  1
DICTIONARYVAR
  2
AcDbDictionaryVar
  3
AutoCAD 2000
 90
        0
280
     0
281
     0
  0
CLASS
  1
AMDTFORMULAUPDATEDISPATCHER
  2
AmdtFormulaUpdateDispatcher
  3
AcMeServices
 90
        0
280
     0
281
     0
  0
CLASS
  1
ACMSTANDARDANSI
  2
AcmStandardANSI
  3
"Amdt_StdImp|Product Description: AutoCAD Mechanical 2000|Company: Autodesk"
 90
        0
280
     0
281
     0
  0
CLASS
  1
ACMSURFSTANDARDANSI
  2
AcmSurfTextStdANSI
  3
"Amdt_StdImp|Product Description: AutoCAD Mechanical 2000|Company: Autodesk"
 90
        0
280
     0
281
     0
  0
CLASS
  1
ACMFCFSTANDARDANSI
  2
AcmFCFStdANSI
  3
"Amdt_StdImp|Product Description: AutoCAD Mechanical 2000|Company: Autodesk"
 90
        0
280
     0
281
     0
  0
CLASS
  1
ACMWELDSTANDARDANSI
  2
AcmWeldingStdANSI
  3
"Amdt_StdImp|Product Description: AutoCAD Mechanical 2000|Company: Autodesk"
 90
        0
280
     0
281
     0
  0
CLASS
  1
ACMIDSTANDARDANSI
  2
AcmIdStdANSI
  3
"Amdt_StdImp|Product Description: AutoCAD Mechanical 2000|Company: Autodesk"
 90
        0
280
     0
281
     0
  0
CLASS
  1
ACMDATUMSTANDARDANSI
  2
AcmDatumStdANSI
  3
"Amdt_StdImp|Product Description: AutoCAD Mechanical 2000|Company: Autodesk"
 90
        0
280
     0
281
     0
  0
CLASS
  1
ACMBOMSTANDARDANSI
  2
AcmBOMStdANSI
  3
"Amdt_StdImp|Product Description: AutoCAD Mechanical 2000|Company: Autodesk"
 90
        0
280
     0
281
     0
  0
CLASS
  1
ACMDETAILSTANDARDANSI
  2
AmdtDetailSymStdANSI
  3
"Amdt_StdImp|Product Description: AutoCAD Mechanical 2000|Company: Autodesk"
 90
        0
280
     0
281
     0
  0
CLASS
  1
ACMSECTIONSTANDARDANSI
  2
AmdtSectionSymStdANSI
  3
"Amdt_StdImp|Product Description: AutoCAD Mechanical 2000|Company: Autodesk"
 90
        0
280
     0
281
     0
  0
CLASS
  1
ACMCENTERLINESTANDARDANSI
  2
AmdtCenterLineStdANSI
  3
"Amdt_StdImp|Product Description: AutoCAD Mechanical 2000|Company: Autodesk"
 90
        0
280
     0
281
     0
  0
CLASS
  1
ACMTHREADLINESTANDARDANSI
  2
AmdtThreadLineStdANSI
  3
"Amdt_StdImp|Product Description: AutoCAD Mechanical 2000|Company: Autodesk"
 90
        0
280
     0
281
     0
  0
CLASS
  1
ACMNOTESTANDARDANSI
  2
AmdtNoteStdANSI
  3
"Amdt_StdImp|Product Description: AutoCAD Mechanical 2000|Company: Autodesk"
 90
        0
280
     0
281
     0
  0
CLASS
  1
ACAMGLAYSTD
  2
AcAmgLayStd
  3
"AcAmgLayStd|Product Description: AutoCAD Mechanical 2000|Company: Autodesk"
 90
        0
280
     0
281
     0
  0
CLASS
  1
ACAMGDIMSTD
  2
AcAmgDimStd
  3
"AcAmgDimStd|Product Description: AutoCAD Mechanical 2000|Company: Autodesk"
 90
        0
280
     0
281
     0
  0
CLASS
  1
ACAMGHOLECHARTSTDANSI
  2
AcAmgHoleChartStdANSI
  3
ACMSYMBB_MODULE_NAME
 90
        0
280
     0
281
     0
  0
CLASS
  1
ACAMGTITLESTD
  2
AcAmgTitleStd
  3
"TITLEAPP"
 90
        0
280
     0
281
     0
  0
ENDSEC
  0
SECTION
  2
TABLES
  0
TABLE
  2
VPORT
  5
8
330
0
100
AcDbSymbolTable
 70
    11
  0
VPORT
  5
8EE
330
8
100
AcDbSymbolTableRecord
100
AcDbViewportTableRecord
  2
*Active
 70
     0
 10
0.0
 20
0.0
 11
1.0
 21
1.0
 12
-60.96491339518974
 22
-26.87887151898911
 13
0.0
 23
0.0
 14
0.5
 24
0.5
 15
1.0
 25
1.0
 16
0.0
 26
0.0
 36
1.0
 17
172.4418859649122
 27
115.7544153352129
 37
0.0
 40
224.3673362385414
 41
1.489721886336154
 42
50.0
 43
0.0
 44
0.0
 50
0.0
 51
0.0
 71
     0
 72
   100
 73
     1
 74
     1
 75
     0
 76
     0
 77
     0
 78
     0
281
     0
 65
     0
110
0.0
120
0.0
130
0.0
111
1.0
121
0.0
131
0.0
112
0.0
122
1.0
132
0.0
 79
     0
146
0.0
  0
ENDTAB
  0
TABLE
  2
LTYPE
  5
5
330
0
100
AcDbSymbolTable
 70
    23
  0
LTYPE
  5
13
330
5
100
AcDbSymbolTableRecord
100
AcDbLinetypeTableRecord
  2
ByBlock
 70
     0
  3

 72
    65
 73
     0
 40
0.0
  0
LTYPE
  5
14
330
5
100
AcDbSymbolTableRecord
100
AcDbLinetypeTableRecord
  2
ByLayer
 70
     0
  3

 72
    65
 73
     0
 40
0.0
  0
LTYPE
  5
15
330
5
100
AcDbSymbolTableRecord
100
AcDbLinetypeTableRecord
  2
CONTINUOUS
 70
     0
  3
Solid line
 72
    65
 73
     0
 40
0.0
  0
LTYPE
  5
23
330
5
100
AcDbSymbolTableRecord
100
AcDbLinetypeTableRecord
  2
BYLAYER
 70
     0
  3

 72
    65
 73
     0
 40
0.0
  0
LTYPE
  5
24
330
5
100
AcDbSymbolTableRecord
100
AcDbLinetypeTableRecord
  2
ITTEN1
 70
     0
  3

 72
    65
 73
     4
 40
8.199999999999999
 49
5.0
 74
     0
 49
-1.0
 74
     0
 49
1.199999999999999
 74
     0
 49
-1.0
 74
     0
  0
LTYPE
  5
10B
330
5
100
AcDbSymbolTableRecord
100
AcDbLinetypeTableRecord
  2
HIDDEN
 70
     0
  3
Hidden __ __ __ __ __ __ __ __ __ __ __ __ __ _
 72
    65
 73
     2
 40
0.375
 49
0.25
 74
     0
 49
-0.125
 74
     0
  0
LTYPE
  5
10C
330
5
100
AcDbSymbolTableRecord
100
AcDbLinetypeTableRecord
  2
PHANTOM2
 70
     0
  3
Phantom (.5x) ___ _ _ ___ _ _ ___ _ _ ___ _ _
 72
    65
 73
     6
 40
1.25
 49
0.625
 74
     0
 49
-0.125
 74
     0
 49
0.125
 74
     0
 49
-0.125
 74
     0
 49
0.125
 74
     0
 49
-0.125
 74
     0
  0
LTYPE
  5
10D
330
5
100
AcDbSymbolTableRecord
100
AcDbLinetypeTableRecord
  2
CENTER
 70
     0
  3
Center ____ _ ____ _ ____ _ ____ _ ____ _ ____
 72
    65
 73
     4
 40
2.0
 49
1.25
 74
     0
 49
-0.25
 74
     0
 49
0.25
 74
     0
 49
-0.25
 74
     0
  0
LTYPE
  5
16F
330
5
100
AcDbSymbolTableRecord
100
AcDbLinetypeTableRecord
  2
ASULTYPE
 70
     0
  3
実線
 72
    65
 73
     2
 40
3.0
 49
2.5
 74
     0
 49
0.5
 74
     0
  0
LTYPE
  5
170
330
5
100
AcDbSymbolTableRecord
100
AcDbLinetypeTableRecord
  2
ASVLTYPE
 70
     0
  3
__ __ __ __ __ __ __ __ __ __ __ __ __ __ __ __ __ __ __ __ __
 72
    65
 73
     2
 40
0.75
 49
0.5
 74
     0
 49
-0.25
 74
     0
  0
LTYPE
  5
1B1
330
5
100
AcDbSymbolTableRecord
100
AcDbLinetypeTableRecord
  2
AM_ISO02W050
 70
     0
  3
__ __ __ __ __ __ __ __ __ __ __ __ __ __ __
 72
    65
 73
     2
 40
7.5
 49
6.0
 74
     0
 49
-1.5
 74
     0
  0
LTYPE
  5
1B2
330
5
100
AcDbSymbolTableRecord
100
AcDbLinetypeTableRecord
  2
AM_ISO08W050
 70
     0
  3
____ . ____ . ____ . ____ . ____ . ____ . ____
 72
    65
 73
     4
 40
18.0
 49
12.0
 74
     0
 49
-1.5
 74
     0
 49
3.0
 74
     0
 49
-1.5
 74
     0
  0
LTYPE
  5
1B3
330
5
100
AcDbSymbolTableRecord
100
AcDbLinetypeTableRecord
  2
AM_ISO09W050
 70
     0
  3
_____ . . _____ . . _____ . . ____ .. ____
 72
    65
 73
     6
 40
22.5
 49
12.0
 74
     0
 49
-1.5
 74
     0
 49
3.0
 74
     0
 49
-1.5
 74
     0
 49
3.0
 74
     0
 49
-1.5
 74
     0
  0
LTYPE
  5
1B4
330
5
100
AcDbSymbolTableRecord
100
AcDbLinetypeTableRecord
  2
Amconstr
 70
     0
  3
_______________________
 72
    65
 73
     2
 40
9999.0
 49
9999.0
 74
     0
 49
0.0
 74
     0
  0
LTYPE
  5
1B5
330
5
100
AcDbSymbolTableRecord
100
AcDbLinetypeTableRecord
  2
AM_ISO08W050x2
 70
     0
  3
__ . __ . __ . __ . __ . __
 72
    65
 73
     4
 40
9.0
 49
6.0
 74
     0
 49
-0.75
 74
     0
 49
1.5
 74
     0
 49
-0.75
 74
     0
  0
LTYPE
  5
1B6
330
5
100
AcDbSymbolTableRecord
100
AcDbLinetypeTableRecord
  2
AM_ISO02W050x2
 70
     0
  3
 _ _ _ _ _ _ _ _ _ _ _ _
 72
    65
 73
     2
 40
3.75
 49
3.0
 74
     0
 49
-0.75
 74
     0
  0
LTYPE
  5
1B9
330
5
100
AcDbSymbolTableRecord
100
AcDbLinetypeTableRecord
  2
Amzigzag
 70
     0
  3
/\/-/\/-/\/-/\/-/\/-/\/
 72
    65
 73
     2
 40
11.00009999999999
 49
0.0001
 74
     4
 75
   135
340
1B8
 46
0.04
 50
0.0
 44
0.0
 45
0.0
 49
-11.0
 74
     0
  0
LTYPE
  5
1BA
330
5
100
AcDbSymbolTableRecord
100
AcDbLinetypeTableRecord
  2
CENTER2
 70
     0
  3
Center (.5x) ___ _ ___ _ ___ _ ___ _ ___ _ ___
 72
    65
 73
     4
 40
1.125
 49
0.75
 74
     0
 49
-0.125
 74
     0
 49
0.125
 74
     0
 49
-0.125
 74
     0
  0
LTYPE
  5
1BB
330
5
100
AcDbSymbolTableRecord
100
AcDbLinetypeTableRecord
  2
HIDDEN2
 70
     0
  3
Hidden (.5x) _ _ _ _ _ _ _ _ _ _ _ _ _ _ _ _ _
 72
    65
 73
     2
 40
0.1875
 49
0.125
 74
     0
 49
-0.0625
 74
     0
  0
LTYPE
  5
1BC
330
5
100
AcDbSymbolTableRecord
100
AcDbLinetypeTableRecord
  2
Amzigzag2
 70
     0
  3
/\/-/\/-/\/-/\/-/\/-/\/
 72
    65
 73
     2
 40
0.4401
 49
0.0001
 74
     4
 75
   135
340
1B8
 46
0.0016
 50
0.0
 44
0.0
 45
0.0
 49
-0.4400000000000001
 74
     0
  0
LTYPE
  5
1DF
330
5
100
AcDbSymbolTableRecord
100
AcDbLinetypeTableRecord
  2
ITTEN
 70
     0
  3

 72
    65
 73
     4
 40
5.5
 49
2.5
 74
     0
 49
-1.0
 74
     0
 49
1.0
 74
     0
 49
-1.0
 74
     0
  0
LTYPE
  5
1E0
330
5
100
AcDbSymbolTableRecord
100
AcDbLinetypeTableRecord
  2
DASHED
 70
     0
  3
Dashed __ __ __ __ __ __ __ __ __ __ __ __ __ _
 72
    65
 73
     2
 40
0.75
 49
0.5
 74
     0
 49
-0.25
 74
     0
  0
LTYPE
  5
38D
330
5
100
AcDbSymbolTableRecord
100
AcDbLinetypeTableRecord
  2
TENSEN
 70
     0
  3

 72
    65
 73
     2
 40
4.0
 49
3.0
 74
     0
 49
-1.0
 74
     0
  0
LTYPE
  5
38E
330
5
100
AcDbSymbolTableRecord
100
AcDbLinetypeTableRecord
  2
ACANSTGB
 70
     0
  3
__ . . __ . .
 72
    65
 73
     6
 40
0.35433070866
 49
0.15748031496
 74
     0
 49
-0.03937007874
 74
     0
 49
0.03937007874
 74
     0
 49
-0.03937007874
 74
     0
 49
0.03937007874
 74
     0
 49
-0.03937007874
 74
     0
  0
LTYPE
  5
38F
330
5
100
AcDbSymbolTableRecord
100
AcDbLinetypeTableRecord
  2
ACANSTGL
 70
     0
  3
_ _ _ _ _
 72
    65
 73
     2
 40
0.11811023622
 49
0.07874015748
 74
     0
 49
-0.03937007874
 74
     0
  0
ENDTAB
  0
TABLE
  2
LAYER
  5
2
330
0
100
AcDbSymbolTable
 70
     5
  0
LAYER
  5
10
330
2
100
AcDbSymbolTableRecord
100
AcDbLayerTableRecord
  2
0
 70
     0
 62
     7
  6
CONTINUOUS
370
    -3
390
F
  0
LAYER
  5
25
330
2
100
AcDbSymbolTableRecord
100
AcDbLayerTableRecord
  2
1
 70
     0
 62
     1
  6
ITTEN1
370
    -3
390
F
  0
LAYER
  5
26
330
2
100
AcDbSymbolTableRecord
100
AcDbLayerTableRecord
  2
3
 70
     0
 62
     3
  6
CONTINUOUS
370
    -3
390
F
  0
LAYER
  5
1E1
330
2
100
AcDbSymbolTableRecord
100
AcDbLayerTableRecord
  2
2
 70
     0
 62
     7
  6
DASHED
370
    35
390
F
  0
LAYER
  5
1E2
330
2
100
AcDbSymbolTableRecord
100
AcDbLayerTableRecord
  2
DEFPOINTS
 70
     0
 62
     7
  6
CONTINUOUS
290
     0
370
    -3
390
F
  0
ENDTAB
  0
TABLE
  2
STYLE
  5
3
330
0
100
AcDbSymbolTable
 70
     5
  0
STYLE
  5
11
330
3
100
AcDbSymbolTableRecord
100
AcDbTextStyleTableRecord
  2
STANDARD
 70
     0
 40
0.0
 41
1.0
 50
0.0
 71
     0
 42
0.2
  3
txt
  4

  0
STYLE
  5
22
330
3
100
AcDbSymbolTableRecord
100
AcDbTextStyleTableRecord
  2
BIGFONT
 70
     0
 40
5.0
 41
1.0
 50
0.0
 71
     0
 42
5.0
  3

  4
bigfont
  0
STYLE
  5
1B8
330
3
100
AcDbSymbolTableRecord
100
AcDbTextStyleTableRecord
  2

 70
     1
 40
0.0
 41
1.0
 50
0.0
 71
     0
 42
5.0
  3
ltypeshp.shx
  4

  0
STYLE
  5
390
330
3
100
AcDbSymbolTableRecord
100
AcDbTextStyleTableRecord
  2
ACANSTS
 70
     0
 40
1.0
 41
1.0
 50
0.0
 71
     0
 42
5.0
  3
romans.shx
  4
extfont.shx
  0
STYLE
  5
391
330
3
100
AcDbSymbolTableRecord
100
AcDbTextStyleTableRecord
  2
ACANSGDT
 70
     0
 40
0.0
 41
1.0
 50
0.0
 71
     0
 42
5.0
  3
amgdtans.shx
  4

  0
ENDTAB
  0
TABLE
  2
VIEW
  5
6
330
0
100
AcDbSymbolTable
 70
     0
  0
ENDTAB
  0
TABLE
  2
UCS
  5
7
330
0
100
AcDbSymbolTable
 70
     0
  0
ENDTAB
  0
TABLE
  2
APPID
  5
9
330
0
100
AcDbSymbolTable
 70
    12
  0
APPID
  5
12
330
9
100
AcDbSymbolTableRecord
100
AcDbRegAppTableRecord
  2
ACAD
 70
     0
  0
APPID
  5
EA
330
9
100
AcDbSymbolTableRecord
100
AcDbRegAppTableRecord
  2
GENIUS_GENDIM_13
 70
     0
  0
APPID
  5
EB
330
9
100
AcDbSymbolTableRecord
100
AcDbRegAppTableRecord
  2
GENIUS_GENDTOL_13
 70
     0
  0
APPID
  5
EC
330
9
100
AcDbSymbolTableRecord
100
AcDbRegAppTableRecord
  2
GENIUS_GE3DTOL_13
 70
     0
  0
APPID
  5
EE
330
9
100
AcDbSymbolTableRecord
100
AcDbRegAppTableRecord
  2
MCAD_NO_VIS
 70
     0
  0
APPID
  5
EF
330
9
100
AcDbSymbolTableRecord
100
AcDbRegAppTableRecord
  2
ACAD_TEMP_GRAPHIC
 70
     0
  0
APPID
  5
122
330
9
100
AcDbSymbolTableRecord
100
AcDbRegAppTableRecord
  2
AD_DRAW
 70
     0
  0
APPID
  5
125
330
9
100
AcDbSymbolTableRecord
100
AcDbRegAppTableRecord
  2
ACATTRIBSERVICES
 70
     0
  0
APPID
  5
171
330
9
100
AcDbSymbolTableRecord
100
AcDbRegAppTableRecord
  2
ASURF_PCURVE_APPNAME
 70
     0
  0
APPID
  5
1A0
330
9
100
AcDbSymbolTableRecord
100
AcDbRegAppTableRecord
  2
DESIGNERASSEMBLIES
 70
     0
  0
APPID
  5
1A8
330
9
100
AcDbSymbolTableRecord
100
AcDbRegAppTableRecord
  2
ACADM_DIM_EDIT
 70
     0
  0
APPID
  5
1A9
330
9
100
AcDbSymbolTableRecord
100
AcDbRegAppTableRecord
  2
AMDT_DM_ADJ
 70
     0
  0
ENDTAB
  0
TABLE
  2
DIMSTYLE
  5
A
330
0
100
AcDbSymbolTable
 70
     7
100
AcDbDimStyleTable
 71
     0
  0
DIMSTYLE
105
27
330
A
100
AcDbSymbolTableRecord
100
AcDbDimStyleTableRecord
  2
STANDARD
 70
     0
279
     2
340
22
  0
DIMSTYLE
105
392
330
A
100
AcDbSymbolTableRecord
100
AcDbDimStyleTableRecord
  2
AM_ANSI
 70
     0
  4
mm
 41
0.1
 42
0.05
 43
0.5
 44
0.1
 47
0.1
 48
0.1
 78
     7
 79
     2
140
0.12
141
0.0
146
0.71
147
0.06
176
   256
177
   256
178
     2
274
     4
284
     7
340
11
371
    -1
372
    -1
  0
DIMSTYLE
105
393
330
A
100
AcDbSymbolTableRecord
100
AcDbDimStyleTableRecord
  2
AM_ANSI$3
 70
     0
  4
mm
 41
0.1
 42
0.05
 43
0.5
 44
0.1
 47
0.1
 48
0.1
 78
     7
 79
     2
140
0.12
141
0.0
146
0.71
147
0.06
176
   256
177
   256
178
     2
274
     4
284
     7
288
     1
289
     0
340
11
371
    -1
372
    -1
  0
DIMSTYLE
105
394
330
A
100
AcDbSymbolTableRecord
100
AcDbDimStyleTableRecord
  2
AM_ANSI$4
 70
     0
  4
mm
 41
0.1
 42
0.05
 43
0.5
 44
0.1
 47
0.1
 48
0.1
 78
     7
 79
     2
140
0.12
141
0.0
146
0.71
147
0.06
176
   256
177
   256
178
     2
274
     4
284
     7
288
     1
289
     0
340
11
371
    -1
372
    -1
  0
DIMSTYLE
105
395
330
A
100
AcDbSymbolTableRecord
100
AcDbDimStyleTableRecord
  2
AM_ANSI$7
 70
     0
  4
mm
 41
0.1
 42
0.05
 43
0.5
 44
0.1
 47
0.1
 48
0.1
 78
     7
 79
     2
140
0.24
141
0.0
146
0.71
147
0.06
176
   256
177
   256
178
     2
274
     4
284
     7
340
11
371
    -1
372
    -1
  0
DIMSTYLE
105
396
330
A
100
AcDbSymbolTableRecord
100
AcDbDimStyleTableRecord
  2
AM_ANSI$SF
 70
     0
  4
mm
 41
0.1
 42
0.05
 43
0.5
 44
0.1
 47
0.1
 48
0.1
 75
     1
 76
     1
 78
     7
 79
     2
140
0.12
141
0.0
146
0.71
147
0.06
176
   256
177
   256
178
     2
274
     4
284
     7
340
11
371
    -1
372
    -1
  0
DIMSTYLE
105
397
330
A
100
AcDbSymbolTableRecord
100
AcDbDimStyleTableRecord
  2
AM_ANSI$SH
 70
     0
  4
mm
 41
0.1
 42
0.05
 43
0.5
 44
0.1
 47
0.1
 48
0.1
 75
     1
 76
     1
 78
     7
 79
     2
140
0.12
141
0.0
146
0.71
147
0.06
173
     1
176
   256
177
   256
178
     2
274
     4
284
     7
340
11
343
381
371
    -1
372
    -1
  0
ENDTAB
  0
TABLE
  2
BLOCK_RECORD
  5
1
330
0
100
AcDbSymbolTable
 70
    38
  0
BLOCK_RECORD
  5
1E
102
{ACAD_XDICTIONARY
360
1C5
102
}
330
1
100
AcDbSymbolTableRecord
100
AcDbBlockTableRecord
  2
*Model_Space
340
21
  0
BLOCK_RECORD
  5
1A
330
1
100
AcDbSymbolTableRecord
100
AcDbBlockTableRecord
  2
*Paper_Space
340
1D
  0
BLOCK_RECORD
  5
197
330
1
100
AcDbSymbolTableRecord
100
AcDbBlockTableRecord
  2
*U0
340
0
  0
BLOCK_RECORD
  5
1D1
330
1
100
AcDbSymbolTableRecord
100
AcDbBlockTableRecord
  2
*D1
340
0
  0
BLOCK_RECORD
  5
27C
330
1
100
AcDbSymbolTableRecord
100
AcDbBlockTableRecord
  2
*D3
340
0
  0
BLOCK_RECORD
  5
2A7
330
1
100
AcDbSymbolTableRecord
100
AcDbBlockTableRecord
  2
*D4
340
0
  0
BLOCK_RECORD
  5
358
330
1
100
AcDbSymbolTableRecord
100
AcDbBlockTableRecord
  2
*D6
340
0
  0
BLOCK_RECORD
  5
381
330
1
100
AcDbSymbolTableRecord
100
AcDbBlockTableRecord
  2
GENAXEH
340
0
  0
BLOCK_RECORD
  5
385
330
1
100
AcDbSymbolTableRecord
100
AcDbBlockTableRecord
  2
*D8
340
0
  0
BLOCK_RECORD
  5
46E
330
1
100
AcDbSymbolTableRecord
100
AcDbBlockTableRecord
  2
*D10
340
0
  0
BLOCK_RECORD
  5
483
330
1
100
AcDbSymbolTableRecord
100
AcDbBlockTableRecord
  2
*D11
340
0
  0
BLOCK_RECORD
  5
562
330
1
100
AcDbSymbolTableRecord
100
AcDbBlockTableRecord
  2
*D13
340
0
  0
BLOCK_RECORD
  5
577
330
1
100
AcDbSymbolTableRecord
100
AcDbBlockTableRecord
  2
*D14
340
0
  0
BLOCK_RECORD
  5
664
330
1
100
AcDbSymbolTableRecord
100
AcDbBlockTableRecord
  2
*D16
340
0
  0
BLOCK_RECORD
  5
679
330
1
100
AcDbSymbolTableRecord
100
AcDbBlockTableRecord
  2
*D17
340
0
  0
BLOCK_RECORD
  5
686
330
1
100
AcDbSymbolTableRecord
100
AcDbBlockTableRecord
  2
*D18
340
0
  0
BLOCK_RECORD
  5
68F
330
1
100
AcDbSymbolTableRecord
100
AcDbBlockTableRecord
  2
*D19
340
0
  0
BLOCK_RECORD
  5
697
330
1
100
AcDbSymbolTableRecord
100
AcDbBlockTableRecord
  2
*D20
340
0
  0
BLOCK_RECORD
  5
6A6
330
1
100
AcDbSymbolTableRecord
100
AcDbBlockTableRecord
  2
*D21
340
0
  0
BLOCK_RECORD
  5
6AF
330
1
100
AcDbSymbolTableRecord
100
AcDbBlockTableRecord
  2
*D22
340
0
  0
BLOCK_RECORD
  5
6BC
330
1
100
AcDbSymbolTableRecord
100
AcDbBlockTableRecord
  2
*D23
340
0
  0
BLOCK_RECORD
  5
6C9
330
1
100
AcDbSymbolTableRecord
100
AcDbBlockTableRecord
  2
*D24
340
0
  0
BLOCK_RECORD
  5
6D2
330
1
100
AcDbSymbolTableRecord
100
AcDbBlockTableRecord
  2
*D25
340
0
  0
BLOCK_RECORD
  5
6DB
330
1
100
AcDbSymbolTableRecord
100
AcDbBlockTableRecord
  2
*D26
340
0
  0
BLOCK_RECORD
  5
7E3
330
1
100
AcDbSymbolTableRecord
100
AcDbBlockTableRecord
  2
*D28
340
0
  0
BLOCK_RECORD
  5
7EF
330
1
100
AcDbSymbolTableRecord
100
AcDbBlockTableRecord
  2
*D29
340
0
  0
BLOCK_RECORD
  5
7FC
330
1
100
AcDbSymbolTableRecord
100
AcDbBlockTableRecord
  2
*D30
340
0
  0
BLOCK_RECORD
  5
80C
330
1
100
AcDbSymbolTableRecord
100
AcDbBlockTableRecord
  2
*D31
340
0
  0
BLOCK_RECORD
  5
814
330
1
100
AcDbSymbolTableRecord
100
AcDbBlockTableRecord
  2
*D32
340
0
  0
BLOCK_RECORD
  5
81D
330
1
100
AcDbSymbolTableRecord
100
AcDbBlockTableRecord
  2
*D33
340
0
  0
BLOCK_RECORD
  5
825
330
1
100
AcDbSymbolTableRecord
100
AcDbBlockTableRecord
  2
*D34
340
0
  0
BLOCK_RECORD
  5
82E
330
1
100
AcDbSymbolTableRecord
100
AcDbBlockTableRecord
  2
*D35
340
0
  0
BLOCK_RECORD
  5
83B
330
1
100
AcDbSymbolTableRecord
100
AcDbBlockTableRecord
  2
*D36
340
0
  0
BLOCK_RECORD
  5
848
330
1
100
AcDbSymbolTableRecord
100
AcDbBlockTableRecord
  2
*D37
340
0
  0
ENDTAB
  0
ENDSEC
  0
SECTION
  2
BLOCKS
  0
BLOCK
  5
1F
330
1E
100
AcDbEntity
  8
0
100
AcDbBlockBegin
  2
*Model_Space
 70
     0
 10
0.0
 20
0.0
 30
0.0
  3
*Model_Space
  1

  0
ENDBLK
  5
20
330
1E
100
AcDbEntity
  8
0
100
AcDbBlockEnd
  0
BLOCK
  5
1B
330
1A
100
AcDbEntity
 67
     1
  8
0
100
AcDbBlockBegin
  2
*Paper_Space
 70
     0
 10
0.0
 20
0.0
 30
0.0
  3
*Paper_Space
  1

  0
ENDBLK
  5
1C
330
1A
100
AcDbEntity
 67
     1
  8
0
100
AcDbBlockEnd
  0
BLOCK
  5
198
330
197
100
AcDbEntity
  8
0
100
AcDbBlockBegin
  2
*U0
 70
     1
 10
0.0
 20
0.0
 30
0.0
  3
*U0
  1

  0
ENDBLK
  5
199
330
197
100
AcDbEntity
  8
0
100
AcDbBlockEnd
  0
BLOCK
  5
1DD
330
1D1
100
AcDbEntity
  8
0
100
AcDbBlockBegin
  2
*D1
 70
     1
 10
0.0
 20
0.0
 30
0.0
  3
*D1
  1

  0
LINE
  5
1D2
330
1D1
100
AcDbEntity
  8
0
 62
     0
370
    -2
100
AcDbLine
 10
186.388888951676
 20
102.2499999999999
 30
0.0
 11
201.8101159903226
 21
102.2499999999999
 31
0.0
  0
LINE
  5
1D3
330
1D1
100
AcDbEntity
  8
0
 62
     0
370
    -2
100
AcDbLine
 10
186.388888951676
 20
98.25000000000001
 30
0.0
 11
201.8101159903226
 21
98.25000000000001
 31
0.0
  0
LINE
  5
1D4
330
1D1
100
AcDbEntity
  8
0
 62
     0
370
    -2
100
AcDbLine
 10
201.3101159903226
 20
100.75
 30
0.0
 11
201.3101159903226
 21
99.75000000000001
 31
0.0
  0
LINE
  5
1D5
330
1D1
100
AcDbEntity
  8
0
 62
     0
370
    -2
100
AcDbLine
 10
201.3101159903226
 20
98.25000000000001
 30
0.0
 11
201.3101159903226
 21
91.94006530269168
 31
0.0
  0
LINE
  5
1D6
330
1D1
100
AcDbEntity
  8
0
 62
     0
370
    -2
100
AcDbLine
 10
201.3101159903226
 20
91.94006530269168
 30
0.0
 11
199.8101159903226
 21
91.94006530269168
 31
0.0
  0
SOLID
  5
1D7
330
1D1
100
AcDbEntity
  8
0
 62
     0
100
AcDbTrace
 10
201.0601159903226
 20
100.75
 30
0.0
 11
201.5601159903226
 21
100.75
 31
0.0
 12
201.3101159903226
 22
102.2499999999999
 32
0.0
 13
201.3101159903226
 23
102.2499999999999
 33
0.0
  0
SOLID
  5
1D8
330
1D1
100
AcDbEntity
  8
0
 62
     0
100
AcDbTrace
 10
201.0601159903226
 20
99.75000000000001
 30
0.0
 11
201.5601159903226
 21
99.75000000000001
 31
0.0
 12
201.3101159903226
 22
98.25000000000001
 32
0.0
 13
201.3101159903226
 23
98.25000000000001
 33
0.0
  0
MTEXT
  5
1D9
330
1D1
100
AcDbEntity
  8
0
 62
     0
100
AcDbMText
 10
196.7934493236559
 20
91.9400653026917
 30
0.0
 40
5.0
 41
0.0
 71
     5
 72
     1
  1
\A1;%%C4
 73
     1
 44
1.0
  0
POINT
  5
1DA
330
1D1
100
AcDbEntity
  8
DEFPOINTS
 62
     0
100
AcDbPoint
 10
185.8888889516759
 20
102.2499999999999
 30
0.0
  0
POINT
  5
1DB
330
1D1
100
AcDbEntity
  8
DEFPOINTS
 62
     0
100
AcDbPoint
 10
185.8888889516759
 20
98.25000000000001
 30
0.0
  0
POINT
  5
1DC
330
1D1
100
AcDbEntity
  8
DEFPOINTS
 62
     0
100
AcDbPoint
 10
201.3101159903226
 20
98.25000000000001
 30
0.0
  0
ENDBLK
  5
1DE
330
1D1
100
AcDbEntity
  8
0
100
AcDbBlockEnd
  0
BLOCK
  5
286
330
27C
100
AcDbEntity
  8
0
100
AcDbBlockBegin
  2
*D3
 70
     1
 10
0.0
 20
0.0
 30
0.0
  3
*D3
  1

  0
LINE
  5
291
330
27C
100
AcDbEntity
  8
0
 62
     0
370
    -2
100
AcDbLine
 10
141.4766179502534
 20
93.35696557814113
 30
0.0
 11
156.8978449889001
 21
93.35696557814113
 31
0.0
  0
LINE
  5
292
330
27C
100
AcDbEntity
  8
0
 62
     0
370
    -2
100
AcDbLine
 10
141.4766179502534
 20
89.35696557814113
 30
0.0
 11
156.8978449889001
 21
89.35696557814113
 31
0.0
  0
LINE
  5
293
330
27C
100
AcDbEntity
  8
0
 62
     0
370
    -2
100
AcDbLine
 10
156.3978449889001
 20
91.85696557814113
 30
0.0
 11
156.3978449889001
 21
90.85696557814113
 31
0.0
  0
MTEXT
  5
294
330
27C
100
AcDbEntity
  8
0
 62
     0
100
AcDbMText
 10
151.8811783222334
 20
83.04703088083284
 30
0.0
 40
5.0
 41
0.0
 71
     5
 72
     1
  1
\A1;%%C4
  7
BIGFONT
 73
     1
 44
1.0
  0
SOLID
  5
295
330
27C
100
AcDbEntity
  8
0
 62
     0
100
AcDbTrace
 10
156.1478449889001
 20
91.85696557814113
 30
0.0
 11
156.6478449889001
 21
91.85696557814113
 31
0.0
 12
156.3978449889001
 22
93.35696557814113
 32
0.0
 13
156.3978449889001
 23
93.35696557814113
 33
0.0
  0
SOLID
  5
296
330
27C
100
AcDbEntity
  8
0
 62
     0
100
AcDbTrace
 10
156.1478449889001
 20
90.85696557814113
 30
0.0
 11
156.6478449889001
 21
90.85696557814113
 31
0.0
 12
156.3978449889001
 22
89.35696557814113
 32
0.0
 13
156.3978449889001
 23
89.35696557814113
 33
0.0
  0
POINT
  5
297
330
27C
100
AcDbEntity
  8
DEFPOINTS
 62
     0
100
AcDbPoint
 10
140.9766179502534
 20
93.35696557814113
 30
0.0
  0
POINT
  5
298
330
27C
100
AcDbEntity
  8
DEFPOINTS
 62
     0
100
AcDbPoint
 10
140.9766179502534
 20
89.35696557814113
 30
0.0
  0
POINT
  5
299
330
27C
100
AcDbEntity
  8
DEFPOINTS
 62
     0
100
AcDbPoint
 10
156.3978449889001
 20
89.35696557814113
 30
0.0
  0
ENDBLK
  5
287
330
27C
100
AcDbEntity
  8
0
100
AcDbBlockEnd
  0
BLOCK
  5
2B3
330
2A7
100
AcDbEntity
  8
0
100
AcDbBlockBegin
  2
*D4
 70
     1
 10
0.0
 20
0.0
 30
0.0
  3
*D4
  1

  0
LINE
  5
2A8
330
2A7
100
AcDbEntity
  8
0
 62
     0
370
    -2
100
AcDbLine
 10
186.388888951676
 20
102.2499999999999
 30
0.0
 11
201.8101159903226
 21
102.2499999999999
 31
0.0
  0
LINE
  5
2A9
330
2A7
100
AcDbEntity
  8
0
 62
     0
370
    -2
100
AcDbLine
 10
186.388888951676
 20
98.25000000000001
 30
0.0
 11
201.8101159903226
 21
98.25000000000001
 31
0.0
  0
LINE
  5
2AA
330
2A7
100
AcDbEntity
  8
0
 62
     0
370
    -2
100
AcDbLine
 10
201.3101159903226
 20
100.75
 30
0.0
 11
201.3101159903226
 21
99.75000000000001
 31
0.0
  0
LINE
  5
2AB
330
2A7
100
AcDbEntity
  8
0
 62
     0
370
    -2
100
AcDbLine
 10
201.3101159903226
 20
98.25000000000001
 30
0.0
 11
201.3101159903226
 21
91.94006530269168
 31
0.0
  0
LINE
  5
2AC
330
2A7
100
AcDbEntity
  8
0
 62
     0
370
    -2
100
AcDbLine
 10
201.3101159903226
 20
91.94006530269168
 30
0.0
 11
199.8101159903226
 21
91.94006530269168
 31
0.0
  0
SOLID
  5
2AD
330
2A7
100
AcDbEntity
  8
0
 62
     0
100
AcDbTrace
 10
201.0601159903226
 20
100.75
 30
0.0
 11
201.5601159903226
 21
100.75
 31
0.0
 12
201.3101159903226
 22
102.2499999999999
 32
0.0
 13
201.3101159903226
 23
102.2499999999999
 33
0.0
  0
SOLID
  5
2AE
330
2A7
100
AcDbEntity
  8
0
 62
     0
100
AcDbTrace
 10
201.0601159903226
 20
99.75000000000001
 30
0.0
 11
201.5601159903226
 21
99.75000000000001
 31
0.0
 12
201.3101159903226
 22
98.25000000000001
 32
0.0
 13
201.3101159903226
 23
98.25000000000001
 33
0.0
  0
MTEXT
  5
2AF
330
2A7
100
AcDbEntity
  8
0
 62
     0
100
AcDbMText
 10
196.7934493236559
 20
91.9400653026917
 30
0.0
 40
5.0
 41
0.0
 71
     5
 72
     1
  1
\A1;%%C4
 73
     1
 44
1.0
  0
POINT
  5
2B0
330
2A7
100
AcDbEntity
  8
DEFPOINTS
 62
     0
100
AcDbPoint
 10
185.8888889516759
 20
102.2499999999999
 30
0.0
  0
POINT
  5
2B1
330
2A7
100
AcDbEntity
  8
DEFPOINTS
 62
     0
100
AcDbPoint
 10
185.8888889516759
 20
98.25000000000001
 30
0.0
  0
POINT
  5
2B2
330
2A7
100
AcDbEntity
  8
DEFPOINTS
 62
     0
100
AcDbPoint
 10
201.3101159903226
 20
98.25000000000001
 30
0.0
  0
ENDBLK
  5
2B4
330
2A7
100
AcDbEntity
  8
0
100
AcDbBlockEnd
  0
BLOCK
  5
362
330
358
100
AcDbEntity
  8
0
100
AcDbBlockBegin
  2
*D6
 70
     1
 10
0.0
 20
0.0
 30
0.0
  3
*D6
  1

  0
LINE
  5
36D
330
358
100
AcDbEntity
  8
0
 62
     0
370
    -2
100
AcDbLine
 10
160.1447364495316
 20
92.86521551616425
 30
0.0
 11
175.5659634881783
 21
92.86521551616425
 31
0.0
  0
LINE
  5
36E
330
358
100
AcDbEntity
  8
0
 62
     0
370
    -2
100
AcDbLine
 10
160.1447364495316
 20
88.86521551616425
 30
0.0
 11
175.5659634881783
 21
88.86521551616425
 31
0.0
  0
LINE
  5
36F
330
358
100
AcDbEntity
  8
0
 62
     0
370
    -2
100
AcDbLine
 10
175.0659634881783
 20
91.36521551616425
 30
0.0
 11
175.0659634881783
 21
90.36521551616425
 31
0.0
  0
MTEXT
  5
370
330
358
100
AcDbEntity
  8
0
 62
     0
100
AcDbMText
 10
170.5492968215116
 20
82.55528081885598
 30
0.0
 40
5.0
 41
0.0
 71
     5
 72
     1
  1
\A1;%%C4
  7
BIGFONT
 73
     1
 44
1.0
  0
SOLID
  5
371
330
358
100
AcDbEntity
  8
0
 62
     0
100
AcDbTrace
 10
174.8159634881783
 20
91.36521551616425
 30
0.0
 11
175.3159634881783
 21
91.36521551616425
 31
0.0
 12
175.0659634881783
 22
92.86521551616425
 32
0.0
 13
175.0659634881783
 23
92.86521551616425
 33
0.0
  0
SOLID
  5
372
330
358
100
AcDbEntity
  8
0
 62
     0
100
AcDbTrace
 10
174.8159634881783
 20
90.36521551616425
 30
0.0
 11
175.3159634881783
 21
90.36521551616425
 31
0.0
 12
175.0659634881783
 22
88.86521551616425
 32
0.0
 13
175.0659634881783
 23
88.86521551616425
 33
0.0
  0
POINT
  5
373
330
358
100
AcDbEntity
  8
DEFPOINTS
 62
     0
100
AcDbPoint
 10
159.6447364495316
 20
92.86521551616427
 30
0.0
  0
POINT
  5
374
330
358
100
AcDbEntity
  8
DEFPOINTS
 62
     0
100
AcDbPoint
 10
159.6447364495316
 20
88.86521551616427
 30
0.0
  0
POINT
  5
375
330
358
100
AcDbEntity
  8
DEFPOINTS
 62
     0
100
AcDbPoint
 10
175.0659634881783
 20
88.86521551616425
 30
0.0
  0
ENDBLK
  5
363
330
358
100
AcDbEntity
  8
0
100
AcDbBlockEnd
  0
BLOCK
  5
383
330
381
100
AcDbEntity
  8
0
100
AcDbBlockBegin
  2
GENAXEH
 70
     0
 10
0.0
 20
0.0
 30
0.0
  3
GENAXEH
  1

  0
LINE
  5
382
330
381
100
AcDbEntity
  8
0
100
AcDbLine
 10
-1.0
 20
0.0
 30
0.0
 11
1.0
 21
0.0
 31
0.0
  0
ENDBLK
  5
384
330
381
100
AcDbEntity
  8
0
100
AcDbBlockEnd
  0
BLOCK
  5
38B
330
385
100
AcDbEntity
  8
0
100
AcDbBlockBegin
  2
*D8
 70
     1
 10
0.0
 20
0.0
 30
0.0
  3
*D8
  1

  0
LINE
  5
386
330
385
100
AcDbEntity
  8
0
 62
     0
370
    -2
100
AcDbLine
 10
104.0161593297541
 20
121.6337181701173
 30
0.0
 11
111.5876049033765
 21
122.1256082428671
 31
0.0
  0
MTEXT
  5
387
330
385
100
AcDbEntity
  8
0
 62
     0
100
AcDbMText
 10
97.67615932975417
 20
121.6337181701173
 30
0.0
 40
5.0
 41
0.0
 71
     5
 72
     1
  1
\A1;R20
 73
     1
 44
1.0
  0
SOLID
  5
388
330
385
100
AcDbEntity
  8
0
 62
     0
100
AcDbTrace
 10
111.5746389434036
 20
122.3251875100317
 30
0.0
 11
111.6005708633495
 21
121.9260289757024
 31
0.0
 12
112.7850805063644
 22
122.2034040027048
 32
0.0
 13
112.7850805063644
 23
122.2034040027048
 33
0.0
  0
POINT
  5
389
330
385
100
AcDbEntity
  8
DEFPOINTS
 62
     0
100
AcDbPoint
 10
112.7850805063644
 20
122.2034040027048
 30
0.0
  0
POINT
  5
38A
330
385
100
AcDbEntity
  8
DEFPOINTS
 62
     0
100
AcDbPoint
 10
132.7430072228297
 20
123.4999999999999
 30
0.0
  0
ENDBLK
  5
38C
330
385
100
AcDbEntity
  8
0
100
AcDbBlockEnd
  0
BLOCK
  5
474
330
46E
100
AcDbEntity
  8
0
100
AcDbBlockBegin
  2
*D10
 70
     1
 10
0.0
 20
0.0
 30
0.0
  3
*D10
  1

  0
LINE
  5
47B
330
46E
100
AcDbEntity
  8
0
 62
     0
370
    -2
100
AcDbLine
 10
112.6105864482743
 20
90.26871155980598
 30
0.0
 11
93.85013533479712
 21
89.0499113223486
 31
0.0
  0
MTEXT
  5
47C
330
46E
100
AcDbEntity
  8
0
 62
     0
100
AcDbMText
 10
83.88373855519882
 20
88.4024297299234
 30
0.0
 40
5.0
 41
0.0
 71
     5
 72
     1
  1
\A1;R20
  7
BIGFONT
 11
0.9978963358232636
 21
0.0648297998647558
 31
0.0
 73
     1
 44
1.0
  0
SOLID
  5
47D
330
46E
100
AcDbEntity
  8
0
 62
     0
100
AcDbTrace
 10
93.83716937482416
 20
89.24949058951325
 30
0.0
 11
93.86310129477008
 21
88.85033205518395
 31
0.0
 12
92.6526597318092
 22
88.97211556251088
 32
0.0
 13
92.6526597318092
 23
88.97211556251088
 33
0.0
  0
POINT
  5
47E
330
46E
100
AcDbEntity
  8
DEFPOINTS
 62
     0
100
AcDbPoint
 10
92.6526597318092
 20
88.97211556251088
 30
0.0
  0
POINT
  5
47F
330
46E
100
AcDbEntity
  8
DEFPOINTS
 62
     0
100
AcDbPoint
 10
112.6105864482743
 20
90.26871155980598
 30
0.0
  0
ENDBLK
  5
475
330
46E
100
AcDbEntity
  8
0
100
AcDbBlockEnd
  0
BLOCK
  5
489
330
483
100
AcDbEntity
  8
0
100
AcDbBlockBegin
  2
*D11
 70
     1
 10
0.0
 20
0.0
 30
0.0
  3
*D11
  1

  0
LINE
  5
484
330
483
100
AcDbEntity
  8
0
 62
     0
370
    -2
100
AcDbLine
 10
107.2616082163643
 20
119.9187847610273
 30
0.0
 11
120.9269760390635
 21
120.7637243970434
 31
0.0
  0
MTEXT
  5
485
330
483
100
AcDbEntity
  8
0
 62
     0
100
AcDbMText
 10
100.9216082163643
 20
119.9187847610273
 30
0.0
 40
5.0
 41
0.0
 71
     5
 72
     1
  1
\A1;R30
 73
     1
 44
1.0
  0
SOLID
  5
486
330
483
100
AcDbEntity
  8
0
 62
     0
100
AcDbTrace
 10
120.9146334641002
 20
120.9633431858467
 30
0.0
 11
120.9393186140269
 21
120.5641056082402
 31
0.0
 12
122.1246887718829
 22
120.8377798468235
 32
0.0
 13
122.1246887718829
 23
120.8377798468235
 33
0.0
  0
POINT
  5
487
330
483
100
AcDbEntity
  8
DEFPOINTS
 62
     0
100
AcDbPoint
 10
122.1246887718829
 20
120.8377798468235
 30
0.0
  0
POINT
  5
488
330
483
100
AcDbEntity
  8
DEFPOINTS
 62
     0
100
AcDbPoint
 10
152.0675070923696
 20
122.6891660913259
 30
0.0
  0
ENDBLK
  5
48A
330
483
100
AcDbEntity
  8
0
100
AcDbBlockEnd
  0
BLOCK
  5
568
330
562
100
AcDbEntity
  8
0
100
AcDbBlockBegin
  2
*D13
 70
     1
 10
0.0
 20
0.0
 30
0.0
  3
*D13
  1

  0
LINE
  5
56F
330
562
100
AcDbEntity
  8
0
 62
     0
370
    -2
100
AcDbLine
 10
135.5564458235831
 20
88.68004385774426
 30
0.0
 11
106.8113402359159
 21
86.90271306302202
 31
0.0
  0
MTEXT
  5
570
330
562
100
AcDbEntity
  8
0
 62
     0
100
AcDbMText
 10
90.75054694757787
 20
85.90966252744559
 30
0.0
 40
5.0
 41
0.0
 71
     5
 72
     1
  1
\A1;R30
  7
BIGFONT
 11
0.9980939440162197
 21
0.0617128748167445
 31
0.0
 73
     1
 44
1.0
  0
SOLID
  5
571
330
562
100
AcDbEntity
  8
0
 62
     0
100
AcDbTrace
 10
106.7989976609526
 20
87.10233185182522
 30
0.0
 11
106.8236828108793
 21
86.70309427421875
 31
0.0
 12
105.6136275030965
 22
86.8286576132419
 32
0.0
 13
105.6136275030965
 23
86.8286576132419
 33
0.0
  0
POINT
  5
572
330
562
100
AcDbEntity
  8
DEFPOINTS
 62
     0
100
AcDbPoint
 10
105.6136275030965
 20
86.8286576132419
 30
0.0
  0
POINT
  5
573
330
562
100
AcDbEntity
  8
DEFPOINTS
 62
     0
100
AcDbPoint
 10
135.5564458235831
 20
88.68004385774426
 30
0.0
  0
ENDBLK
  5
569
330
562
100
AcDbEntity
  8
0
100
AcDbBlockEnd
  0
BLOCK
  5
57D
330
577
100
AcDbEntity
  8
0
100
AcDbBlockBegin
  2
*D14
 70
     1
 10
0.0
 20
0.0
 30
0.0
  3
*D14
  1

  0
LINE
  5
578
330
577
100
AcDbEntity
  8
0
 62
     0
370
    -2
100
AcDbLine
 10
96.25489274798113
 20
114.4213732687489
 30
0.0
 11
120.6631125881547
 21
116.1006468114503
 31
0.0
  0
MTEXT
  5
579
330
577
100
AcDbEntity
  8
0
 62
     0
100
AcDbMText
 10
89.9148927479811
 20
114.4213732687489
 30
0.0
 40
5.0
 41
0.0
 71
     5
 72
     1
  1
\A1;R40
 73
     1
 44
1.0
  0
SOLID
  5
57A
330
577
100
AcDbEntity
  8
0
 62
     0
100
AcDbTrace
 10
120.6493851365534
 20
116.3001751479656
 30
0.0
 11
120.676840039756
 21
115.9011184749351
 31
0.0
 12
121.860282607246
 22
116.183011521058
 32
0.0
 13
121.860282607246
 23
116.183011521058
 33
0.0
  0
POINT
  5
57B
330
577
100
AcDbEntity
  8
DEFPOINTS
 62
     0
100
AcDbPoint
 10
121.860282607246
 20
116.183011521058
 30
0.0
  0
POINT
  5
57C
330
577
100
AcDbEntity
  8
DEFPOINTS
 62
     0
100
AcDbPoint
 10
161.765949910292
 20
118.9285018413128
 30
0.0
  0
ENDBLK
  5
57E
330
577
100
AcDbEntity
  8
0
100
AcDbBlockEnd
  0
BLOCK
  5
66A
330
664
100
AcDbEntity
  8
0
100
AcDbBlockBegin
  2
*D16
 70
     1
 10
0.0
 20
0.0
 30
0.0
  3
*D16
  1

  0
LINE
  5
671
330
664
100
AcDbEntity
  8
0
 62
     0
370
    -2
100
AcDbLine
 10
150.416034695977
 20
84.42036870475929
 30
0.0
 11
111.7075374120225
 21
81.75724309411211
 31
0.0
  0
MTEXT
  5
672
330
664
100
AcDbEntity
  8
0
 62
     0
100
AcDbMText
 10
84.90497753366614
 20
79.91324013219545
 30
0.0
 40
5.0
 41
0.0
 71
     5
 72
     1
  1
\A1;R40
  7
BIGFONT
 11
0.9976416825761477
 21
0.06863725800637
 31
0.0
 73
     1
 44
1.0
  0
SOLID
  5
673
330
664
100
AcDbEntity
  8
0
 62
     0
100
AcDbTrace
 10
111.6938099604212
 20
81.95677143062733
 30
0.0
 11
111.7212648636237
 21
81.55771475759687
 31
0.0
 12
110.5103673929311
 22
81.67487838450446
 32
0.0
 13
110.5103673929311
 23
81.67487838450446
 33
0.0
  0
POINT
  5
674
330
664
100
AcDbEntity
  8
DEFPOINTS
 62
     0
100
AcDbPoint
 10
110.5103673929311
 20
81.67487838450446
 30
0.0
  0
POINT
  5
675
330
664
100
AcDbEntity
  8
DEFPOINTS
 62
     0
100
AcDbPoint
 10
150.416034695977
 20
84.42036870475929
 30
0.0
  0
ENDBLK
  5
66B
330
664
100
AcDbEntity
  8
0
100
AcDbBlockEnd
  0
BLOCK
  5
684
330
679
100
AcDbEntity
  8
0
100
AcDbBlockBegin
  2
*D17
 70
     1
 10
0.0
 20
0.0
 30
0.0
  3
*D17
  1

  0
LINE
  5
67A
330
679
100
AcDbEntity
  8
0
 62
     0
370
    -2
100
AcDbLine
 10
180.5187917142979
 20
126.2769125002803
 30
0.0
 11
180.5187917142979
 21
145.0871603731301
 31
0.0
  0
LINE
  5
67B
330
679
100
AcDbEntity
  8
0
 62
     0
370
    -2
100
AcDbLine
 10
170.5187917142979
 20
129.2769125002803
 30
0.0
 11
170.5187917142979
 21
145.0871603731301
 31
0.0
  0
LINE
  5
67C
330
679
100
AcDbEntity
  8
0
 62
     0
370
    -2
100
AcDbLine
 10
179.3187917142979
 20
144.0871603731301
 30
0.0
 11
178.5811744542796
 21
144.0871603731301
 31
0.0
  0
LINE
  5
67D
330
679
100
AcDbEntity
  8
0
 62
     0
370
    -2
100
AcDbLine
 10
171.7187917142979
 20
144.0871603731301
 30
0.0
 11
172.5678411209463
 21
144.0871603731301
 31
0.0
  0
SOLID
  5
67E
330
679
100
AcDbEntity
  8
0
 62
     0
100
AcDbTrace
 10
179.3187917142979
 20
144.2871603731301
 30
0.0
 11
179.3187917142979
 21
143.8871603731301
 31
0.0
 12
180.5187917142979
 22
144.0871603731301
 32
0.0
 13
180.5187917142979
 23
144.0871603731301
 33
0.0
  0
SOLID
  5
67F
330
679
100
AcDbEntity
  8
0
 62
     0
100
AcDbTrace
 10
171.7187917142979
 20
144.2871603731301
 30
0.0
 11
171.7187917142979
 21
143.8871603731301
 31
0.0
 12
170.5187917142979
 22
144.0871603731301
 32
0.0
 13
170.5187917142979
 23
144.0871603731301
 33
0.0
  0
MTEXT
  5
680
330
679
100
AcDbEntity
  8
0
 62
     0
100
AcDbMText
 10
175.574507787613
 20
144.0871603731301
 30
0.0
 40
5.0
 41
0.0
 71
     5
 72
     1
  1
\A1;10
 73
     1
 44
1.0
  0
POINT
  5
681
330
679
100
AcDbEntity
  8
DEFPOINTS
 62
     0
100
AcDbPoint
 10
180.5187917142979
 20
125.2769125002803
 30
0.0
  0
POINT
  5
682
330
679
100
AcDbEntity
  8
DEFPOINTS
 62
     0
100
AcDbPoint
 10
170.5187917142979
 20
128.2769125002803
 30
0.0
  0
POINT
  5
683
330
679
100
AcDbEntity
  8
DEFPOINTS
 62
     0
100
AcDbPoint
 10
170.5187917142979
 20
144.0871603731301
 30
0.0
  0
ENDBLK
  5
685
330
679
100
AcDbEntity
  8
0
100
AcDbBlockEnd
  0
BLOCK
  5
68D
330
686
100
AcDbEntity
  8
0
100
AcDbBlockBegin
  2
*D18
 70
     1
 10
0.0
 20
0.0
 30
0.0
  3
*D18
  1

  0
LINE
  5
687
330
686
100
AcDbEntity
  8
0
 62
     0
370
    -2
100
AcDbLine
 10
121.80189824227
 20
101.6151605326796
 30
0.0
 11
123.0018982422701
 21
101.6151605326796
 31
0.0
  0
LINE
  5
688
330
686
100
AcDbEntity
  8
0
 62
     0
370
    -2
100
AcDbLine
 10
123.0018982422701
 20
101.6151605326796
 30
0.0
 11
131.5648689506516
 21
111.7971861484044
 31
0.0
  0
MTEXT
  5
689
330
686
100
AcDbEntity
  8
0
 62
     0
100
AcDbMText
 10
117.5452315756034
 20
101.6151605326796
 30
0.0
 40
5.0
 41
0.0
 71
     5
 72
     1
  1
\A1;R4
 73
     1
 44
1.0
  0
SOLID
  5
68A
330
686
100
AcDbEntity
  8
0
 62
     0
100
AcDbTrace
 10
131.4118025525025
 20
111.9259132930075
 30
0.0
 11
131.7179353488007
 21
111.6684590038013
 31
0.0
 12
132.3372318182702
 22
112.7155845372988
 32
0.0
 13
132.3372318182702
 23
112.7155845372988
 33
0.0
  0
POINT
  5
68B
330
686
100
AcDbEntity
  8
DEFPOINTS
 62
     0
100
AcDbPoint
 10
132.3372318182702
 20
112.7155845372988
 30
0.0
  0
POINT
  5
68C
330
686
100
AcDbEntity
  8
DEFPOINTS
 62
     0
100
AcDbPoint
 10
134.9117747103325
 20
115.7769125002803
 30
0.0
  0
ENDBLK
  5
68E
330
686
100
AcDbEntity
  8
0
100
AcDbBlockEnd
  0
BLOCK
  5
695
330
68F
100
AcDbEntity
  8
0
100
AcDbBlockBegin
  2
*D19
 70
     1
 10
0.0
 20
0.0
 30
0.0
  3
*D19
  1

  0
LINE
  5
690
330
68F
100
AcDbEntity
  8
0
 62
     0
370
    -2
100
AcDbLine
 10
112.9194801760014
 20
117.4521774065935
 30
0.0
 11
129.423250213438
 21
118.5080229741717
 31
0.0
  0
MTEXT
  5
691
330
68F
100
AcDbEntity
  8
0
 62
     0
100
AcDbMText
 10
106.5794801760014
 20
117.4521774065935
 30
0.0
 40
5.0
 41
0.0
 71
     5
 72
     1
  1
\A1;R50
 73
     1
 44
1.0
  0
SOLID
  5
692
330
68F
100
AcDbEntity
  8
0
 62
     0
100
AcDbTrace
 10
129.4104811137266
 20
118.7076149331594
 30
0.0
 11
129.4360193131493
 21
118.308431015184
 31
0.0
 12
130.6208019673644
 22
118.5846375724399
 32
0.0
 13
130.6208019673644
 23
118.5846375724399
 33
0.0
  0
POINT
  5
693
330
68F
100
AcDbEntity
  8
DEFPOINTS
 62
     0
100
AcDbPoint
 10
130.6208019673644
 20
118.5846375724399
 30
0.0
  0
POINT
  5
694
330
68F
100
AcDbEntity
  8
DEFPOINTS
 62
     0
100
AcDbPoint
 10
180.5187917142979
 20
121.7769125002807
 30
0.0
  0
ENDBLK
  5
696
330
68F
100
AcDbEntity
  8
0
100
AcDbBlockEnd
  0
BLOCK
  5
6A4
330
697
100
AcDbEntity
  8
0
100
AcDbBlockBegin
  2
*D20
 70
     1
 10
0.0
 20
0.0
 30
0.0
  3
*D20
  1

  0
LINE
  5
698
330
697
100
AcDbEntity
  8
0
 62
     0
370
    -2
100
AcDbLine
 10
153.5575300183596
 20
132.0525498560973
 30
0.0
 11
117.8558145541499
 21
142.2898520291334
 31
0.0
  0
LINE
  5
699
330
697
100
AcDbEntity
  8
0
 62
     0
370
    -2
100
AcDbLine
 10
133.9117747103324
 20
131.7769125002803
 30
0.0
 11
116.3783172575891
 21
131.7769125002803
 31
0.0
  0
ARC
  5
69A
330
697
100
AcDbEntity
  8
0
 62
     0
370
    -2
100
AcDbCircle
 10
154.5187917142979
 20
131.7769125002803
 30
0.0
 40
37.14047445670884
100
AcDbArc
 50
160.297412599818
 51
162.1487062999089
  0
ARC
  5
69B
330
697
100
AcDbEntity
  8
0
 62
     0
370
    -2
100
AcDbCircle
 10
154.5187917142979
 20
131.7769125002803
 30
0.0
 40
37.14047445670884
100
AcDbArc
 50
181.8512937000908
 51
183.7025874001818
  0
SOLID
  5
69C
330
697
100
AcDbEntity
  8
0
 62
     0
100
AcDbTrace
 10
119.3577694690887
 20
143.1040086184854
 30
0.0
 11
118.9750961236825
 21
143.2204608005845
 31
0.0
 12
118.8170762500882
 22
142.0142146733164
 32
0.0
 13
118.8170762500882
 23
142.0142146733164
 33
0.0
  0
SOLID
  5
69D
330
697
100
AcDbEntity
  8
0
 62
     0
100
AcDbTrace
 10
117.1977292162876
 20
130.5738381221395
 30
0.0
 11
117.5976770168361
 21
130.5803000751304
 31
0.0
 12
117.3783172575891
 22
131.7769125002803
 32
0.0
 13
117.3783172575891
 23
131.7769125002803
 33
0.0
  0
MTEXT
  5
69E
330
697
100
AcDbEntity
  8
0
 62
     0
100
AcDbMText
 10
117.9606888568214
 20
138.3282450617987
 30
0.0
 40
5.0
 41
0.0
 71
     5
 72
     1
  1
\A1;16°
 73
     1
 44
1.0
  0
POINT
  5
69F
330
697
100
AcDbEntity
  8
DEFPOINTS
 62
     0
100
AcDbPoint
 10
117.5391061468778
 20
135.2291144358831
 30
0.0
  0
POINT
  5
6A0
330
697
100
AcDbEntity
  8
DEFPOINTS
 62
     0
100
AcDbPoint
 10
154.5187917142979
 20
131.7769125002803
 30
0.0
  0
POINT
  5
6A1
330
697
100
AcDbEntity
  8
DEFPOINTS
 62
     0
100
AcDbPoint
 10
134.9117747103324
 20
131.7769125002803
 30
0.0
  0
POINT
  5
6A2
330
697
100
AcDbEntity
  8
DEFPOINTS
 62
     0
100
AcDbPoint
 10
154.5187917142979
 20
131.7769125002803
 30
0.0
  0
POINT
  5
6A3
330
697
100
AcDbEntity
  8
DEFPOINTS
 62
     0
100
AcDbPoint
 10
159.794429070115
 20
130.2641478315629
 30
0.0
  0
ENDBLK
  5
6A5
330
697
100
AcDbEntity
  8
0
100
AcDbBlockEnd
  0
BLOCK
  5
6AD
330
6A6
100
AcDbEntity
  8
0
100
AcDbBlockBegin
  2
*D21
 70
     1
 10
0.0
 20
0.0
 30
0.0
  3
*D21
  1

  0
LINE
  5
6A7
330
6A6
100
AcDbEntity
  8
0
 62
     0
370
    -2
100
AcDbLine
 10
170.2929536687561
 20
103.7747536583053
 30
0.0
 11
169.0929536687557
 21
103.7747536583053
 31
0.0
  0
LINE
  5
6A8
330
6A6
100
AcDbEntity
  8
0
 62
     0
370
    -2
100
AcDbLine
 10
169.0929536687557
 20
103.7747536583053
 30
0.0
 11
161.0029407316918
 21
112.6269617425082
 31
0.0
  0
MTEXT
  5
6A9
330
6A6
100
AcDbEntity
  8
0
 62
     0
100
AcDbMText
 10
173.7162870020894
 20
103.7747536583053
 30
0.0
 40
5.0
 41
0.0
 71
     5
 72
     1
  1
\A1;R1
 73
     1
 44
1.0
  0
SOLID
  5
6AA
330
6A6
100
AcDbEntity
  8
0
 62
     0
100
AcDbTrace
 10
161.1505750155489
 20
112.7618843804531
 30
0.0
 11
160.8553064478348
 21
112.4920391045633
 31
0.0
 12
160.1934049040225
 22
113.5127674456506
 32
0.0
 13
160.1934049040225
 23
113.5127674456506
 33
0.0
  0
POINT
  5
6AB
330
6A6
100
AcDbEntity
  8
DEFPOINTS
 62
     0
100
AcDbPoint
 10
160.1934049040225
 20
113.5127674456506
 30
0.0
  0
POINT
  5
6AC
330
6A6
100
AcDbEntity
  8
DEFPOINTS
 62
     0
100
AcDbPoint
 10
159.518791714298
 20
114.2509388649359
 30
0.0
  0
ENDBLK
  5
6AE
330
6A6
100
AcDbEntity
  8
0
100
AcDbBlockEnd
  0
BLOCK
  5
6BA
330
6AF
100
AcDbEntity
  8
0
100
AcDbBlockBegin
  2
*D22
 70
     1
 10
0.0
 20
0.0
 30
0.0
  3
*D22
  1

  0
LINE
  5
6B0
330
6AF
100
AcDbEntity
  8
0
 62
     0
370
    -2
100
AcDbLine
 10
170.5187917142979
 20
129.2769125002803
 30
0.0
 11
170.5187917142979
 21
137.705837109538
 31
0.0
  0
LINE
  5
6B1
330
6AF
100
AcDbEntity
  8
0
 62
     0
370
    -2
100
AcDbLine
 10
170.2187917142978
 20
130.2824659997454
 30
0.0
 11
170.2187917142978
 21
137.705837109538
 31
0.0
  0
LINE
  5
6B2
330
6AF
100
AcDbEntity
  8
0
 62
     0
370
    -2
100
AcDbLine
 10
169.0187917142979
 20
136.705837109538
 30
0.0
 11
167.8187917142978
 21
136.705837109538
 31
0.0
  0
LINE
  5
6B3
330
6AF
100
AcDbEntity
  8
0
 62
     0
370
    -2
100
AcDbLine
 10
171.7187917142979
 20
136.705837109538
 30
0.0
 11
185.1852035035519
 21
136.705837109538
 31
0.0
  0
SOLID
  5
6B4
330
6AF
100
AcDbEntity
  8
0
 62
     0
100
AcDbTrace
 10
169.0187917142979
 20
136.905837109538
 30
0.0
 11
169.0187917142979
 21
136.505837109538
 31
0.0
 12
170.2187917142978
 22
136.705837109538
 32
0.0
 13
170.2187917142978
 23
136.705837109538
 33
0.0
  0
SOLID
  5
6B5
330
6AF
100
AcDbEntity
  8
0
 62
     0
100
AcDbTrace
 10
171.7187917142979
 20
136.905837109538
 30
0.0
 11
171.7187917142979
 21
136.505837109538
 31
0.0
 12
170.5187917142979
 22
136.705837109538
 32
0.0
 13
170.5187917142979
 23
136.705837109538
 33
0.0
  0
MTEXT
  5
6B6
330
6AF
100
AcDbEntity
  8
0
 62
     0
100
AcDbMText
 10
189.8585368368852
 20
136.705837109538
 30
0.0
 40
5.0
 41
0.0
 71
     5
 72
     1
  1
\A1;0.3
 73
     1
 44
1.0
  0
POINT
  5
6B7
330
6AF
100
AcDbEntity
  8
DEFPOINTS
 62
     0
100
AcDbPoint
 10
170.5187917142979
 20
128.2769125002803
 30
0.0
  0
POINT
  5
6B8
330
6AF
100
AcDbEntity
  8
DEFPOINTS
 62
     0
100
AcDbPoint
 10
170.2187917142978
 20
129.2824659997454
 30
0.0
  0
POINT
  5
6B9
330
6AF
100
AcDbEntity
  8
DEFPOINTS
 62
     0
100
AcDbPoint
 10
170.2187917142978
 20
136.705837109538
 30
0.0
  0
ENDBLK
  5
6BB
330
6AF
100
AcDbEntity
  8
0
100
AcDbBlockEnd
  0
BLOCK
  5
6C7
330
6BC
100
AcDbEntity
  8
0
100
AcDbBlockBegin
  2
*D23
 70
     1
 10
0.0
 20
0.0
 30
0.0
  3
*D23
  1

  0
LINE
  5
6BD
330
6BC
100
AcDbEntity
  8
0
 62
     0
370
    -2
100
AcDbLine
 10
160.8187917142978
 20
130.2824659997453
 30
0.0
 11
160.8187917142978
 21
142.2637726880024
 31
0.0
  0
LINE
  5
6BE
330
6BC
100
AcDbEntity
  8
0
 62
     0
370
    -2
100
AcDbLine
 10
160.518791714298
 20
130.3028861356247
 30
0.0
 11
160.518791714298
 21
142.2637726880024
 31
0.0
  0
LINE
  5
6BF
330
6BC
100
AcDbEntity
  8
0
 62
     0
370
    -2
100
AcDbLine
 10
162.0187917142978
 20
141.2637726880024
 30
0.0
 11
163.2187917142978
 21
141.2637726880024
 31
0.0
  0
LINE
  5
6C0
330
6BC
100
AcDbEntity
  8
0
 62
     0
370
    -2
100
AcDbLine
 10
159.318791714298
 20
141.2637726880024
 30
0.0
 11
150.3986715940546
 21
141.2637726880024
 31
0.0
  0
SOLID
  5
6C1
330
6BC
100
AcDbEntity
  8
0
 62
     0
100
AcDbTrace
 10
162.0187917142978
 20
141.4637726880023
 30
0.0
 11
162.0187917142978
 21
141.0637726880024
 31
0.0
 12
160.8187917142978
 22
141.2637726880024
 32
0.0
 13
160.8187917142978
 23
141.2637726880024
 33
0.0
  0
SOLID
  5
6C2
330
6BC
100
AcDbEntity
  8
0
 62
     0
100
AcDbTrace
 10
159.318791714298
 20
141.4637726880023
 30
0.0
 11
159.318791714298
 21
141.0637726880024
 31
0.0
 12
160.518791714298
 22
141.2637726880024
 32
0.0
 13
160.518791714298
 23
141.2637726880024
 33
0.0
  0
MTEXT
  5
6C3
330
6BC
100
AcDbEntity
  8
0
 62
     0
100
AcDbMText
 10
145.7253382607212
 20
141.2637726880024
 30
0.0
 40
5.0
 41
0.0
 71
     5
 72
     1
  1
\A1;0.3
 73
     1
 44
1.0
  0
POINT
  5
6C4
330
6BC
100
AcDbEntity
  8
DEFPOINTS
 62
     0
100
AcDbPoint
 10
160.8187917142978
 20
129.2824659997453
 30
0.0
  0
POINT
  5
6C5
330
6BC
100
AcDbEntity
  8
DEFPOINTS
 62
     0
100
AcDbPoint
 10
160.518791714298
 20
129.3028861356247
 30
0.0
  0
POINT
  5
6C6
330
6BC
100
AcDbEntity
  8
DEFPOINTS
 62
     0
100
AcDbPoint
 10
160.518791714298
 20
141.2637726880024
 30
0.0
  0
ENDBLK
  5
6C8
330
6BC
100
AcDbEntity
  8
0
100
AcDbBlockEnd
  0
BLOCK
  5
6D0
330
6C9
100
AcDbEntity
  8
0
100
AcDbBlockBegin
  2
*D24
 70
     1
 10
0.0
 20
0.0
 30
0.0
  3
*D24
  1

  0
LINE
  5
6CA
330
6C9
100
AcDbEntity
  8
0
 62
     0
370
    -2
100
AcDbLine
 10
255.9935089936084
 20
139.0481095918387
 30
0.0
 11
254.7935089936081
 21
139.0481095918387
 31
0.0
  0
LINE
  5
6CB
330
6C9
100
AcDbEntity
  8
0
 62
     0
370
    -2
100
AcDbLine
 10
254.7935089936081
 20
139.0481095918387
 30
0.0
 11
242.2218526190862
 21
127.8853703743642
 31
0.0
  0
MTEXT
  5
6CC
330
6C9
100
AcDbEntity
  8
0
 62
     0
100
AcDbMText
 10
261.9168423269417
 20
139.0481095918387
 30
0.0
 40
5.0
 41
0.0
 71
     5
 72
     1
  1
\A1;\U+220516
 73
     1
 44
1.0
  0
SOLID
  5
6CD
330
6C9
100
AcDbEntity
  8
0
 62
     0
100
AcDbTrace
 10
242.0890600566061
 20
128.0349234931881
 30
0.0
 11
242.3546451815663
 21
127.7358172555402
 31
0.0
 12
241.3245339061425
 22
127.0886149994837
 32
0.0
 13
241.3245339061425
 23
127.0886149994837
 33
0.0
  0
POINT
  5
6CE
330
6C9
100
AcDbEntity
  8
DEFPOINTS
 62
     0
100
AcDbPoint
 10
241.3245339061425
 20
127.0886149994837
 30
0.0
  0
POINT
  5
6CF
330
6C9
100
AcDbEntity
  8
DEFPOINTS
 62
     0
100
AcDbPoint
 10
229.3602844002257
 20
116.465210001077
 30
0.0
  0
ENDBLK
  5
6D1
330
6C9
100
AcDbEntity
  8
0
100
AcDbBlockEnd
  0
BLOCK
  5
6D9
330
6D2
100
AcDbEntity
  8
0
100
AcDbBlockBegin
  2
*D25
 70
     1
 10
0.0
 20
0.0
 30
0.0
  3
*D25
  1

  0
LINE
  5
6D3
330
6D2
100
AcDbEntity
  8
0
 62
     0
370
    -2
100
AcDbLine
 10
60.58721606869679
 20
144.0871603731302
 30
0.0
 11
61.78721606869679
 21
144.0871603731302
 31
0.0
  0
LINE
  5
6D4
330
6D2
100
AcDbEntity
  8
0
 62
     0
370
    -2
100
AcDbLine
 10
61.78721606869679
 20
144.0871603731302
 30
0.0
 11
70.62182643502797
 21
131.0488689196565
 31
0.0
  0
MTEXT
  5
6D5
330
6D2
100
AcDbEntity
  8
0
 62
     0
100
AcDbMText
 10
54.24721606869679
 20
144.0871603731302
 30
0.0
 40
5.0
 41
0.0
 71
     5
 72
     1
  1
\A1;\U+220520
 73
     1
 44
1.0
  0
SOLID
  5
6D6
330
6D2
100
AcDbEntity
  8
0
 62
     0
100
AcDbTrace
 10
70.78739708537395
 20
131.1610578662778
 30
0.0
 11
70.45625578468196
 21
130.9366799730352
 31
0.0
 12
71.29496011475589
 22
130.0554450175805
 32
0.0
 13
71.29496011475589
 23
130.0554450175805
 33
0.0
  0
POINT
  5
6D7
330
6D2
100
AcDbEntity
  8
DEFPOINTS
 62
     0
100
AcDbPoint
 10
71.29496011475589
 20
130.0554450175805
 30
0.0
  0
POINT
  5
6D8
330
6D2
100
AcDbEntity
  8
DEFPOINTS
 62
     0
100
AcDbPoint
 10
82.51385477688797
 20
113.4983799829802
 30
0.0
  0
ENDBLK
  5
6DA
330
6D2
100
AcDbEntity
  8
0
100
AcDbBlockEnd
  0
BLOCK
  5
6E6
330
6DB
100
AcDbEntity
  8
0
100
AcDbBlockBegin
  2
*D26
 70
     1
 10
0.0
 20
0.0
 30
0.0
  3
*D26
  1

  0
LINE
  5
6DC
330
6DB
100
AcDbEntity
  8
0
 62
     0
370
    -2
100
AcDbLine
 10
154.5187917142979
 20
110.7769125002803
 30
0.0
 11
154.5187917142979
 21
91.2921925111957
 31
0.0
  0
LINE
  5
6DD
330
6DB
100
AcDbEntity
  8
0
 62
     0
370
    -2
100
AcDbLine
 10
134.9117747103324
 20
110.7769125002803
 30
0.0
 11
134.9117747103324
 21
91.2921925111957
 31
0.0
  0
LINE
  5
6DE
330
6DB
100
AcDbEntity
  8
0
 62
     0
370
    -2
100
AcDbLine
 10
153.3187917142979
 20
92.29219251119571
 30
0.0
 11
136.1117747103324
 21
92.29219251119571
 31
0.0
  0
LINE
  5
6DF
330
6DB
100
AcDbEntity
  8
0
 62
     0
370
    -2
100
AcDbLine
 10
134.9117747103324
 20
92.29219251119571
 30
0.0
 11
124.2222980618181
 21
92.29219251119571
 31
0.0
  0
SOLID
  5
6E0
330
6DB
100
AcDbEntity
  8
0
 62
     0
100
AcDbTrace
 10
153.3187917142979
 20
92.49219251119571
 30
0.0
 11
153.3187917142979
 21
92.0921925111957
 31
0.0
 12
154.5187917142979
 22
92.29219251119571
 32
0.0
 13
154.5187917142979
 23
92.29219251119571
 33
0.0
  0
SOLID
  5
6E1
330
6DB
100
AcDbEntity
  8
0
 62
     0
100
AcDbTrace
 10
136.1117747103324
 20
92.49219251119571
 30
0.0
 11
136.1117747103324
 21
92.0921925111957
 31
0.0
 12
134.9117747103324
 22
92.29219251119571
 32
0.0
 13
134.9117747103324
 23
92.29219251119571
 33
0.0
  0
MTEXT
  5
6E2
330
6DB
100
AcDbEntity
  8
0
 62
     0
100
AcDbMText
 10
115.7989647284848
 20
92.29219251119571
 30
0.0
 40
5.0
 41
0.0
 71
     5
 72
     1
  1
\A1;19.61
 73
     1
 44
1.0
  0
POINT
  5
6E3
330
6DB
100
AcDbEntity
  8
DEFPOINTS
 62
     0
100
AcDbPoint
 10
154.5187917142979
 20
111.7769125002803
 30
0.0
  0
POINT
  5
6E4
330
6DB
100
AcDbEntity
  8
DEFPOINTS
 62
     0
100
AcDbPoint
 10
134.9117747103324
 20
111.7769125002803
 30
0.0
  0
POINT
  5
6E5
330
6DB
100
AcDbEntity
  8
DEFPOINTS
 62
     0
100
AcDbPoint
 10
134.9117747103324
 20
92.29219251119571
 30
0.0
  0
ENDBLK
  5
6E7
330
6DB
100
AcDbEntity
  8
0
100
AcDbBlockEnd
  0
BLOCK
  5
7ED
330
7E3
100
AcDbEntity
  8
0
100
AcDbBlockBegin
  2
*D28
 70
     1
 10
0.0
 20
0.0
 30
0.0
  3
*D28
  1

  0
LINE
  5
859
330
7E3
100
AcDbEntity
  8
0
 62
     0
370
    -2
100
AcDbLine
 10
120.6798701510871
 20
74.49802090861275
 30
0.0
 11
120.6798701510871
 21
55.01330091952815
 31
0.0
  0
LINE
  5
85A
330
7E3
100
AcDbEntity
  8
0
 62
     0
370
    -2
100
AcDbLine
 10
101.0728531471216
 20
74.49802090861275
 30
0.0
 11
101.0728531471216
 21
55.01330091952815
 31
0.0
  0
LINE
  5
85B
330
7E3
100
AcDbEntity
  8
0
 62
     0
370
    -2
100
AcDbLine
 10
119.4798701510871
 20
56.01330091952815
 30
0.0
 11
102.2728531471216
 21
56.01330091952815
 31
0.0
  0
MTEXT
  5
85C
330
7E3
100
AcDbEntity
  8
0
 62
     0
100
AcDbMText
 10
81.96004316527405
 20
56.01330091952815
 30
0.0
 40
5.0
 41
0.0
 71
     5
 72
     1
  1
\A1;19.61
  7
BIGFONT
 73
     1
 44
1.0
  0
SOLID
  5
85D
330
7E3
100
AcDbEntity
  8
0
 62
     0
100
AcDbTrace
 10
119.4798701510871
 20
56.21330091952815
 30
0.0
 11
119.4798701510871
 21
55.81330091952814
 31
0.0
 12
120.6798701510871
 22
56.01330091952815
 32
0.0
 13
120.6798701510871
 23
56.01330091952815
 33
0.0
  0
SOLID
  5
85E
330
7E3
100
AcDbEntity
  8
0
 62
     0
100
AcDbTrace
 10
102.2728531471216
 20
56.21330091952815
 30
0.0
 11
102.2728531471216
 21
55.81330091952814
 31
0.0
 12
101.0728531471216
 22
56.01330091952815
 32
0.0
 13
101.0728531471216
 23
56.01330091952815
 33
0.0
  0
POINT
  5
85F
330
7E3
100
AcDbEntity
  8
DEFPOINTS
 62
     0
100
AcDbPoint
 10
120.6798701510871
 20
75.49802090861276
 30
0.0
  0
POINT
  5
860
330
7E3
100
AcDbEntity
  8
DEFPOINTS
 62
     0
100
AcDbPoint
 10
101.0728531471216
 20
75.49802090861276
 30
0.0
  0
POINT
  5
861
330
7E3
100
AcDbEntity
  8
DEFPOINTS
 62
     0
100
AcDbPoint
 10
101.0728531471216
 20
56.01330091952815
 30
0.0
  0
ENDBLK
  5
7EE
330
7E3
100
AcDbEntity
  8
0
100
AcDbBlockEnd
  0
BLOCK
  5
7FA
330
7EF
100
AcDbEntity
  8
0
100
AcDbBlockBegin
  2
*D29
 70
     1
 10
0.0
 20
0.0
 30
0.0
  3
*D29
  1

  0
LINE
  5
86C
330
7EF
100
AcDbEntity
  8
0
 62
     0
370
    -2
100
AcDbLine
 10
126.979870151087
 20
94.00357440807779
 30
0.0
 11
126.979870151087
 21
105.9848810963348
 31
0.0
  0
LINE
  5
86D
330
7EF
100
AcDbEntity
  8
0
 62
     0
370
    -2
100
AcDbLine
 10
126.6798701510871
 20
94.02399454395714
 30
0.0
 11
126.6798701510871
 21
105.9848810963348
 31
0.0
  0
LINE
  5
86E
330
7EF
100
AcDbEntity
  8
0
 62
     0
370
    -2
100
AcDbLine
 10
128.179870151087
 20
104.9848810963348
 30
0.0
 11
129.379870151087
 21
104.9848810963348
 31
0.0
  0
LINE
  5
86F
330
7EF
100
AcDbEntity
  8
0
 62
     0
370
    -2
100
AcDbLine
 10
125.4798701510871
 20
104.9848810963348
 30
0.0
 11
124.2798701510871
 21
104.9848810963348
 31
0.0
  0
MTEXT
  5
870
330
7EF
100
AcDbEntity
  8
0
 62
     0
100
AcDbMText
 10
111.8864166975104
 20
104.9848810963348
 30
0.0
 40
5.0
 41
0.0
 71
     5
 72
     1
  1
\A1;0.3
  7
BIGFONT
 73
     1
 44
1.0
  0
SOLID
  5
871
330
7EF
100
AcDbEntity
  8
0
 62
     0
100
AcDbTrace
 10
128.179870151087
 20
105.1848810963348
 30
0.0
 11
128.179870151087
 21
104.7848810963348
 31
0.0
 12
126.979870151087
 22
104.9848810963348
 32
0.0
 13
126.979870151087
 23
104.9848810963348
 33
0.0
  0
SOLID
  5
872
330
7EF
100
AcDbEntity
  8
0
 62
     0
100
AcDbTrace
 10
125.4798701510871
 20
105.1848810963348
 30
0.0
 11
125.4798701510871
 21
104.7848810963348
 31
0.0
 12
126.6798701510871
 22
104.9848810963348
 32
0.0
 13
126.6798701510871
 23
104.9848810963348
 33
0.0
  0
POINT
  5
873
330
7EF
100
AcDbEntity
  8
DEFPOINTS
 62
     0
100
AcDbPoint
 10
126.979870151087
 20
93.00357440807777
 30
0.0
  0
POINT
  5
874
330
7EF
100
AcDbEntity
  8
DEFPOINTS
 62
     0
100
AcDbPoint
 10
126.6798701510871
 20
93.02399454395715
 30
0.0
  0
POINT
  5
875
330
7EF
100
AcDbEntity
  8
DEFPOINTS
 62
     0
100
AcDbPoint
 10
126.6798701510871
 20
104.9848810963348
 30
0.0
  0
ENDBLK
  5
7FB
330
7EF
100
AcDbEntity
  8
0
100
AcDbBlockEnd
  0
BLOCK
  5
80A
330
7FC
100
AcDbEntity
  8
0
100
AcDbBlockBegin
  2
*D30
 70
     1
 10
0.0
 20
0.0
 30
0.0
  3
*D30
  1

  0
LINE
  5
883
330
7FC
100
AcDbEntity
  8
0
 62
     0
370
    -2
100
AcDbLine
 10
119.7186084551488
 20
95.77365826442976
 30
0.0
 11
84.01689299093908
 21
106.0109604374655
 31
0.0
  0
LINE
  5
884
330
7FC
100
AcDbEntity
  8
0
 62
     0
370
    -2
100
AcDbLine
 10
100.0728531471216
 20
95.49802090861275
 30
0.0
 11
82.53939569437834
 21
95.49802090861275
 31
0.0
  0
ARC
  5
885
330
7FC
100
AcDbEntity
  8
0
 62
     0
370
    -2
100
AcDbCircle
 10
120.6798701510871
 20
95.49802090861275
 30
0.0
 40
37.14047445670881
100
AcDbArc
 50
160.2974125998184
 51
162.1487062999093
  0
ARC
  5
886
330
7FC
100
AcDbEntity
  8
0
 62
     0
370
    -2
100
AcDbCircle
 10
120.6798701510871
 20
95.49802090861275
 30
0.0
 40
37.14047445670881
100
AcDbArc
 50
181.8512937000908
 51
183.7025874001818
  0
ARC
  5
887
330
7FC
100
AcDbEntity
  8
0
 62
     0
370
    -2
100
AcDbCircle
 10
120.6798701510871
 20
95.49802090861275
 30
0.0
 40
37.14047445670881
100
AcDbArc
 50
164.0000000000003
 51
180.0
  0
SOLID
  5
888
330
7FC
100
AcDbEntity
  8
0
 62
     0
100
AcDbTrace
 10
85.51884790587786
 20
106.8251170268175
 30
0.0
 11
85.13617456047169
 21
106.9415692089166
 31
0.0
 12
84.97815468687738
 22
105.7353230816485
 32
0.0
 13
84.97815468687738
 23
105.7353230816485
 33
0.0
  0
SOLID
  5
889
330
7FC
100
AcDbEntity
  8
0
 62
     0
100
AcDbTrace
 10
83.3588076530769
 20
94.29494653047196
 30
0.0
 11
83.75875545362536
 21
94.30140848346287
 31
0.0
 12
83.53939569437835
 22
95.49802090861277
 32
0.0
 13
83.53939569437835
 23
95.49802090861277
 33
0.0
  0
MTEXT
  5
88A
330
7FC
100
AcDbEntity
  8
0
 62
     0
100
AcDbMText
 10
84.12176729361069
 20
102.0493534701312
 30
0.0
 40
5.0
 41
0.0
 71
     5
 72
     1
  1
\A1;16°
  7
BIGFONT
 73
     1
 44
1.0
  0
POINT
  5
88B
330
7FC
100
AcDbEntity
  8
DEFPOINTS
 62
     0
100
AcDbPoint
 10
83.70018458366702
 20
98.95022284421543
 30
0.0
  0
POINT
  5
88C
330
7FC
100
AcDbEntity
  8
DEFPOINTS
 62
     0
100
AcDbPoint
 10
120.6798701510871
 20
95.49802090861275
 30
0.0
  0
POINT
  5
88D
330
7FC
100
AcDbEntity
  8
DEFPOINTS
 62
     0
100
AcDbPoint
 10
101.0728531471216
 20
95.49802090861277
 30
0.0
  0
POINT
  5
88E
330
7FC
100
AcDbEntity
  8
DEFPOINTS
 62
     0
100
AcDbPoint
 10
120.6798701510871
 20
95.49802090861275
 30
0.0
  0
POINT
  5
88F
330
7FC
100
AcDbEntity
  8
DEFPOINTS
 62
     0
100
AcDbPoint
 10
125.9555075069041
 20
93.98525623989547
 30
0.0
  0
ENDBLK
  5
80B
330
7FC
100
AcDbEntity
  8
0
100
AcDbBlockEnd
  0
BLOCK
  5
812
330
80C
100
AcDbEntity
  8
0
100
AcDbBlockBegin
  2
*D31
 70
     1
 10
0.0
 20
0.0
 30
0.0
  3
*D31
  1

  0
LINE
  5
895
330
80C
100
AcDbEntity
  8
0
 62
     0
370
    -2
100
AcDbLine
 10
146.6798701510871
 20
85.49802090861318
 30
0.0
 11
97.97943215807999
 21
82.38236057904057
 31
0.0
  0
MTEXT
  5
896
330
80C
100
AcDbEntity
  8
0
 62
     0
100
AcDbMText
 10
79.08055861279059
 20
81.173285814926
 30
0.0
 40
5.0
 41
0.0
 71
     5
 72
     1
  1
\A1;R50
  7
BIGFONT
 11
0.9979597949386697
 21
0.0638454985568157
 31
0.0
 73
     1
 44
1.0
  0
SOLID
  5
897
330
80C
100
AcDbEntity
  8
0
 62
     0
100
AcDbTrace
 10
97.96666305836863
 20
82.5819525380283
 30
0.0
 11
97.99220125779136
 21
82.18276862005282
 31
0.0
 12
96.78188040415358
 22
82.30574598077238
 32
0.0
 13
96.78188040415358
 23
82.30574598077238
 33
0.0
  0
POINT
  5
898
330
80C
100
AcDbEntity
  8
DEFPOINTS
 62
     0
100
AcDbPoint
 10
96.78188040415358
 20
82.30574598077238
 30
0.0
  0
POINT
  5
899
330
80C
100
AcDbEntity
  8
DEFPOINTS
 62
     0
100
AcDbPoint
 10
146.6798701510871
 20
85.49802090861318
 30
0.0
  0
ENDBLK
  5
813
330
80C
100
AcDbEntity
  8
0
100
AcDbBlockEnd
  0
BLOCK
  5
81B
330
814
100
AcDbEntity
  8
0
100
AcDbBlockBegin
  2
*D32
 70
     1
 10
0.0
 20
0.0
 30
0.0
  3
*D32
  1

  0
LINE
  5
8A0
330
814
100
AcDbEntity
  8
0
 62
     0
370
    -2
100
AcDbLine
 10
48.00179953394922
 20
78.21291229338871
 30
0.0
 11
38.12917223127301
 21
92.78312952383695
 31
0.0
  0
MTEXT
  5
8A1
330
814
100
AcDbEntity
  8
0
 62
     0
100
AcDbMText
 10
20.40829450548597
 20
107.8082687814626
 30
0.0
 40
5.0
 41
0.0
 71
     5
 72
     1
  1
\A1;\U+220520
  7
BIGFONT
 11
0.5609447331066047
 21
-0.8278532517300154
 31
0.0
 73
     1
 44
1.0
  0
SOLID
  5
8A2
330
814
100
AcDbEntity
  8
0
 62
     0
100
AcDbTrace
 10
48.16737018429522
 20
78.32510124001004
 30
0.0
 11
47.83622888360321
 21
78.10072334676739
 31
0.0
 12
48.67493321367715
 22
77.21948839131269
 32
0.0
 13
48.67493321367715
 23
77.21948839131269
 33
0.0
  0
SOLID
  5
8A3
330
814
100
AcDbEntity
  8
0
 62
     0
100
AcDbTrace
 10
38.294742881619
 20
92.89531847045827
 30
0.0
 11
37.96360158092699
 21
92.67094057721562
 31
0.0
 12
37.45603855154508
 22
93.77655342591296
 32
0.0
 13
37.45603855154508
 23
93.77655342591296
 33
0.0
  0
POINT
  5
8A4
330
814
100
AcDbEntity
  8
DEFPOINTS
 62
     0
100
AcDbPoint
 10
37.45603855154508
 20
93.77655342591296
 30
0.0
  0
POINT
  5
8A5
330
814
100
AcDbEntity
  8
DEFPOINTS
 62
     0
100
AcDbPoint
 10
48.67493321367715
 20
77.21948839131269
 30
0.0
  0
ENDBLK
  5
81C
330
814
100
AcDbEntity
  8
0
100
AcDbBlockEnd
  0
BLOCK
  5
823
330
81D
100
AcDbEntity
  8
0
100
AcDbBlockBegin
  2
*D33
 70
     1
 10
0.0
 20
0.0
 30
0.0
  3
*D33
  1

  0
LINE
  5
8AB
330
81D
100
AcDbEntity
  8
0
 62
     0
370
    -2
100
AcDbLine
 10
101.0728531471216
 20
79.4980209086128
 30
0.0
 11
99.27067312267812
 21
77.35509133452575
 31
0.0
  0
MTEXT
  5
8AC
330
81D
100
AcDbEntity
  8
0
 62
     0
100
AcDbMText
 10
83.7063100123926
 20
65.33626894101209
 30
0.0
 40
5.0
 41
0.0
 71
     5
 72
     1
  1
\A1;R4
  7
BIGFONT
 11
0.6436357230155455
 21
0.7653319907453602
 31
0.0
 73
     1
 44
1.0
  0
SOLID
  5
8AD
330
81D
100
AcDbEntity
  8
0
 62
     0
100
AcDbTrace
 10
99.11760672452905
 20
77.48381847912885
 30
0.0
 11
99.42373952082718
 21
77.22636418992263
 31
0.0
 12
98.49831025505947
 22
76.43669294563131
 32
0.0
 13
98.49831025505947
 23
76.43669294563131
 33
0.0
  0
POINT
  5
8AE
330
81D
100
AcDbEntity
  8
DEFPOINTS
 62
     0
100
AcDbPoint
 10
98.49831025505947
 20
76.43669294563131
 30
0.0
  0
POINT
  5
8AF
330
81D
100
AcDbEntity
  8
DEFPOINTS
 62
     0
100
AcDbPoint
 10
101.0728531471216
 20
79.4980209086128
 30
0.0
  0
ENDBLK
  5
824
330
81D
100
AcDbEntity
  8
0
100
AcDbBlockEnd
  0
BLOCK
  5
82C
330
825
100
AcDbEntity
  8
0
100
AcDbBlockBegin
  2
*D34
 70
     1
 10
0.0
 20
0.0
 30
0.0
  3
*D34
  1

  0
LINE
  5
8B6
330
825
100
AcDbEntity
  8
0
 62
     0
370
    -2
100
AcDbLine
 10
196.4186815499586
 20
80.98307378428996
 30
0.0
 11
206.5882936299879
 21
90.01296803293564
 31
0.0
  0
MTEXT
  5
8B7
330
825
100
AcDbEntity
  8
0
 62
     0
100
AcDbMText
 10
228.0779207637309
 20
102.7692180001712
 30
0.0
 40
5.0
 41
0.0
 71
     5
 72
     1
  1
\A1;\U+220516
  7
BIGFONT
 11
0.7477655941197955
 21
0.6639628124004156
 31
0.0
 73
     1
 44
1.0
  0
SOLID
  5
8B8
330
825
100
AcDbEntity
  8
0
 62
     0
100
AcDbTrace
 10
196.2858889874785
 20
81.13262690311392
 30
0.0
 11
196.5514741124387
 21
80.833520665466
 31
0.0
 12
195.5213628370149
 22
80.18631840940946
 32
0.0
 13
195.5213628370149
 23
80.18631840940946
 33
0.0
  0
SOLID
  5
8B9
330
825
100
AcDbEntity
  8
0
 62
     0
100
AcDbTrace
 10
206.4555010675078
 20
90.1625211517596
 30
0.0
 11
206.721086192468
 21
89.86341491411167
 31
0.0
 12
207.4856123429317
 22
90.80972340781613
 32
0.0
 13
207.4856123429317
 23
90.80972340781613
 33
0.0
  0
POINT
  5
8BA
330
825
100
AcDbEntity
  8
DEFPOINTS
 62
     0
100
AcDbPoint
 10
207.4856123429317
 20
90.80972340781613
 30
0.0
  0
POINT
  5
8BB
330
825
100
AcDbEntity
  8
DEFPOINTS
 62
     0
100
AcDbPoint
 10
195.5213628370149
 20
80.18631840940946
 30
0.0
  0
ENDBLK
  5
82D
330
825
100
AcDbEntity
  8
0
100
AcDbBlockEnd
  0
BLOCK
  5
839
330
82E
100
AcDbEntity
  8
0
100
AcDbBlockBegin
  2
*D35
 70
     1
 10
0.0
 20
0.0
 30
0.0
  3
*D35
  1

  0
LINE
  5
8C6
330
82E
100
AcDbEntity
  8
0
 62
     0
370
    -2
100
AcDbLine
 10
136.6798701510871
 20
92.99802090861277
 30
0.0
 11
136.6798701510871
 21
101.4269455178704
 31
0.0
  0
LINE
  5
8C7
330
82E
100
AcDbEntity
  8
0
 62
     0
370
    -2
100
AcDbLine
 10
136.379870151087
 20
94.00357440807789
 30
0.0
 11
136.379870151087
 21
101.4269455178704
 31
0.0
  0
LINE
  5
8C8
330
82E
100
AcDbEntity
  8
0
 62
     0
370
    -2
100
AcDbLine
 10
137.879870151087
 20
100.4269455178704
 30
0.0
 11
139.0798701510871
 21
100.4269455178704
 31
0.0
  0
LINE
  5
8C9
330
82E
100
AcDbEntity
  8
0
 62
     0
370
    -2
100
AcDbLine
 10
135.179870151087
 20
100.4269455178704
 30
0.0
 11
133.979870151087
 21
100.4269455178704
 31
0.0
  0
MTEXT
  5
8CA
330
82E
100
AcDbEntity
  8
0
 62
     0
100
AcDbMText
 10
156.0196152736744
 20
100.4269455178704
 30
0.0
 40
5.0
 41
0.0
 71
     5
 72
     1
  1
\A1;0.3
  7
BIGFONT
 73
     1
 44
1.0
  0
SOLID
  5
8CB
330
82E
100
AcDbEntity
  8
0
 62
     0
100
AcDbTrace
 10
137.879870151087
 20
100.6269455178704
 30
0.0
 11
137.879870151087
 21
100.2269455178704
 31
0.0
 12
136.6798701510871
 22
100.4269455178704
 32
0.0
 13
136.6798701510871
 23
100.4269455178704
 33
0.0
  0
SOLID
  5
8CC
330
82E
100
AcDbEntity
  8
0
 62
     0
100
AcDbTrace
 10
135.179870151087
 20
100.6269455178704
 30
0.0
 11
135.179870151087
 21
100.2269455178704
 31
0.0
 12
136.379870151087
 22
100.4269455178704
 32
0.0
 13
136.379870151087
 23
100.4269455178704
 33
0.0
  0
POINT
  5
8CD
330
82E
100
AcDbEntity
  8
DEFPOINTS
 62
     0
100
AcDbPoint
 10
136.6798701510871
 20
91.99802090861277
 30
0.0
  0
POINT
  5
8CE
330
82E
100
AcDbEntity
  8
DEFPOINTS
 62
     0
100
AcDbPoint
 10
136.379870151087
 20
93.0035744080779
 30
0.0
  0
POINT
  5
8CF
330
82E
100
AcDbEntity
  8
DEFPOINTS
 62
     0
100
AcDbPoint
 10
136.379870151087
 20
100.4269455178704
 30
0.0
  0
ENDBLK
  5
83A
330
82E
100
AcDbEntity
  8
0
100
AcDbBlockEnd
  0
BLOCK
  5
846
330
83B
100
AcDbEntity
  8
0
100
AcDbBlockBegin
  2
*D36
 70
     1
 10
0.0
 20
0.0
 30
0.0
  3
*D36
  1

  0
LINE
  5
8DA
330
83B
100
AcDbEntity
  8
0
 62
     0
370
    -2
100
AcDbLine
 10
146.6798701510871
 20
89.99802090861278
 30
0.0
 11
146.6798701510871
 21
108.8082687814625
 31
0.0
  0
LINE
  5
8DB
330
83B
100
AcDbEntity
  8
0
 62
     0
370
    -2
100
AcDbLine
 10
136.6798701510871
 20
92.99802090861277
 30
0.0
 11
136.6798701510871
 21
108.8082687814625
 31
0.0
  0
LINE
  5
8DC
330
83B
100
AcDbEntity
  8
0
 62
     0
370
    -2
100
AcDbLine
 10
145.4798701510871
 20
107.8082687814625
 30
0.0
 11
144.7422528910688
 21
107.8082687814625
 31
0.0
  0
LINE
  5
8DD
330
83B
100
AcDbEntity
  8
0
 62
     0
370
    -2
100
AcDbLine
 10
137.879870151087
 20
107.8082687814625
 30
0.0
 11
138.7289195577355
 21
107.8082687814625
 31
0.0
  0
MTEXT
  5
8DE
330
83B
100
AcDbEntity
  8
0
 62
     0
100
AcDbMText
 10
141.7355862244022
 20
107.8082687814625
 30
0.0
 40
5.0
 41
0.0
 71
     5
 72
     1
  1
\A1;10
  7
BIGFONT
 73
     1
 44
1.0
  0
SOLID
  5
8DF
330
83B
100
AcDbEntity
  8
0
 62
     0
100
AcDbTrace
 10
145.4798701510871
 20
108.0082687814625
 30
0.0
 11
145.4798701510871
 21
107.6082687814625
 31
0.0
 12
146.6798701510871
 22
107.8082687814625
 32
0.0
 13
146.6798701510871
 23
107.8082687814625
 33
0.0
  0
SOLID
  5
8E0
330
83B
100
AcDbEntity
  8
0
 62
     0
100
AcDbTrace
 10
137.879870151087
 20
108.0082687814625
 30
0.0
 11
137.879870151087
 21
107.6082687814625
 31
0.0
 12
136.6798701510871
 22
107.8082687814625
 32
0.0
 13
136.6798701510871
 23
107.8082687814625
 33
0.0
  0
POINT
  5
8E1
330
83B
100
AcDbEntity
  8
DEFPOINTS
 62
     0
100
AcDbPoint
 10
146.6798701510871
 20
88.99802090861276
 30
0.0
  0
POINT
  5
8E2
330
83B
100
AcDbEntity
  8
DEFPOINTS
 62
     0
100
AcDbPoint
 10
136.6798701510871
 20
91.99802090861277
 30
0.0
  0
POINT
  5
8E3
330
83B
100
AcDbEntity
  8
DEFPOINTS
 62
     0
100
AcDbPoint
 10
136.6798701510871
 20
107.8082687814625
 30
0.0
  0
ENDBLK
  5
847
330
83B
100
AcDbEntity
  8
0
100
AcDbBlockEnd
  0
BLOCK
  5
84E
330
848
100
AcDbEntity
  8
0
100
AcDbBlockBegin
  2
*D37
 70
     1
 10
0.0
 20
0.0
 30
0.0
  3
*D37
  1

  0
LINE
  5
8E9
330
848
100
AcDbEntity
  8
0
 62
     0
370
    -2
100
AcDbLine
 10
127.164019168481
 20
76.34807015084067
 30
0.0
 11
127.9735549961505
 21
75.46226444769827
 31
0.0
  0
MTEXT
  5
8EA
330
848
100
AcDbEntity
  8
0
 62
     0
100
AcDbMText
 10
139.8773654388786
 20
67.49586206663778
 30
0.0
 40
5.0
 41
0.0
 71
     5
 72
     1
  1
\A1;R1
  7
BIGFONT
 11
0.6746131897245081
 21
-0.7381714192853343
 31
0.0
 73
     1
 44
1.0
  0
SOLID
  5
8EB
330
848
100
AcDbEntity
  8
0
 62
     0
100
AcDbTrace
 10
127.3116534523381
 20
76.48299278878557
 30
0.0
 11
127.016384884624
 21
76.21314751289578
 31
0.0
 12
126.3544833408116
 22
77.23387585398306
 32
0.0
 13
126.3544833408116
 23
77.23387585398306
 33
0.0
  0
POINT
  5
8EC
330
848
100
AcDbEntity
  8
DEFPOINTS
 62
     0
100
AcDbPoint
 10
126.3544833408116
 20
77.23387585398306
 30
0.0
  0
POINT
  5
8ED
330
848
100
AcDbEntity
  8
DEFPOINTS
 62
     0
100
AcDbPoint
 10
125.6798701510871
 20
77.9720472732684
 30
0.0
  0
ENDBLK
  5
84F
330
848
100
AcDbEntity
  8
0
100
AcDbBlockEnd
  0
ENDSEC
  0
SECTION
  2
ENTITIES
  0
LINE
  5
76C
330
1E
100
AcDbEntity
  8
3
100
AcDbLine
 10
101.0728531471216
 20
75.49802090861277
 30
0.0
 11
120.6798701510871
 21
75.49802090861276
 31
0.0
  0
LINE
  5
76D
330
1E
100
AcDbEntity
  8
3
100
AcDbLine
 10
101.0728531471216
 20
95.49802090861277
 30
0.0
 11
120.6798701510871
 21
95.49802090861277
 31
0.0
  0
LINE
  5
774
330
1E
100
AcDbEntity
  8
1
100
AcDbLine
 10
87.72608462415808
 20
85.49802090861277
 30
0.0
 11
151.818004995299
 21
85.49802090861277
 31
0.0
  0
CIRCLE
  5
776
330
1E
100
AcDbEntity
  8
3
100
AcDbCircle
 10
43.06548588261108
 20
85.49802090861277
 30
0.0
 40
10.0
  0
LINE
  5
777
330
1E
100
AcDbEntity
  8
1
100
AcDbLine
 10
43.06548588261108
 20
101.3335579054131
 30
0.0
 11
43.06548588261108
 21
68.22288909042885
 31
0.0
  0
LINE
  5
778
330
1E
100
AcDbEntity
  8
1
100
AcDbLine
 10
24.34743055807592
 20
85.49802090861277
 30
0.0
 11
61.78822768975084
 21
85.49802090861277
 31
0.0
  0
LINE
  5
779
330
1E
100
AcDbEntity
  8
3
100
AcDbLine
 10
56.18164166741002
 20
85.43095833499121
 30
0.0
 11
56.06548588261109
 21
85.49802090861277
 31
0.0
  0
ARC
  5
77A
330
1E
100
AcDbEntity
  8
3
100
AcDbCircle
 10
101.0728531471216
 20
91.49802090861276
 30
0.0
 40
4.0
100
AcDbArc
 50
89.99999999999959
 51
172.505282546072
  0
ARC
  5
77C
330
1E
100
AcDbEntity
  8
3
100
AcDbCircle
 10
101.0728531471216
 20
79.49802090861275
 30
0.0
 40
4.0
100
AcDbArc
 50
187.494717453927
 51
270.0
  0
ARC
  5
77D
330
1E
100
AcDbEntity
  8
3
100
AcDbCircle
 10
146.679870151087
 20
85.49802090861238
 30
0.0
 40
50.0
100
AcDbArc
 50
172.5052825460729
 51
179.9999999999991
  0
ARC
  5
77E
330
1E
100
AcDbEntity
  8
3
100
AcDbCircle
 10
146.679870151087
 20
85.49802090861318
 30
0.0
 40
50.0
100
AcDbArc
 50
180.0000000000008
 51
187.494717453927
  0
LINE
  5
790
330
1E
100
AcDbEntity
  8
1
100
AcDbLine
 10
182.7854322654381
 20
85.49802090861277
 30
0.0
 11
220.226229397113
 21
85.49802090861277
 31
0.0
  0
CIRCLE
  5
791
330
1E
100
AcDbEntity
  8
3
100
AcDbCircle
 10
201.5034875899733
 20
85.49802090861277
 30
0.0
 40
8.0
  0
CIRCLE
  5
792
330
1E
100
AcDbEntity
  8
3
100
AcDbCircle
 10
201.5034875899733
 20
85.49802090861277
 30
0.0
 40
10.0
  0
CIRCLE
  5
793
330
1E
100
AcDbEntity
  8
3
100
AcDbCircle
 10
201.5034875899733
 20
85.49802090861277
 30
0.0
 40
6.5
  0
CIRCLE
  5
794
330
1E
100
AcDbEntity
  8
3
100
AcDbCircle
 10
201.5034875899733
 20
85.49802090861277
 30
0.0
 40
4.188000000000101
  0
CIRCLE
  5
795
330
1E
100
AcDbEntity
  8
0
100
AcDbCircle
 10
201.5034875899733
 20
85.49802090861277
 30
0.0
 40
5.0
  0
LINE
  5
796
330
1E
100
AcDbEntity
  8
3
100
AcDbLine
 10
195.0034875899732
 20
81.74524415888022
 30
0.0
 11
201.5034875899733
 21
77.99246740914765
 31
0.0
  0
LINE
  5
797
330
1E
100
AcDbEntity
  8
3
100
AcDbLine
 10
201.5034875899733
 20
93.0035744080779
 30
0.0
 11
195.0034875899732
 21
89.2507976583453
 31
0.0
  0
ARC
  5
79A
330
1E
100
AcDbEntity
  8
3
100
AcDbCircle
 10
125.6798701510871
 20
93.02399454395715
 30
0.0
 40
1.0
100
AcDbArc
 50
0.0
 51
73.99999999999973
  0
LINE
  5
79B
330
1E
100
AcDbEntity
  8
3
100
AcDbLine
 10
120.6798701510871
 20
95.49802090861277
 30
0.0
 11
120.6798701510871
 21
75.49802090861274
 31
0.0
  0
LINE
  5
79D
330
1E
100
AcDbEntity
  8
3
100
AcDbLine
 10
126.9798701510871
 20
93.0035744080779
 30
0.0
 11
131.6798701510871
 21
93.0035744080779
 31
0.0
  0
LINE
  5
79E
330
1E
100
AcDbEntity
  8
3
100
AcDbLine
 10
126.979870151087
 20
89.2507976583453
 30
0.0
 11
131.6798701510871
 21
89.2507976583453
 31
0.0
  0
LINE
  5
79F
330
1E
100
AcDbEntity
  8
3
100
AcDbLine
 10
126.979870151087
 20
81.74524415888024
 30
0.0
 11
131.6798701510871
 21
81.74524415888024
 31
0.0
  0
LINE
  5
7A0
330
1E
100
AcDbEntity
  8
3
100
AcDbLine
 10
126.9798701510871
 20
77.99246740914766
 30
0.0
 11
131.6798701510871
 21
77.99246740914766
 31
0.0
  0
LINE
  5
7A1
330
1E
100
AcDbEntity
  8
3
100
AcDbLine
 10
126.6798701510871
 20
77.97204727326842
 30
0.0
 11
126.6798701510872
 21
85.49802090861277
 31
0.0
  0
LINE
  5
7A2
330
1E
100
AcDbEntity
  8
3
100
AcDbLine
 10
126.6798701510871
 20
78.99802090861277
 30
0.0
 11
126.9798701510871
 21
77.99246740914765
 31
0.0
  0
ARC
  5
7A3
330
1E
100
AcDbEntity
  8
3
100
AcDbCircle
 10
132.6979257066425
 20
79.86885578401395
 30
0.0
 40
6.018055555555434
100
AcDbArc
 50
161.8326739281179
 51
198.1673260718819
  0
LINE
  5
7A4
330
1E
100
AcDbEntity
  8
3
100
AcDbLine
 10
120.6798701510871
 20
75.49802090861276
 30
0.0
 11
125.9555075069041
 21
77.01078557733009
 31
0.0
  0
ARC
  5
7A5
330
1E
100
AcDbEntity
  8
3
100
AcDbCircle
 10
125.6798701510871
 20
77.97204727326842
 30
0.0
 40
1.0
100
AcDbArc
 50
286.0000000000002
 51
0.0
  0
ARC
  5
7B2
330
1E
100
AcDbEntity
  8
3
100
AcDbCircle
 10
150.3020923733076
 20
85.49802090861277
 30
0.0
 40
23.6222222222205
100
AcDbArc
 50
170.8588974513761
 51
189.1411025486238
  0
LINE
  5
7B7
330
1E
100
AcDbEntity
  8
3
100
AcDbLine
 10
126.6798701510871
 20
93.02399454395715
 30
0.0
 11
126.6798701510872
 21
85.49802090861277
 31
0.0
  0
ARC
  5
7BF
330
1E
100
AcDbEntity
  8
3
100
AcDbCircle
 10
132.6979257066424
 20
91.12718603321159
 30
0.0
 40
6.018055555555384
100
AcDbArc
 50
161.8326739281171
 51
198.167326071882
  0
LINE
  5
7C1
330
1E
100
AcDbEntity
  8
3
100
AcDbLine
 10
126.6798701510871
 20
91.99802090861277
 30
0.0
 11
126.9798701510871
 21
93.0035744080779
 31
0.0
  0
LINE
  5
7C4
330
1E
100
AcDbEntity
  8
3
100
AcDbLine
 10
136.6798701510871
 20
78.99802090861277
 30
0.0
 11
136.3798701510871
 21
77.99246740914765
 31
0.0
  0
ARC
  5
7C5
330
1E
100
AcDbEntity
  8
3
100
AcDbCircle
 10
130.6618145955316
 20
79.86885578401395
 30
0.0
 40
6.018055555555434
100
AcDbArc
 50
341.832673928118
 51
18.16732607188198
  0
LINE
  5
7C6
330
1E
100
AcDbEntity
  8
3
100
AcDbLine
 10
136.379870151087
 20
77.99246740914766
 30
0.0
 11
131.6798701510871
 21
77.99246740914766
 31
0.0
  0
LINE
  5
7C7
330
1E
100
AcDbEntity
  8
3
100
AcDbLine
 10
145.1798701510871
 20
90.49802090861277
 30
0.0
 11
136.6798701510871
 21
90.49802090861277
 31
0.0
  0
LINE
  5
7C8
330
1E
100
AcDbEntity
  8
3
100
AcDbLine
 10
136.679870151087
 20
80.49802090861277
 30
0.0
 11
145.179870151087
 21
80.49802090861277
 31
0.0
  0
LINE
  5
7C9
330
1E
100
AcDbEntity
  8
3
100
AcDbLine
 10
145.1798701510871
 20
90.49802090861277
 30
0.0
 11
136.6798701510871
 21
90.49802090861277
 31
0.0
  0
LINE
  5
7CA
330
1E
100
AcDbEntity
  8
3
100
AcDbLine
 10
136.679870151087
 20
80.49802090861277
 30
0.0
 11
145.179870151087
 21
80.49802090861277
 31
0.0
  0
LINE
  5
7CB
330
1E
100
AcDbEntity
  8
3
100
AcDbLine
 10
138.179870151087
 20
81.31002090861267
 30
0.0
 11
145.9918701510869
 21
81.31002090861267
 31
0.0
  0
LINE
  5
7CC
330
1E
100
AcDbEntity
  8
3
100
AcDbLine
 10
138.1798701510871
 20
89.68602090861287
 30
0.0
 11
145.991870151087
 21
89.68602090861287
 31
0.0
  0
LINE
  5
7CD
330
1E
100
AcDbEntity
  8
3
100
AcDbLine
 10
136.6798701510871
 20
91.99802090861277
 30
0.0
 11
136.6798701510871
 21
78.99802090861277
 31
0.0
  0
ARC
  5
7CE
330
1E
100
AcDbEntity
  8
3
100
AcDbCircle
 10
113.0576479288666
 20
85.49802090861277
 30
0.0
 40
23.6222222222205
100
AcDbArc
 50
350.8588974513761
 51
9.141102548623813
  0
LINE
  5
7CF
330
1E
100
AcDbEntity
  8
0
100
AcDbLine
 10
138.1798701510871
 20
90.49802090861277
 30
0.0
 11
138.179870151087
 21
80.49802090861277
 31
0.0
  0
LINE
  5
7D0
330
1E
100
AcDbEntity
  8
3
100
AcDbLine
 10
136.3798701510871
 20
81.74524415888024
 30
0.0
 11
131.6798701510871
 21
81.74524415888024
 31
0.0
  0
ARC
  5
7D1
330
1E
100
AcDbEntity
  8
3
100
AcDbCircle
 10
130.6618145955317
 20
91.12718603321159
 30
0.0
 40
6.018055555555384
100
AcDbArc
 50
341.832673928118
 51
18.16732607188285
  0
LINE
  5
7D2
330
1E
100
AcDbEntity
  8
3
100
AcDbLine
 10
136.6798701510871
 20
91.99802090861277
 30
0.0
 11
136.3798701510871
 21
93.0035744080779
 31
0.0
  0
LINE
  5
7D3
330
1E
100
AcDbEntity
  8
3
100
AcDbLine
 10
136.3798701510871
 20
89.2507976583453
 30
0.0
 11
131.6798701510871
 21
89.2507976583453
 31
0.0
  0
LINE
  5
7D4
330
1E
100
AcDbEntity
  8
3
100
AcDbLine
 10
136.379870151087
 20
93.0035744080779
 30
0.0
 11
131.6798701510871
 21
93.0035744080779
 31
0.0
  0
LINE
  5
7D5
330
1E
100
AcDbEntity
  8
3
100
AcDbLine
 10
146.679870151087
 20
81.99802090861277
 30
0.0
 11
146.6798701510871
 21
88.99802090861276
 31
0.0
  0
LINE
  5
7D6
330
1E
100
AcDbEntity
  8
3
100
AcDbLine
 10
146.679870151087
 20
81.99802090861277
 30
0.0
 11
146.6798701510871
 21
88.99802090861276
 31
0.0
  0
LINE
  5
7D7
330
1E
100
AcDbEntity
  8
0
100
AcDbLine
 10
145.1798701510871
 20
90.49802090861277
 30
0.0
 11
145.179870151087
 21
80.49802090861277
 31
0.0
  0
LINE
  5
7D8
330
1E
100
AcDbEntity
  8
3
100
AcDbLine
 10
145.179870151087
 20
80.49802090861277
 30
0.0
 11
146.679870151087
 21
81.99802090861277
 31
0.0
  0
LINE
  5
7D9
330
1E
100
AcDbEntity
  8
3
100
AcDbLine
 10
145.179870151087
 20
80.49802090861277
 30
0.0
 11
146.679870151087
 21
81.99802090861277
 31
0.0
  0
LINE
  5
7DA
330
1E
100
AcDbEntity
  8
3
100
AcDbLine
 10
146.6798701510871
 20
88.99802090861276
 30
0.0
 11
145.1798701510871
 21
90.49802090861277
 31
0.0
  0
LINE
  5
7DB
330
1E
100
AcDbEntity
  8
3
100
AcDbLine
 10
146.6798701510871
 20
88.99802090861276
 30
0.0
 11
145.1798701510871
 21
90.49802090861277
 31
0.0
  0
LINE
  5
7DC
330
1E
100
AcDbEntity
  8
3
100
AcDbLine
 10
120.6798701510871
 20
95.49802090861277
 30
0.0
 11
125.9555075069041
 21
93.98525623989545
 31
0.0
  0
LINE
  5
7DD
330
1E
100
AcDbEntity
  8
3
100
AcDbLine
 10
195.0034875899732
 20
89.25079765834533
 30
0.0
 11
195.0034875899733
 21
81.74524415888022
 31
0.0
  0
LINE
  5
7DE
330
1E
100
AcDbEntity
  8
1
100
AcDbLine
 10
201.5034875899733
 20
101.3335579054131
 30
0.0
 11
201.5034875899733
 21
68.22288909042885
 31
0.0
  0
LINE
  5
7DF
330
1E
100
AcDbEntity
  8
3
100
AcDbLine
 10
201.5034875899732
 20
77.99246740914764
 30
0.0
 11
208.0034875899733
 21
81.74524415888022
 31
0.0
  0
LINE
  5
7E0
330
1E
100
AcDbEntity
  8
3
100
AcDbLine
 10
208.0034875899733
 20
81.7452441588802
 30
0.0
 11
208.0034875899733
 21
89.25079765834537
 31
0.0
  0
LINE
  5
7E1
330
1E
100
AcDbEntity
  8
3
100
AcDbLine
 10
208.0034875899733
 20
89.25079765834533
 30
0.0
 11
201.5034875899733
 21
93.0035744080779
 31
0.0
  0
LINE
  5
7E2
330
1E
100
AcDbEntity
  8
3
100
AcDbLine
 10
214.6196433747722
 20
85.43095833499121
 30
0.0
 11
214.5034875899733
 21
85.49802090861277
 31
0.0
  0
ENDSEC
  0
SECTION
  2
OBJECTS
  0
DICTIONARY
  5
C
330
0
100
AcDbDictionary
281
     1
  3
ACAD_GROUP
350
D
  3
ACAD_LAYOUT
350
19
  3
ACAD_MLINESTYLE
350
16
  3
ACAD_PLOTSETTINGS
350
18
  3
ACAD_PLOTSTYLENAME
350
E
  3
AcDbVariableDictionary
350
1CB
  3
AcmDictionary
350
1A1
  3
AMG
350
E7
  3
AMGSNAPSETTINGS
350
1BE
  3
DWGPROPS
350
678
  3
MAPISURF_MODULE
350
174
  0
DICTIONARY
  5
1C5
330
1E
100
AcDbDictionary
280
     1
281
     1
  3
ACAD_INDEX
360
1C6
  0
DICTIONARY
  5
D
102
{ACAD_REACTORS
330
C
102
}
330
C
100
AcDbDictionary
281
     1
  0
DICTIONARY
  5
19
102
{ACAD_REACTORS
330
C
102
}
330
C
100
AcDbDictionary
281
     1
  3
Model
350
21
  3
ﾚｲｱｳﾄ1
350
1D
  0
DICTIONARY
  5
16
102
{ACAD_REACTORS
330
C
102
}
330
C
100
AcDbDictionary
281
     1
  3
Standard
350
17
  0
DICTIONARY
  5
18
102
{ACAD_REACTORS
330
C
102
}
330
C
100
AcDbDictionary
281
     1
  0
ACDBDICTIONARYWDFLT
  5
E
102
{ACAD_REACTORS
330
C
102
}
330
C
100
AcDbDictionary
281
     1
  3
Normal
350
F
100
AcDbDictionaryWithDefault
340
F
  0
DICTIONARY
  5
1CB
102
{ACAD_REACTORS
330
C
102
}
330
C
100
AcDbDictionary
281
     1
  3
DIMASSOC
350
1CD
  3
INDEXCTL
350
1CC
  0
DICTIONARY
  5
1A1
102
{ACAD_REACTORS
330
C
102
}
330
C
100
AcDbDictionary
281
     1
  3
AcmBOMDATA
350
1A2
  3
AcmStdDictionary
350
3FA
  0
DICTIONARY
  5
E7
102
{ACAD_REACTORS
330
C
102
}
330
C
100
AcDbDictionary
281
     1
  3
AcMgSettings
350
E8
  3
AMGLAYCFG
350
1AE
  0
DICTIONARY
  5
1BE
102
{ACAD_REACTORS
330
C
102
}
330
C
100
AcDbDictionary
281
     1
  3
DIMENSION
350
1C3
  3
FEA
350
1C2
  3
HATCH (1)
350
1BF
  3
HATCH (2)
350
1C0
  3
SIMPLE WELD
350
1C4
  3
SYMBOLS
350
1C1
  0
XRECORD
  5
678
102
{ACAD_REACTORS
330
C
102
}
330
C
100
AcDbXrecord
280
     1
  1
DWGPROPS COOKIE
  2

  3

  4

  6

  7

  8

  9

300
AmdtFileType=84
301
=
302
=
303
=
304
=
305
=
306
=
307
=
308
=
309
=
 40
0.0081295138888889
 41
2450686.794502314
 42
2456451.606488889
  1

 90
        1
  0
DICTIONARY
  5
1C6
102
{ACAD_REACTORS
330
1C5
102
}
330
1C5
100
AcDbDictionary
281
     1
  3
*A1
350
1C7
  0
LAYOUT
  5
21
102
{ACAD_REACTORS
330
19
102
}
330
19
100
AcDbPlotSettings
  1

  2
\\KONISHIDENXP\SHARP MX-2700FG
  4

  6

 40
0.0
 41
0.0
 42
0.0
 43
0.0
 44
0.0
 45
0.0
 46
0.0
 47
0.0
 48
0.0
 49
0.0
140
0.0
141
0.0
142
1.0
143
1.0
 70
  1712
 72
     0
 73
     0
 74
     0
  7

 75
     0
147
1.0
148
0.0
149
0.0
100
AcDbLayout
  1
Model
 70
     1
 71
     0
 10
0.0
 20
0.0
 11
12.0
 21
9.0
 12
0.0
 22
0.0
 32
0.0
 14
0.0
 24
0.0
 34
0.0
 15
0.0
 25
0.0
 35
0.0
146
0.0
 13
0.0
 23
0.0
 33
0.0
 16
1.0
 26
0.0
 36
0.0
 17
0.0
 27
1.0
 37
0.0
 76
     0
330
1E
  0
LAYOUT
  5
1D
102
{ACAD_REACTORS
330
19
102
}
330
19
100
AcDbPlotSettings
  1

  2
\\KONISHIDENXP\SHARP MX-2700FG
  4

  6

 40
0.0
 41
0.0
 42
0.0
 43
0.0
 44
0.0
 45
0.0
 46
0.0
 47
0.0
 48
0.0
 49
0.0
140
0.0
141
0.0
142
1.0
143
1.0
 70
   688
 72
     0
 73
     0
 74
     5
  7

 75
    16
147
1.0
148
0.0
149
0.0
100
AcDbLayout
  1
ﾚｲｱｳﾄ1
 70
     1
 71
     1
 10
0.0
 20
0.0
 11
12.0
 21
9.0
 12
0.0
 22
0.0
 32
0.0
 14
1.000000000000000E+20
 24
1.000000000000000E+20
 34
1.000000000000000E+20
 15
-1.000000000000000E+20
 25
-1.000000000000000E+20
 35
-1.000000000000000E+20
146
0.0
 13
0.0
 23
0.0
 33
0.0
 16
1.0
 26
0.0
 36
0.0
 17
0.0
 27
1.0
 37
0.0
 76
     0
330
1A
  0
MLINESTYLE
  5
17
102
{ACAD_REACTORS
330
16
102
}
330
16
100
AcDbMlineStyle
  2
STANDARD
 70
     0
  3

 62
   256
 51
90.0
 52
90.0
 71
     2
 49
0.5
 62
   256
  6
BYLAYER
 49
-0.5
 62
   256
  6
BYLAYER
  0
ACDBPLACEHOLDER
  5
F
102
{ACAD_REACTORS
330
E
102
}
330
E
  0
DICTIONARYVAR
  5
1CD
102
{ACAD_REACTORS
330
1CB
102
}
330
1CB
100
DictionaryVariables
280
     0
  1
1
  0
DICTIONARYVAR
  5
1CC
102
{ACAD_REACTORS
330
1CB
102
}
330
1CB
100
DictionaryVariables
280
     0
  1
1
  0
ACMDATADICTIONARY
  5
1A2
102
{ACAD_REACTORS
330
1A1
102
}
330
1A1
100
AcDbDictionary
281
     1
  3
*A1
350
1A3
100
AcmDataDictionary
  0
DICTIONARY
  5
3FA
102
{ACAD_REACTORS
330
1A1
102
}
330
1A1
100
AcDbDictionary
281
     1
  3
ANSI
350
3FB
  0
DICTIONARY
  5
E8
102
{ACAD_REACTORS
330
E7
102
}
330
E7
100
AcDbDictionary
281
     1
  3
DWGSETTINGS
350
E9
  0
ACAMGFILTERDAT
  5
1C3
102
{ACAD_REACTORS
330
1BE
102
}
330
1BE
100
AcAmgFilterDat
 70
    15
  1
DIMENSION,AMDT_*_DIM
  2
*
  3
*
  4
*
  5
*
290
     1
  0
ACAMGFILTERDAT
  5
1C2
102
{ACAD_REACTORS
330
1BE
102
}
330
1BE
100
AcAmgFilterDat
 70
    15
  1
*
  2
AM_FEA-AM_*
  3
*
  4
*
  5
*
290
     1
  0
ACAMGFILTERDAT
  5
1BF
102
{ACAD_REACTORS
330
1BE
102
}
330
1BE
100
AcAmgFilterDat
 70
    15
  1
HATCH
  2
*
  3
*
  4
*
  5
*
290
     1
  0
ACAMGFILTERDAT
  5
1C0
102
{ACAD_REACTORS
330
1BE
102
}
330
1BE
100
AcAmgFilterDat
 70
    15
  1
LINE
  2
8,8N,*-8,*-8N,AM_8,AM_8N,*-AM_8,*-AM_8N
  3
*
  4
*
  5
INSERT,STDPART2D
290
     1
  0
ACAMGFILTERDAT
  5
1C4
102
{ACAD_REACTORS
330
1BE
102
}
330
1BE
100
AcAmgFilterDat
 70
    15
  1
ARC
  2
AM_5
  3
*
  4
2
  5
INSERT
290
     0
  0
ACAMGFILTERDAT
  5
1C1
102
{ACAD_REACTORS
330
1BE
102
}
330
1BE
100
AcAmgFilterDat
 70
    15
  1
ACMFCFRAME,ACMDATUMTARGET,ACMDATUMID,ACMWELDSYM,ACMSURFSYM,ACMFEATID,ACMPARTREF,ACMBALLOON,AMDTEDGESYM,AMGSCREWCALCTABLE
  2
*
  3
*
  4
*
  5
*
290
     1
  0
LAYER_INDEX
  5
1C7
102
{ACAD_REACTORS
330
1C6
102
}
330
1C6
100
AcDbIndex
 40
2456451.607732743
100
AcDbLayerIndex
  8
0
360
1C8
 90
        3
  8
1
360
1C9
 90
        5
  8
3
360
1CA
 90
       57
  8
2
360
2A1
 90
        0
  8
DEFPOINTS
360
2A2
 90
        0
  0
ACMDATAENTRYBLOCK
  5
1A3
102
{ACAD_REACTORS
330
1A2
102
}
330
1A2
100
AcmDataEntry
100
AcmDataEntryBlock
  0
IDBUFFER
  5
1C8
330
0
100
AcDbIdBuffer
330
795
330
7CF
330
7D7
  0
IDBUFFER
  5
1C9
330
0
100
AcDbIdBuffer
330
774
330
777
330
778
330
790
330
7DE
  0
IDBUFFER
  5
1CA
330
0
100
AcDbIdBuffer
330
7DF
330
7E0
330
7E1
330
7E2
330
76C
330
76D
330
776
330
779
330
77A
330
77C
330
77D
330
77E
330
791
330
792
330
793
330
794
330
796
330
797
330
79A
330
79B
330
79D
330
79E
330
79F
330
7A0
330
7A1
330
7A2
330
7A3
330
7A4
330
7A5
330
7B2
330
7B7
330
7BF
330
7C1
330
7C4
330
7C5
330
7C6
330
7C7
330
7C8
330
7C9
330
7CA
330
7CB
330
7CC
330
7CD
330
7CE
330
7D0
330
7D1
330
7D2
330
7D3
330
7D4
330
7D5
330
7D6
330
7D8
330
7D9
330
7DA
330
7DB
330
7DC
330
7DD
  0
IDBUFFER
  5
2A1
330
0
100
AcDbIdBuffer
  0
IDBUFFER
  5
2A2
330
0
100
AcDbIdBuffer
  0
ENDSEC
  0
EOF
