  0
SECTION
  2
HEADER
  9
$ACADVER
  1
AC1015
  9
$ACADMAINTVER
 70
    13
  9
$DWGCODEPAGE
  3
ANSI_932
  9
$INSBASE
 10
0.0
 20
0.0
 30
0.0
  9
$EXTMIN
 10
0.0
 20
0.0
 30
0.0
  9
$EXTMAX
 10
187.5
 20
135.0
 30
0.0
  9
$LIMMIN
 10
0.0
 20
0.0
  9
$LIMMAX
 10
187.5
 20
135.0
  9
$ORTHOMODE
 70
     0
  9
$REGENMODE
 70
     1
  9
$FILLMODE
 70
     1
  9
$QTEXTMODE
 70
     0
  9
$MIRRTEXT
 70
     1
  9
$LTSCALE
 40
5.0
  9
$ATTMODE
 70
     1
  9
$TEXTSIZE
 40
3.0
  9
$TRACEWID
 40
0.05
  9
$TEXTSTYLE
  7
BIGFONT
  9
$CLAYER
  8
0
  9
$CELTYPE
  6
ByLayer
  9
$CECOLOR
 62
   256
  9
$CELTSCALE
 40
1.0
  9
$DISPSILH
 70
     0
  9
$DIMSCALE
 40
0.5
  9
$DIMASZ
 40
3.0
  9
$DIMEXO
 40
2.0
  9
$DIMDLI
 40
0.38
  9
$DIMRND
 40
0.0
  9
$DIMDLE
 40
0.0
  9
$DIMEXE
 40
2.0
  9
$DIMTP
 40
0.0
  9
$DIMTM
 40
0.0
  9
$DIMTXT
 40
3.2
  9
$DIMCEN
 40
0.09
  9
$DIMTSZ
 40
0.0
  9
$DIMTOL
 70
     0
  9
$DIMLIM
 70
     0
  9
$DIMTIH
 70
     0
  9
$DIMTOH
 70
     0
  9
$DIMSE1
 70
     0
  9
$DIMSE2
 70
     0
  9
$DIMTAD
 70
     1
  9
$DIMZIN
 70
     0
  9
$DIMBLK
  1

  9
$DIMASO
 70
     0
  9
$DIMSHO
 70
     0
  9
$DIMPOST
  1

  9
$DIMAPOST
  1

  9
$DIMALT
 70
     0
  9
$DIMALTD
 70
     2
  9
$DIMALTF
 40
25.4
  9
$DIMLFAC
 40
1.0
  9
$DIMTOFL
 70
     0
  9
$DIMTVP
 40
1.6
  9
$DIMTIX
 70
     1
  9
$DIMSOXD
 70
     0
  9
$DIMSAH
 70
     0
  9
$DIMBLK1
  1

  9
$DIMBLK2
  1

  9
$DIMSTYLE
  2
STANDARD
  9
$DIMCLRD
 70
     0
  9
$DIMCLRE
 70
     0
  9
$DIMCLRT
 70
     0
  9
$DIMTFAC
 40
1.0
  9
$DIMGAP
 40
0.09
  9
$DIMJUST
 70
     0
  9
$DIMSD1
 70
     0
  9
$DIMSD2
 70
     0
  9
$DIMTOLJ
 70
     1
  9
$DIMTZIN
 70
     0
  9
$DIMALTZ
 70
     0
  9
$DIMALTTZ
 70
     0
  9
$DIMUPT
 70
     0
  9
$DIMDEC
 70
     4
  9
$DIMTDEC
 70
     4
  9
$DIMALTU
 70
     2
  9
$DIMALTTD
 70
     2
  9
$DIMTXSTY
  7
STANDARD
  9
$DIMAUNIT
 70
     0
  9
$DIMADEC
 70
     0
  9
$DIMALTRND
 40
0.0
  9
$DIMAZIN
 70
     0
  9
$DIMDSEP
 70
    46
  9
$DIMATFIT
 70
     3
  9
$DIMFRAC
 70
     0
  9
$DIMLDRBLK
  1

  9
$DIMLUNIT
 70
     2
  9
$DIMLWD
 70
    -2
  9
$DIMLWE
 70
    -2
  9
$DIMTMOVE
 70
     0
  9
$LUNITS
 70
     2
  9
$LUPREC
 70
     4
  9
$SKETCHINC
 40
0.1
  9
$FILLETRAD
 40
0.4
  9
$AUNITS
 70
     0
  9
$AUPREC
 70
     0
  9
$MENU
  1
ACAD
  9
$ELEVATION
 40
0.0
  9
$PELEVATION
 40
0.0
  9
$THICKNESS
 40
0.0
  9
$LIMCHECK
 70
     0
  9
$CHAMFERA
 40
0.0
  9
$CHAMFERB
 40
0.0
  9
$CHAMFERC
 40
0.0
  9
$CHAMFERD
 40
0.0
  9
$SKPOLY
 70
     0
  9
$TDCREATE
 40
2450683.649872997
  9
$TDUCREATE
 40
2450683.274872997
  9
$TDUPDATE
 40
2456415.361908275
  9
$TDUUPDATE
 40
2456414.986908275
  9
$TDINDWG
 40
0.0004917130
  9
$TDUSRTIMER
 40
0.0004917130
  9
$USRTIMER
 70
     1
  9
$ANGBASE
 50
0.0
  9
$ANGDIR
 70
     0
  9
$PDMODE
 70
     0
  9
$PDSIZE
 40
0.0
  9
$PLINEWID
 40
0.0
  9
$SPLFRAME
 70
     0
  9
$SPLINETYPE
 70
     6
  9
$SPLINESEGS
 70
     8
  9
$HANDSEED
  5
254
  9
$SURFTAB1
 70
     6
  9
$SURFTAB2
 70
     6
  9
$SURFTYPE
 70
     6
  9
$SURFU
 70
     6
  9
$SURFV
 70
     6
  9
$UCSBASE
  2

  9
$UCSNAME
  2

  9
$UCSORG
 10
0.0
 20
0.0
 30
0.0
  9
$UCSXDIR
 10
1.0
 20
0.0
 30
0.0
  9
$UCSYDIR
 10
0.0
 20
1.0
 30
0.0
  9
$UCSORTHOREF
  2

  9
$UCSORTHOVIEW
 70
     0
  9
$UCSORGTOP
 10
0.0
 20
0.0
 30
0.0
  9
$UCSORGBOTTOM
 10
0.0
 20
0.0
 30
0.0
  9
$UCSORGLEFT
 10
0.0
 20
0.0
 30
0.0
  9
$UCSORGRIGHT
 10
0.0
 20
0.0
 30
0.0
  9
$UCSORGFRONT
 10
0.0
 20
0.0
 30
0.0
  9
$UCSORGBACK
 10
0.0
 20
0.0
 30
0.0
  9
$PUCSBASE
  2

  9
$PUCSNAME
  2

  9
$PUCSORG
 10
0.0
 20
0.0
 30
0.0
  9
$PUCSXDIR
 10
1.0
 20
0.0
 30
0.0
  9
$PUCSYDIR
 10
0.0
 20
1.0
 30
0.0
  9
$PUCSORTHOREF
  2

  9
$PUCSORTHOVIEW
 70
     0
  9
$PUCSORGTOP
 10
0.0
 20
0.0
 30
0.0
  9
$PUCSORGBOTTOM
 10
0.0
 20
0.0
 30
0.0
  9
$PUCSORGLEFT
 10
0.0
 20
0.0
 30
0.0
  9
$PUCSORGRIGHT
 10
0.0
 20
0.0
 30
0.0
  9
$PUCSORGFRONT
 10
0.0
 20
0.0
 30
0.0
  9
$PUCSORGBACK
 10
0.0
 20
0.0
 30
0.0
  9
$USERI1
 70
     0
  9
$USERI2
 70
     0
  9
$USERI3
 70
     0
  9
$USERI4
 70
     0
  9
$USERI5
 70
     0
  9
$USERR1
 40
0.0
  9
$USERR2
 40
0.0
  9
$USERR3
 40
0.0
  9
$USERR4
 40
0.0
  9
$USERR5
 40
0.0
  9
$WORLDVIEW
 70
     1
  9
$SHADEDGE
 70
     3
  9
$SHADEDIF
 70
    70
  9
$TILEMODE
 70
     1
  9
$MAXACTVP
 70
    16
  9
$PINSBASE
 10
0.0
 20
0.0
 30
0.0
  9
$PLIMCHECK
 70
     0
  9
$PEXTMIN
 10
1.000000000000000E+20
 20
1.000000000000000E+20
 30
1.000000000000000E+20
  9
$PEXTMAX
 10
-1.000000000000000E+20
 20
-1.000000000000000E+20
 30
-1.000000000000000E+20
  9
$PLIMMIN
 10
0.0
 20
0.0
  9
$PLIMMAX
 10
12.0
 20
9.0
  9
$UNITMODE
 70
     0
  9
$VISRETAIN
 70
     0
  9
$PLINEGEN
 70
     1
  9
$PSLTSCALE
 70
     0
  9
$TREEDEPTH
 70
  3020
  9
$CMLSTYLE
  2
Standard
  9
$CMLJUST
 70
     0
  9
$CMLSCALE
 40
1.0
  9
$PROXYGRAPHICS
 70
     1
  9
$MEASUREMENT
 70
     0
  9
$CELWEIGHT
370
    -1
  9
$ENDCAPS
280
     0
  9
$JOINSTYLE
280
     0
  9
$LWDISPLAY
290
     0
  9
$INSUNITS
 70
     0
  9
$HYPERLINKBASE
  1

  9
$STYLESHEET
  1

  9
$XEDIT
290
     1
  9
$CEPSNTYPE
380
     0
  9
$PSTYLEMODE
290
     1
  9
$FINGERPRINTGUID
  2
{773BADDB-B445-487E-9F8C-75B6494C40DD}
  9
$VERSIONGUID
  2
{534F4DB7-21A5-4A3D-8FBC-239BFC38D281}
  9
$EXTNAMES
290
     1
  9
$PSVPSCALE
 40
0.0
  9
$OLESTARTUP
290
     0
  0
ENDSEC
  0
SECTION
  2
CLASSES
  0
CLASS
  1
ACDBDICTIONARYWDFLT
  2
AcDbDictionaryWithDefault
  3
AutoCAD 2000
 90
        0
280
     0
281
     0
  0
CLASS
  1
ACDBPLACEHOLDER
  2
AcDbPlaceHolder
  3
AutoCAD 2000
 90
        0
280
     0
281
     0
  0
CLASS
  1
LAYOUT
  2
AcDbLayout
  3
AutoCAD 2000
 90
        0
280
     0
281
     0
  0
CLASS
  1
AMGSETTINGSOBJ
  2
AmgSettingsObj
  3
"AcadM|Product Description: AutoCAD Mechanical 2000|Company: Autodesk"
 90
        0
280
     0
281
     0
  0
CLASS
  1
ACME_DOCUMENT
  2
AcMeDbDoc
  3
AcMeServices
 90
        0
280
     0
281
     0
  0
CLASS
  1
ACMESCOPE
  2
AcMeScope
  3
AcMeServices
 90
        0
280
     0
281
     0
  0
CLASS
  1
ACMECOMMANDHISTORY
  2
AcMeCommandHistory
  3
AcMeServices
 90
        0
280
     0
281
     0
  0
CLASS
  1
ACIMSYSVARMAN
  2
AcImSysVarManager
  3
AcMeServices
 90
        0
280
     0
281
     0
  0
CLASS
  1
ACIMREALSYSVAR
  2
AcImRealSysVar
  3
AcMeServices
 90
        0
280
     0
281
     0
  0
CLASS
  1
ACIMINTSYSVAR
  2
AcImIntSysVar
  3
AcMeServices
 90
        0
280
     0
281
     0
  0
CLASS
  1
ACMEDRAWINGMAN
  2
AcMeDrawingMan
  3
AcMeServices
 90
        0
280
     0
281
     0
  0
CLASS
  1
ACMEVIEW
  2
AcMeView
  3
AcMeServices
 90
        0
280
     0
281
     0
  0
CLASS
  1
ACDBENTITYCACHE
  2
AcMeEntityCache
  3
AcMeServices
 90
        0
280
     0
281
     0
  0
CLASS
  1
GSMANAGER
  2
AcMeGSManager
  3
AcMeServices
 90
        0
280
     0
281
     0
  0
CLASS
  1
AMDTINTERNALREACTOR
  2
AmdtInternalReactor
  3
AcMeServices
 90
        0
280
     0
281
     0
  0
CLASS
  1
ACMESTATEMGR
  2
AcMeStateMgr
  3
AcMeServices
 90
        0
280
     0
281
     0
  0
CLASS
  1
ACGREFMASTER
  2
AcGrefMaster
  3
AcAttribServices
 90
        0
280
     0
281
     0
  0
CLASS
  1
AM_DRAWING_MGR
  2
AcDmDwgMgr
  3
AcMechDwgViewMgmt
 90
        0
280
     0
281
     0
  0
CLASS
  1
AM_DWG_DOCUMENT
  2
AcDmDwgDocument
  3
AcMechDwgViewMgmt
 90
        0
280
     0
281
     0
  0
CLASS
  1
AM_DWG_SHEET
  2
AcDmSheet
  3
AcMechDwgViewMgmt
 90
        0
280
     0
281
     0
  0
CLASS
  1
AM_VIEWDIMPARMAP
  2
AcDmViewDimParMap
  3
AcMechDwgViewMgmt
 90
        0
280
     0
281
     0
  0
CLASS
  1
AM_DWGMGR_NAME
  2
AcDmDwgMgrName
  3
AcMechDwgViewMgmt
 90
        0
280
     0
281
     0
  0
CLASS
  1
ACME_DATABASE
  2
AcMeDbDatabase
  3
AcMeServices
 90
        0
280
     0
281
     0
  0
CLASS
  1
ACRFINSADJUSTERMGR
  2
AcRfInsAdjusterMgr
  3
AcMeServices
 90
        0
280
     0
281
     0
  0
CLASS
  1
ACGREFACADMASTER
  2
AcGrefacadMaster
  3
AcGrefServices
 90
        0
280
     0
281
     0
  0
CLASS
  1
AMDTMENUSTATEMGR
  2
AmdtMenuStateMgr
  3
McadcomServices
 90
        0
280
     0
281
     0
  0
CLASS
  1
AMDTMCOMMENUSTATE
  2
AmdtMcomMenuState
  3
McadcomServices
 90
        0
280
     0
281
     0
  0
CLASS
  1
AMIMASTER
  2
AmiMaster
  3
AmiServices
 90
        0
280
     0
281
     0
  0
CLASS
  1
ASAPP
  2
AcAsAppObject
  3
AutoSurfServices
 90
        0
280
     0
281
     0
  0
CLASS
  1
IM_STATIC_MAN
  2
AcImStaticVarManager
  3
AcMeServices
 90
        0
280
     0
281
     0
  0
CLASS
  1
ACIMSTRSYSVAR
  2
AcImStrSysVar
  3
AcMeServices
 90
        0
280
     0
281
     0
  0
CLASS
  1
ACIMDBLSTATICVAR
  2
AcImDblStaticVar
  3
AcMeServices
 90
        0
280
     0
281
     0
  0
CLASS
  1
ACIMSTRSTATICVAR
  2
AcImStrStaticVar
  3
AcMeServices
 90
        0
280
     0
281
     0
  0
CLASS
  1
ACIMINTSTATICVAR
  2
AcImIntStaticVar
  3
AcMeServices
 90
        0
280
     0
281
     0
  0
CLASS
  1
ACASGREFMASTER
  2
AcAsGrefMaster
  3
AutoSurfResolverServices
 90
        0
280
     0
281
     0
  0
CLASS
  1
ACADGREFMODULE
  2
AcAdGrefModule
  3
AdGrefServices
 90
        0
280
     0
281
     0
  0
CLASS
  1
AMDTMAPISURFMOUDULE
  2
AmdtMApiSurfModule
  3
MApiSurfServices
 90
        0
280
     0
281
     0
  0
CLASS
  1
MAPIAMMOUDLE
  2
MApiAmModule
  3
MApiAmServices
 90
        0
280
     0
281
     0
  0
CLASS
  1
AMDTADMENUSTATE
  2
AmdtAdMenuState
  3
DesignerServices
 90
        0
280
     0
281
     0
  0
CLASS
  1
ADAPPL
  2
AcAdAppl
  3
DesignerServices
 90
        0
280
     0
281
     0
  0
CLASS
  1
DEPMGR
  2
AcAdDepMgr
  3
DesignerServices
 90
        0
280
     0
281
     0
  0
CLASS
  1
PARAMMGR
  2
AcAdParamMgr
  3
DesignerServices
 90
        0
280
     0
281
     0
  0
CLASS
  1
PARAMSCOPE
  2
AcAdParamScope
  3
DesignerServices
 90
        0
280
     0
281
     0
  0
CLASS
  1
NAMEDAPPL
  2
AcAdNamedAppl
  3
DesignerServices
 90
        0
280
     0
281
     0
  0
CLASS
  1
AMDTDMMENUSTATE
  2
AmdtDmMenuState
  3
AcMechDwgViewMgmt
 90
        0
280
     0
281
     0
  0
CLASS
  1
MAPIADMODULE
  2
MApiAdModule
  3
MApiAdServices
 90
        0
280
     0
281
     0
  0
CLASS
  1
AMDTAMMENUSTATE
  2
AmdtAmMenuState
  3
DesignerAssemblies
 90
        0
280
     0
281
     0
  0
CLASS
  1
ACAMPROJECT
  2
AcAmProject
  3
DesignerAssemblies
 90
        0
280
     0
281
     0
  0
CLASS
  1
ACAMGRCOMPDEF
  2
AcAmGrCompDef
  3
DesignerAssemblies
 90
        0
280
     0
281
     0
  0
CLASS
  1
ACCMCONTEXT
  2
AcCmContext
  3
DesignerAssemblies
 90
        0
280
     0
281
     0
  0
CLASS
  1
ACAMCOMPDEF
  2
AcAmCompDef
  3
DesignerAssemblies
 90
        0
280
     0
281
     0
  0
CLASS
  1
ACAMCOMPDEFMGR
  2
AcAmCompDefMgr
  3
DesignerAssemblies
 90
        0
280
     0
281
     0
  0
CLASS
  1
AMCONTEXTMGR
  2
AcAmContextMgr
  3
DesignerAssemblies
 90
        0
280
     0
281
     0
  0
CLASS
  1
ACAMCONTEXTMODELER
  2
AcAmContextModeler
  3
DesignerAssemblies
 90
        0
280
     0
281
     0
  0
CLASS
  1
ACMDATADICTIONARY
  2
AcmDataDictionary
  3
"AcmSymBB|Product Description: AutoCAD Mechanical 2000|Company: Autodesk"
 90
        0
280
     0
281
     0
  0
CLASS
  1
ACMDATAENTRYBLOCK
  2
AcmDataEntryBlock
  3
"AcmSymBB|Product Description: AutoCAD Mechanical 2000|Company: Autodesk"
 90
        0
280
     0
281
     0
  0
CLASS
  1
CATALOGSTATE
  2
AcAmCatalogState
  3
DesignerAssemblies
 90
        0
280
     0
281
     0
  0
CLASS
  1
ACAMGRCOMPDEFSET
  2
AcAmGrCompDefSet
  3
DesignerAssemblies
 90
        0
280
     0
281
     0
  0
CLASS
  1
AMDTBROWSERDBTAB
  2
AmdtBrowserDbTab
  3
McadcomServices
 90
        0
280
     0
281
     0
  0
CLASS
  1
CBROWSERAPPOBJECT
  2
CBrowserAppObject
  3
McadcomServices
 90
        0
280
     0
281
     0
  0
CLASS
  1
DM_PLACEHOLDER
  2
AcDmSelsetPlaceholder
  3
AcMechDwgViewMgmt
 90
        0
280
     0
281
     0
  0
CLASS
  1
AMGOBJPROPCFG
  2
AmgObjPropCfg
  3
"AmgLay|Product Description: AutoCAD Mechanical 2000|Company: Autodesk"
 90
        1
280
     0
281
     0
  0
CLASS
  1
ACAMGFILTERDAT
  2
AcAmgFilterDat
  3
"AcadM|Product Description: AutoCAD Mechanical 2000|Company: Autodesk"
 90
        0
280
     0
281
     0
  0
CLASS
  1
LAYER_INDEX
  2
AcDbLayerIndex
  3
AutoCAD 2000
 90
        0
280
     0
281
     0
  0
CLASS
  1
IDBUFFER
  2
AcDbIdBuffer
  3
AutoCAD 2000
 90
        0
280
     0
281
     0
  0
CLASS
  1
DICTIONARYVAR
  2
AcDbDictionaryVar
  3
AutoCAD 2000
 90
        0
280
     0
281
     0
  0
ENDSEC
  0
SECTION
  2
TABLES
  0
TABLE
  2
VPORT
  5
D5
330
0
100
AcDbSymbolTable
 70
     3
  0
VPORT
  5
253
330
D5
100
AcDbSymbolTableRecord
100
AcDbViewportTableRecord
  2
*Active
 70
     0
 10
0.0
 20
0.0
 11
1.0
 21
1.0
 12
0.0
 22
0.0
 13
0.0
 23
0.0
 14
0.5
 24
0.5
 15
1.0
 25
1.0
 16
0.0
 26
0.0
 36
1.0
 17
126.8117978850144
 27
85.124496
 37
0.0
 40
340.4979839999999
 41
1.489721886336154
 42
50.0
 43
0.0
 44
0.0
 50
0.0
 51
0.0
 71
     0
 72
   500
 73
     1
 74
     1
 75
     0
 76
     0
 77
     0
 78
     1
281
     0
 65
     0
110
0.0
120
0.0
130
0.0
111
1.0
121
0.0
131
0.0
112
0.0
122
1.0
132
0.0
 79
     0
146
0.0
  0
ENDTAB
  0
TABLE
  2
LTYPE
  5
D2
330
0
100
AcDbSymbolTable
 70
    16
  0
LTYPE
  5
E0
330
D2
100
AcDbSymbolTableRecord
100
AcDbLinetypeTableRecord
  2
ByBlock
 70
     0
  3

 72
    65
 73
     0
 40
0.0
  0
LTYPE
  5
E1
330
D2
100
AcDbSymbolTableRecord
100
AcDbLinetypeTableRecord
  2
ByLayer
 70
     0
  3

 72
    65
 73
     0
 40
0.0
  0
LTYPE
  5
E2
330
D2
100
AcDbSymbolTableRecord
100
AcDbLinetypeTableRecord
  2
CONTINUOUS
 70
     0
  3
実線
 72
    65
 73
     0
 40
0.0
  0
LTYPE
  5
F1
330
D2
100
AcDbSymbolTableRecord
100
AcDbLinetypeTableRecord
  2
CENTER
 70
     0
  3
____ _ ____ _ ____ _ ____ _ ____ _ ____ _ ____
 72
    65
 73
     4
 40
2.0
 49
1.25
 74
     0
 49
-0.25
 74
     0
 49
0.25
 74
     0
 49
-0.25
 74
     0
  0
LTYPE
  5
18F
330
D2
100
AcDbSymbolTableRecord
100
AcDbLinetypeTableRecord
  2
HIDDEN
 70
     0
  3
Hidden __ __ __ __ __ __ __ __ __ __ __ __ __ _
 72
    65
 73
     2
 40
0.375
 49
0.25
 74
     0
 49
-0.125
 74
     0
  0
LTYPE
  5
190
330
D2
100
AcDbSymbolTableRecord
100
AcDbLinetypeTableRecord
  2
PHANTOM2
 70
     0
  3
Phantom (.5x) ___ _ _ ___ _ _ ___ _ _ ___ _ _
 72
    65
 73
     6
 40
1.25
 49
0.625
 74
     0
 49
-0.125
 74
     0
 49
0.125
 74
     0
 49
-0.125
 74
     0
 49
0.125
 74
     0
 49
-0.125
 74
     0
  0
LTYPE
  5
1F2
330
D2
100
AcDbSymbolTableRecord
100
AcDbLinetypeTableRecord
  2
ASULTYPE
 70
     0
  3
実線
 72
    65
 73
     2
 40
3.0
 49
2.5
 74
     0
 49
0.5
 74
     0
  0
LTYPE
  5
1F3
330
D2
100
AcDbSymbolTableRecord
100
AcDbLinetypeTableRecord
  2
ASVLTYPE
 70
     0
  3
__ __ __ __ __ __ __ __ __ __ __ __ __ __ __ __ __ __ __ __ __
 72
    65
 73
     2
 40
0.75
 49
0.5
 74
     0
 49
-0.25
 74
     0
  0
LTYPE
  5
234
330
D2
100
AcDbSymbolTableRecord
100
AcDbLinetypeTableRecord
  2
AM_ISO02W050
 70
     0
  3
__ __ __ __ __ __ __ __ __ __ __ __ __ __ __
 72
    65
 73
     2
 40
7.5
 49
6.0
 74
     0
 49
-1.5
 74
     0
  0
LTYPE
  5
235
330
D2
100
AcDbSymbolTableRecord
100
AcDbLinetypeTableRecord
  2
AM_ISO08W050
 70
     0
  3
____ . ____ . ____ . ____ . ____ . ____ . ____
 72
    65
 73
     4
 40
18.0
 49
12.0
 74
     0
 49
-1.5
 74
     0
 49
3.0
 74
     0
 49
-1.5
 74
     0
  0
LTYPE
  5
236
330
D2
100
AcDbSymbolTableRecord
100
AcDbLinetypeTableRecord
  2
AM_ISO09W050
 70
     0
  3
_____ . . _____ . . _____ . . ____ .. ____
 72
    65
 73
     6
 40
22.5
 49
12.0
 74
     0
 49
-1.5
 74
     0
 49
3.0
 74
     0
 49
-1.5
 74
     0
 49
3.0
 74
     0
 49
-1.5
 74
     0
  0
LTYPE
  5
237
330
D2
100
AcDbSymbolTableRecord
100
AcDbLinetypeTableRecord
  2
Amconstr
 70
     0
  3
_______________________
 72
    65
 73
     2
 40
9999.0
 49
9999.0
 74
     0
 49
0.0
 74
     0
  0
LTYPE
  5
238
330
D2
100
AcDbSymbolTableRecord
100
AcDbLinetypeTableRecord
  2
AM_ISO08W050x2
 70
     0
  3
__ . __ . __ . __ . __ . __
 72
    65
 73
     4
 40
9.0
 49
6.0
 74
     0
 49
-0.75
 74
     0
 49
1.5
 74
     0
 49
-0.75
 74
     0
  0
LTYPE
  5
239
330
D2
100
AcDbSymbolTableRecord
100
AcDbLinetypeTableRecord
  2
AM_ISO02W050x2
 70
     0
  3
 _ _ _ _ _ _ _ _ _ _ _ _
 72
    65
 73
     2
 40
3.75
 49
3.0
 74
     0
 49
-0.75
 74
     0
  0
LTYPE
  5
23C
330
D2
100
AcDbSymbolTableRecord
100
AcDbLinetypeTableRecord
  2
Amzigzag
 70
     0
  3
/\/-/\/-/\/-/\/-/\/-/\/
 72
    65
 73
     2
 40
11.00009999999999
 49
0.0001
 74
     4
 75
   135
340
23B
 46
0.04
 50
0.0
 44
0.0
 45
0.0
 49
-11.0
 74
     0
  0
LTYPE
  5
23D
330
D2
100
AcDbSymbolTableRecord
100
AcDbLinetypeTableRecord
  2
CENTER2
 70
     0
  3
Center (.5x) ___ _ ___ _ ___ _ ___ _ ___ _ ___
 72
    65
 73
     4
 40
1.125
 49
0.75
 74
     0
 49
-0.125
 74
     0
 49
0.125
 74
     0
 49
-0.125
 74
     0
  0
LTYPE
  5
23E
330
D2
100
AcDbSymbolTableRecord
100
AcDbLinetypeTableRecord
  2
HIDDEN2
 70
     0
  3
Hidden (.5x) _ _ _ _ _ _ _ _ _ _ _ _ _ _ _ _ _
 72
    65
 73
     2
 40
0.1875
 49
0.125
 74
     0
 49
-0.0625
 74
     0
  0
LTYPE
  5
23F
330
D2
100
AcDbSymbolTableRecord
100
AcDbLinetypeTableRecord
  2
Amzigzag2
 70
     0
  3
/\/-/\/-/\/-/\/-/\/-/\/
 72
    65
 73
     2
 40
0.4401
 49
0.0001
 74
     4
 75
   135
340
23B
 46
0.0016
 50
0.0
 44
0.0
 45
0.0
 49
-0.4400000000000001
 74
     0
  0
ENDTAB
  0
TABLE
  2
LAYER
  5
CF
330
0
100
AcDbSymbolTable
 70
     5
  0
LAYER
  5
DD
330
CF
100
AcDbSymbolTableRecord
100
AcDbLayerTableRecord
  2
0
 70
     0
 62
     7
  6
CONTINUOUS
370
    -3
390
DC
  0
LAYER
  5
F2
330
CF
100
AcDbSymbolTableRecord
100
AcDbLayerTableRecord
  2
1
 70
     0
 62
     1
  6
CENTER
370
    -3
390
DC
  0
LAYER
  5
F3
330
CF
100
AcDbSymbolTableRecord
100
AcDbLayerTableRecord
  2
3
 70
     0
 62
     3
  6
CONTINUOUS
370
    -3
390
DC
  0
LAYER
  5
F4
330
CF
100
AcDbSymbolTableRecord
100
AcDbLayerTableRecord
  2
10
 70
     0
 62
     7
  6
CONTINUOUS
370
    -3
390
DC
  0
LAYER
  5
F5
330
CF
100
AcDbSymbolTableRecord
100
AcDbLayerTableRecord
  2
11
 70
     0
 62
     3
  6
CONTINUOUS
370
    -3
390
DC
  0
ENDTAB
  0
TABLE
  2
STYLE
  5
D0
330
0
100
AcDbSymbolTable
 70
     4
  0
STYLE
  5
DE
330
D0
100
AcDbSymbolTableRecord
100
AcDbTextStyleTableRecord
  2
STANDARD
 70
     0
 40
0.0
 41
1.0
 50
0.0
 71
     0
 42
0.2
  3
TXT
  4
BIGFONT
  0
STYLE
  5
EF
330
D0
100
AcDbSymbolTableRecord
100
AcDbTextStyleTableRecord
  2
BIGFONT
 70
     0
 40
3.0
 41
0.8
 50
0.0
 71
     0
 42
3.0
  3

  4
bigfont
  0
STYLE
  5
F6
330
D0
100
AcDbSymbolTableRecord
100
AcDbTextStyleTableRecord
  2
07500
 70
     0
 40
0.0
 41
0.75
 50
0.0
 71
     0
 42
6.0
  3
TXT
  4
BIGFONT
  0
STYLE
  5
23B
330
D0
100
AcDbSymbolTableRecord
100
AcDbTextStyleTableRecord
  2

 70
     1
 40
0.0
 41
1.0
 50
0.0
 71
     0
 42
3.0
  3
ltypeshp.shx
  4

  0
ENDTAB
  0
TABLE
  2
VIEW
  5
D3
330
0
100
AcDbSymbolTable
 70
     1
  0
VIEW
  5
F7
330
D3
100
AcDbSymbolTableRecord
100
AcDbViewTableRecord
  2
ALL
 70
     0
 40
135.0
 10
110.495798
 20
67.5
 41
0.0
 11
0.0
 21
0.0
 31
1.0
 12
0.0
 22
0.0
 32
0.0
 42
0.0
 43
0.0
 44
0.0
 50
0.0
 71
     0
281
     0
 72
     0
  0
ENDTAB
  0
TABLE
  2
UCS
  5
D4
330
0
100
AcDbSymbolTable
 70
     0
  0
ENDTAB
  0
TABLE
  2
APPID
  5
D6
330
0
100
AcDbSymbolTable
 70
    12
  0
APPID
  5
DF
330
D6
100
AcDbSymbolTableRecord
100
AcDbRegAppTableRecord
  2
ACAD
 70
     0
  0
APPID
  5
16E
330
D6
100
AcDbSymbolTableRecord
100
AcDbRegAppTableRecord
  2
GENIUS_GENDIM_13
 70
     0
  0
APPID
  5
16F
330
D6
100
AcDbSymbolTableRecord
100
AcDbRegAppTableRecord
  2
GENIUS_GENDTOL_13
 70
     0
  0
APPID
  5
170
330
D6
100
AcDbSymbolTableRecord
100
AcDbRegAppTableRecord
  2
GENIUS_GE3DTOL_13
 70
     0
  0
APPID
  5
172
330
D6
100
AcDbSymbolTableRecord
100
AcDbRegAppTableRecord
  2
MCAD_NO_VIS
 70
     0
  0
APPID
  5
173
330
D6
100
AcDbSymbolTableRecord
100
AcDbRegAppTableRecord
  2
ACAD_TEMP_GRAPHIC
 70
     0
  0
APPID
  5
1A5
330
D6
100
AcDbSymbolTableRecord
100
AcDbRegAppTableRecord
  2
AD_DRAW
 70
     0
  0
APPID
  5
1A8
330
D6
100
AcDbSymbolTableRecord
100
AcDbRegAppTableRecord
  2
ACATTRIBSERVICES
 70
     0
  0
APPID
  5
1F4
330
D6
100
AcDbSymbolTableRecord
100
AcDbRegAppTableRecord
  2
ASURF_PCURVE_APPNAME
 70
     0
  0
APPID
  5
223
330
D6
100
AcDbSymbolTableRecord
100
AcDbRegAppTableRecord
  2
DESIGNERASSEMBLIES
 70
     0
  0
APPID
  5
22B
330
D6
100
AcDbSymbolTableRecord
100
AcDbRegAppTableRecord
  2
ACADM_DIM_EDIT
 70
     0
  0
APPID
  5
22C
330
D6
100
AcDbSymbolTableRecord
100
AcDbRegAppTableRecord
  2
AMDT_DM_ADJ
 70
     0
  0
ENDTAB
  0
TABLE
  2
DIMSTYLE
  5
D7
330
0
100
AcDbSymbolTable
 70
     1
100
AcDbDimStyleTable
 71
     1
340
F8
  0
DIMSTYLE
105
F8
330
D7
100
AcDbSymbolTableRecord
100
AcDbDimStyleTableRecord
  2
STANDARD
 70
     0
279
     2
340
EF
  0
ENDTAB
  0
TABLE
  2
BLOCK_RECORD
  5
CE
330
0
100
AcDbSymbolTable
 70
     4
  0
BLOCK_RECORD
  5
EB
102
{ACAD_XDICTIONARY
360
248
102
}
330
CE
100
AcDbSymbolTableRecord
100
AcDbBlockTableRecord
  2
*Model_Space
340
EE
  0
BLOCK_RECORD
  5
E7
330
CE
100
AcDbSymbolTableRecord
100
AcDbBlockTableRecord
  2
*Paper_Space
340
EA
  0
BLOCK_RECORD
  5
FB
330
CE
100
AcDbSymbolTableRecord
100
AcDbBlockTableRecord
  2
$MODEL_SPACE
340
0
  0
BLOCK_RECORD
  5
FE
330
CE
100
AcDbSymbolTableRecord
100
AcDbBlockTableRecord
  2
$PAPER_SPACE
340
0
  0
BLOCK_RECORD
  5
101
330
CE
100
AcDbSymbolTableRecord
100
AcDbBlockTableRecord
  2
QQ
340
0
102
{BLKREFS
331
13D
102
}
  0
BLOCK_RECORD
  5
21A
330
CE
100
AcDbSymbolTableRecord
100
AcDbBlockTableRecord
  2
*U3
340
0
  0
ENDTAB
  0
ENDSEC
  0
SECTION
  2
BLOCKS
  0
BLOCK
  5
EC
330
EB
100
AcDbEntity
  8
0
100
AcDbBlockBegin
  2
*Model_Space
 70
     0
 10
0.0
 20
0.0
 30
0.0
  3
*Model_Space
  1

  0
ENDBLK
  5
ED
330
EB
100
AcDbEntity
  8
0
100
AcDbBlockEnd
  0
BLOCK
  5
E8
330
E7
100
AcDbEntity
 67
     1
  8
0
100
AcDbBlockBegin
  2
*Paper_Space
 70
     0
 10
0.0
 20
0.0
 30
0.0
  3
*Paper_Space
  1

  0
ENDBLK
  5
E9
330
E7
100
AcDbEntity
 67
     1
  8
0
100
AcDbBlockEnd
  0
BLOCK
  5
FC
330
FB
100
AcDbEntity
  8
0
100
AcDbBlockBegin
  2
$MODEL_SPACE
 70
     0
 10
0.0
 20
0.0
 30
0.0
  3
$MODEL_SPACE
  1

  0
ENDBLK
  5
FD
330
FB
100
AcDbEntity
  8
0
100
AcDbBlockEnd
  0
BLOCK
  5
FF
330
FE
100
AcDbEntity
  8
0
100
AcDbBlockBegin
  2
$PAPER_SPACE
 70
     0
 10
0.0
 20
0.0
 30
0.0
  3
$PAPER_SPACE
  1

  0
ENDBLK
  5
100
330
FE
100
AcDbEntity
  8
0
100
AcDbBlockEnd
  0
BLOCK
  5
102
330
101
100
AcDbEntity
  8
0
100
AcDbBlockBegin
  2
QQ
 70
     0
 10
270.0
 20
0.0
 30
0.0
  3
QQ
  1

  0
LINE
  5
103
330
101
100
AcDbEntity
  8
11
100
AcDbLine
 10
173.0
 20
36.0
 30
0.0
 11
270.0
 21
36.0
 31
0.0
  0
TEXT
  5
104
330
101
100
AcDbEntity
  8
11
100
AcDbText
 10
175.0
 20
32.5
 30
0.0
 40
2.5
  1
部品名称
100
AcDbText
  0
LINE
  5
105
330
101
100
AcDbEntity
  8
11
100
AcDbLine
 10
173.0
 20
36.0
 30
0.0
 11
173.0
 21
0.0
 31
0.0
  0
LINE
  5
106
330
101
100
AcDbEntity
  8
11
100
AcDbLine
 10
173.0
 20
24.0
 30
0.0
 11
270.0
 21
24.0
 31
0.0
  0
TEXT
  5
107
330
101
100
AcDbEntity
  8
11
100
AcDbText
 10
175.0
 20
20.5
 30
0.0
 40
2.5
  1
品番
100
AcDbText
  0
LINE
  5
108
330
101
100
AcDbEntity
  8
11
100
AcDbLine
 10
173.0
 20
12.0
 30
0.0
 11
270.0
 21
12.0
 31
0.0
  0
TEXT
  5
109
330
101
100
AcDbEntity
  8
11
100
AcDbText
 10
175.0
 20
8.5
 30
0.0
 40
2.5
  1
尺度
100
AcDbText
  0
TEXT
  5
10A
330
101
100
AcDbEntity
  8
11
100
AcDbText
 10
200.0
 20
8.5
 30
0.0
 40
2.5
  1
図番
100
AcDbText
  0
LINE
  5
10B
330
101
100
AcDbEntity
  8
11
100
AcDbLine
 10
198.0
 20
0.0
 30
0.0
 11
198.0
 21
12.0
 31
0.0
  0
ENDBLK
  5
10C
330
101
100
AcDbEntity
  8
0
100
AcDbBlockEnd
  0
BLOCK
  5
21B
330
21A
100
AcDbEntity
  8
0
100
AcDbBlockBegin
  2
*U3
 70
     1
 10
0.0
 20
0.0
 30
0.0
  3
*U3
  1

  0
ENDBLK
  5
21C
330
21A
100
AcDbEntity
  8
0
100
AcDbBlockEnd
  0
ENDSEC
  0
SECTION
  2
ENTITIES
  0
LINE
  5
10D
330
EB
100
AcDbEntity
  8
0
100
AcDbLine
 10
75.0
 20
61.0
 30
0.0
 11
75.0
 21
69.0
 31
0.0
  0
CIRCLE
  5
10E
330
EB
100
AcDbEntity
  8
0
100
AcDbCircle
 10
35.0
 20
65.0
 30
0.0
 40
6.5
  0
CIRCLE
  5
10F
330
EB
100
AcDbEntity
  8
0
100
AcDbCircle
 10
35.0
 20
65.0
 30
0.0
 40
4.0
  0
CIRCLE
  5
110
330
EB
100
AcDbEntity
  8
0
100
AcDbCircle
 10
35.0
 20
65.0
 30
0.0
 40
2.5
  0
CIRCLE
  5
111
330
EB
100
AcDbEntity
  8
3
100
AcDbCircle
 10
35.0
 20
65.0
 30
0.0
 40
2.066999999999999
  0
LINE
  5
112
330
EB
100
AcDbEntity
  8
1
100
AcDbLine
 10
62.5
 20
65.0
 30
0.0
 11
117.5
 21
65.0
 31
0.0
  0
LINE
  5
113
330
EB
100
AcDbEntity
  8
0
100
AcDbLine
 10
65.0
 20
63.39999999999999
 30
0.0
 11
65.0
 21
66.6
 31
0.0
  0
LINE
  5
114
330
EB
100
AcDbEntity
  8
0
100
AcDbLine
 10
65.9
 20
62.5
 30
0.0
 11
65.9
 21
67.5
 31
0.0
  0
LINE
  5
115
330
EB
100
AcDbEntity
  8
0
100
AcDbLine
 10
65.9
 20
62.5
 30
0.0
 11
74.59999999999999
 21
62.5
 31
0.0
  0
LINE
  5
116
330
EB
100
AcDbEntity
  8
0
100
AcDbLine
 10
65.9
 20
67.5
 30
0.0
 11
74.59999999999999
 21
67.5
 31
0.0
  0
LINE
  5
117
330
EB
100
AcDbEntity
  8
3
100
AcDbLine
 10
65.467
 20
62.933
 30
0.0
 11
74.1
 21
62.933
 31
0.0
  0
LINE
  5
118
330
EB
100
AcDbEntity
  8
3
100
AcDbLine
 10
65.467
 20
67.06699999999999
 30
0.0
 11
74.1
 21
67.06699999999999
 31
0.0
  0
LINE
  5
119
330
EB
100
AcDbEntity
  8
0
100
AcDbLine
 10
74.1
 20
62.5
 30
0.0
 11
74.1
 21
67.5
 31
0.0
  0
ARC
  5
11A
330
EB
100
AcDbEntity
  8
0
100
AcDbCircle
 10
74.59999999999999
 20
62.1
 30
0.0
 40
0.4
100
AcDbArc
 50
0.0
 51
90.0
  0
ARC
  5
11B
330
EB
100
AcDbEntity
  8
0
100
AcDbCircle
 10
74.59999999999999
 20
67.9
 30
0.0
 40
0.4
100
AcDbArc
 50
270.0
 51
0.0
  0
LINE
  5
11C
330
EB
100
AcDbEntity
  8
0
100
AcDbLine
 10
65.0
 20
63.39999999999999
 30
0.0
 11
65.9
 21
62.5
 31
0.0
  0
LINE
  5
11D
330
EB
100
AcDbEntity
  8
0
100
AcDbLine
 10
65.0
 20
66.6
 30
0.0
 11
65.9
 21
67.5
 31
0.0
  0
LINE
  5
11E
330
EB
100
AcDbEntity
  8
0
100
AcDbLine
 10
79.917012
 20
69.0
 30
0.0
 11
79.917012
 21
61.0
 31
0.0
  0
ARC
  5
11F
330
EB
100
AcDbEntity
  8
0
100
AcDbCircle
 10
100.0
 20
82.5
 30
0.0
 40
24.0
100
AcDbArc
 50
246.567785
 51
305.967391
  0
ARC
  5
120
330
EB
100
AcDbEntity
  8
0
100
AcDbCircle
 10
84.51999999999999
 20
47.25
 30
0.0
 40
14.5
100
AcDbArc
 50
65.83385600000001
 51
108.508628
  0
LINE
  5
121
330
EB
100
AcDbEntity
  8
0
100
AcDbLine
 10
79.917012
 20
61.0
 30
0.0
 11
75.0
 21
61.0
 31
0.0
  0
LINE
  5
122
330
EB
100
AcDbEntity
  8
0
100
AcDbLine
 10
79.917012
 20
69.0
 30
0.0
 11
75.0
 21
69.0
 31
0.0
  0
ARC
  5
123
330
EB
100
AcDbEntity
  8
0
100
AcDbCircle
 10
84.51999999999999
 20
82.75
 30
0.0
 40
14.5
100
AcDbArc
 50
251.491372
 51
294.1661439999999
  0
ARC
  5
124
330
EB
100
AcDbEntity
  8
0
100
AcDbCircle
 10
100.0
 20
47.5
 30
0.0
 40
24.0
100
AcDbArc
 50
54.03260899999999
 51
113.432215
  0
ARC
  5
125
330
EB
100
AcDbEntity
  8
0
100
AcDbCircle
 10
112.5
 20
65.0
 30
0.0
 40
2.5
100
AcDbArc
 50
309.66646
 51
50.33354
  0
CIRCLE
  5
126
330
EB
100
AcDbEntity
  8
0
100
AcDbCircle
 10
145.0
 20
65.0
 30
0.0
 40
6.5
  0
ARC
  5
127
330
EB
100
AcDbEntity
  8
0
100
AcDbCircle
 10
112.5
 20
95.0
 30
0.0
 40
2.5
100
AcDbArc
 50
309.66646
 51
50.33354
  0
ARC
  5
128
330
EB
100
AcDbEntity
  8
0
100
AcDbCircle
 10
100.0
 20
77.5
 30
0.0
 40
24.0
100
AcDbArc
 50
54.03260899999999
 51
113.432215
  0
ARC
  5
129
330
EB
100
AcDbEntity
  8
0
100
AcDbCircle
 10
84.51999999999999
 20
112.7499999999999
 30
0.0
 40
14.5
100
AcDbArc
 50
251.491372
 51
294.1661439999999
  0
ARC
  5
12A
330
EB
100
AcDbEntity
  8
0
100
AcDbCircle
 10
84.51999999999999
 20
77.25
 30
0.0
 40
14.5
100
AcDbArc
 50
65.83385600000001
 51
108.508628
  0
ARC
  5
12B
330
EB
100
AcDbEntity
  8
0
100
AcDbCircle
 10
100.0
 20
112.5
 30
0.0
 40
24.0
100
AcDbArc
 50
246.567785
 51
305.967391
  0
LINE
  5
12C
330
EB
100
AcDbEntity
  8
0
100
AcDbLine
 10
79.917012
 20
99.0
 30
0.0
 11
79.917012
 21
91.0
 31
0.0
  0
LINE
  5
12D
330
EB
100
AcDbEntity
  8
0
100
AcDbLine
 10
65.0
 20
96.6
 30
0.0
 11
65.9
 21
97.5
 31
0.0
  0
LINE
  5
12E
330
EB
100
AcDbEntity
  8
0
100
AcDbLine
 10
65.0
 20
93.40000000000001
 30
0.0
 11
65.9
 21
92.5
 31
0.0
  0
ARC
  5
12F
330
EB
100
AcDbEntity
  8
0
100
AcDbCircle
 10
74.59999999999999
 20
97.9
 30
0.0
 40
0.4
100
AcDbArc
 50
270.0
 51
0.0
  0
ARC
  5
130
330
EB
100
AcDbEntity
  8
0
100
AcDbCircle
 10
74.59999999999999
 20
92.09999999999999
 30
0.0
 40
0.4
100
AcDbArc
 50
0.0
 51
90.0
  0
LINE
  5
131
330
EB
100
AcDbEntity
  8
0
100
AcDbLine
 10
74.1
 20
92.5
 30
0.0
 11
74.1
 21
97.5
 31
0.0
  0
LINE
  5
132
330
EB
100
AcDbEntity
  8
3
100
AcDbLine
 10
65.467
 20
97.06700000000001
 30
0.0
 11
74.1
 21
97.06700000000001
 31
0.0
  0
LINE
  5
133
330
EB
100
AcDbEntity
  8
3
100
AcDbLine
 10
65.467
 20
92.933
 30
0.0
 11
74.1
 21
92.933
 31
0.0
  0
LINE
  5
134
330
EB
100
AcDbEntity
  8
0
100
AcDbLine
 10
65.9
 20
97.5
 30
0.0
 11
74.59999999999999
 21
97.5
 31
0.0
  0
LINE
  5
135
330
EB
100
AcDbEntity
  8
0
100
AcDbLine
 10
65.9
 20
92.5
 30
0.0
 11
74.59999999999999
 21
92.5
 31
0.0
  0
LINE
  5
136
330
EB
100
AcDbEntity
  8
0
100
AcDbLine
 10
65.9
 20
92.5
 30
0.0
 11
65.9
 21
97.5
 31
0.0
  0
LINE
  5
137
330
EB
100
AcDbEntity
  8
0
100
AcDbLine
 10
65.0
 20
93.40000000000001
 30
0.0
 11
65.0
 21
96.6
 31
0.0
  0
LINE
  5
138
330
EB
100
AcDbEntity
  8
1
100
AcDbLine
 10
62.5
 20
95.0
 30
0.0
 11
117.5
 21
95.0
 31
0.0
  0
LINE
  5
139
330
EB
100
AcDbEntity
  8
1
100
AcDbLine
 10
44.0
 20
65.0
 30
0.0
 11
26.0
 21
65.0
 31
0.0
  0
LINE
  5
13A
330
EB
100
AcDbEntity
  8
1
100
AcDbLine
 10
35.0
 20
74.0
 30
0.0
 11
35.0
 21
56.0
 31
0.0
  0
LINE
  5
13B
330
EB
100
AcDbEntity
  8
1
100
AcDbLine
 10
154.0
 20
65.0
 30
0.0
 11
136.0
 21
65.0
 31
0.0
  0
LINE
  5
13C
330
EB
100
AcDbEntity
  8
1
100
AcDbLine
 10
145.0
 20
74.0
 30
0.0
 11
145.0
 21
56.0
 31
0.0
  0
TEXT
  5
144
330
EB
100
AcDbEntity
  8
11
100
AcDbText
 10
140.663282
 20
5.976455999999999
 30
0.0
 40
3.0
  1
Ｃ－１３
 41
0.8
  7
BIGFONT
100
AcDbText
  0
POLYLINE
  5
145
330
EB
100
AcDbEntity
  8
0
100
AcDb2dPolyline
 66
     1
 10
0.0
 20
0.0
 30
0.0
 70
   129
  0
VERTEX
  5
146
330
145
100
AcDbEntity
  8
0
100
AcDbVertex
100
AcDb2dVertex
 10
35.0
 20
69.0
 30
0.0
  0
VERTEX
  5
147
330
145
100
AcDbEntity
  8
0
100
AcDbVertex
100
AcDb2dVertex
 10
31.535898
 20
67.0
 30
0.0
  0
VERTEX
  5
148
330
145
100
AcDbEntity
  8
0
100
AcDbVertex
100
AcDb2dVertex
 10
31.535898
 20
63.0
 30
0.0
  0
VERTEX
  5
149
330
145
100
AcDbEntity
  8
0
100
AcDbVertex
100
AcDb2dVertex
 10
35.0
 20
61.0
 30
0.0
  0
VERTEX
  5
14A
330
145
100
AcDbEntity
  8
0
100
AcDbVertex
100
AcDb2dVertex
 10
38.464102
 20
63.0
 30
0.0
  0
VERTEX
  5
14B
330
145
100
AcDbEntity
  8
0
100
AcDbVertex
100
AcDb2dVertex
 10
38.464102
 20
67.0
 30
0.0
  0
SEQEND
  5
14C
330
145
100
AcDbEntity
  8
0
  0
LINE
  5
14D
330
EB
100
AcDbEntity
  8
0
100
AcDbLine
 10
75.0
 20
67.0
 30
0.0
 11
79.829498
 21
67.01128199999999
 31
0.0
  0
LINE
  5
14E
330
EB
100
AcDbEntity
  8
0
100
AcDbLine
 10
75.0
 20
63.0
 30
0.0
 11
79.89106200000001
 21
63.01224699999999
 31
0.0
  0
LINE
  5
14F
330
EB
100
AcDbEntity
  8
0
100
AcDbLine
 10
75.01906899999998
 20
98.44006800000002
 30
0.0
 11
79.919477
 21
98.44006800000002
 31
0.0
  0
LINE
  5
150
330
EB
100
AcDbEntity
  8
0
100
AcDbLine
 10
75.01906899999998
 20
91.49486299999999
 30
0.0
 11
79.919477
 21
91.49486299999999
 31
0.0
  0
LINE
  5
151
330
EB
100
AcDbEntity
  8
0
100
AcDbLine
 10
75.01906899999998
 20
95.011986
 30
0.0
 11
79.874927
 21
95.011986
 31
0.0
  0
LINE
  5
152
330
EB
100
AcDbEntity
  8
0
100
AcDbLine
 10
75.0
 20
91.499246
 30
0.0
 11
75.0
 21
98.438048
 31
0.0
  0
LINE
  5
153
330
EB
100
AcDbEntity
  8
1
100
AcDbLine
 10
62.5
 20
35.128424
 30
0.0
 11
117.5
 21
35.128424
 31
0.0
  0
LINE
  5
154
330
EB
100
AcDbEntity
  8
0
100
AcDbLine
 10
65.9
 20
32.628424
 30
0.0
 11
74.59999999999999
 21
32.628424
 31
0.0
  0
LINE
  5
155
330
EB
100
AcDbEntity
  8
0
100
AcDbLine
 10
65.9
 20
37.628424
 30
0.0
 11
74.59999999999999
 21
37.628424
 31
0.0
  0
LINE
  5
156
330
EB
100
AcDbEntity
  8
3
100
AcDbLine
 10
65.467
 20
33.061424
 30
0.0
 11
74.1
 21
33.061424
 31
0.0
  0
LINE
  5
157
330
EB
100
AcDbEntity
  8
3
100
AcDbLine
 10
65.467
 20
37.19542399999999
 30
0.0
 11
74.1
 21
37.19542399999999
 31
0.0
  0
LINE
  5
158
330
EB
100
AcDbEntity
  8
0
100
AcDbLine
 10
65.0
 20
33.528424
 30
0.0
 11
65.0
 21
36.72842399999999
 31
0.0
  0
LINE
  5
159
330
EB
100
AcDbEntity
  8
0
100
AcDbLine
 10
65.9
 20
32.628424
 30
0.0
 11
65.9
 21
37.628424
 31
0.0
  0
LINE
  5
15A
330
EB
100
AcDbEntity
  8
0
100
AcDbLine
 10
65.0
 20
33.528424
 30
0.0
 11
65.9
 21
32.628424
 31
0.0
  0
LINE
  5
15B
330
EB
100
AcDbEntity
  8
0
100
AcDbLine
 10
65.0
 20
36.72842399999999
 30
0.0
 11
65.9
 21
37.628424
 31
0.0
  0
ARC
  5
15C
330
EB
100
AcDbEntity
  8
0
100
AcDbCircle
 10
100.0
 20
52.628424
 30
0.0
 40
24.0
100
AcDbArc
 50
246.567785
 51
305.967391
  0
ARC
  5
15D
330
EB
100
AcDbEntity
  8
0
100
AcDbCircle
 10
100.0
 20
17.628424
 30
0.0
 40
24.0
100
AcDbArc
 50
54.03260899999999
 51
113.432215
  0
ARC
  5
15E
330
EB
100
AcDbEntity
  8
0
100
AcDbCircle
 10
84.51999999999999
 20
52.878424
 30
0.0
 40
14.5
100
AcDbArc
 50
251.491372
 51
294.1661439999999
  0
ARC
  5
15F
330
EB
100
AcDbEntity
  8
0
100
AcDbCircle
 10
84.51999999999999
 20
17.37842399999999
 30
0.0
 40
14.5
100
AcDbArc
 50
65.83385600000001
 51
108.508628
  0
LINE
  5
160
330
EB
100
AcDbEntity
  8
0
100
AcDbLine
 10
75.0
 20
31.627669
 30
0.0
 11
75.0
 21
38.56647199999999
 31
0.0
  0
LINE
  5
161
330
EB
100
AcDbEntity
  8
0
100
AcDbLine
 10
74.1
 20
32.628424
 30
0.0
 11
74.1
 21
37.628424
 31
0.0
  0
LINE
  5
162
330
EB
100
AcDbEntity
  8
0
100
AcDbLine
 10
79.917012
 20
39.128424
 30
0.0
 11
79.917012
 21
31.12842399999999
 31
0.0
  0
LINE
  5
163
330
EB
100
AcDbEntity
  8
0
100
AcDbLine
 10
75.01906899999998
 20
31.623286
 30
0.0
 11
79.919477
 21
31.623286
 31
0.0
  0
ARC
  5
164
330
EB
100
AcDbEntity
  8
0
100
AcDbCircle
 10
74.59999999999999
 20
32.22842399999999
 30
0.0
 40
0.4
100
AcDbArc
 50
0.0
 51
90.0
  0
LINE
  5
165
330
EB
100
AcDbEntity
  8
0
100
AcDbLine
 10
75.01906899999998
 20
35.140409
 30
0.0
 11
79.874927
 21
35.140409
 31
0.0
  0
LINE
  5
166
330
EB
100
AcDbEntity
  8
0
100
AcDbLine
 10
75.01906899999998
 20
38.568492
 30
0.0
 11
79.919477
 21
38.568492
 31
0.0
  0
ARC
  5
167
330
EB
100
AcDbEntity
  8
0
100
AcDbCircle
 10
74.59999999999999
 20
38.028424
 30
0.0
 40
0.4
100
AcDbArc
 50
270.0
 51
0.0
  0
ARC
  5
168
330
EB
100
AcDbEntity
  8
0
100
AcDbCircle
 10
112.5
 20
35.128424
 30
0.0
 40
2.5
100
AcDbArc
 50
309.66646
 51
50.33354
  0
ENDSEC
  0
SECTION
  2
OBJECTS
  0
DICTIONARY
  5
D9
330
0
100
AcDbDictionary
281
     1
  3
ACAD_GROUP
350
DA
  3
ACAD_LAYOUT
350
E6
  3
ACAD_MLINESTYLE
350
E3
  3
ACAD_PLOTSETTINGS
350
E5
  3
ACAD_PLOTSTYLENAME
350
DB
  3
AcDbVariableDictionary
350
250
  3
AcmDictionary
350
224
  3
AMG
350
16B
  3
AMGSNAPSETTINGS
350
241
  3
DWGPROPS
350
227
  3
MAPISURF_MODULE
350
1F7
  0
DICTIONARY
  5
248
330
EB
100
AcDbDictionary
280
     1
281
     1
  3
ACAD_INDEX
360
249
  0
DICTIONARY
  5
DA
102
{ACAD_REACTORS
330
D9
102
}
330
D9
100
AcDbDictionary
281
     1
  0
DICTIONARY
  5
E6
102
{ACAD_REACTORS
330
D9
102
}
330
D9
100
AcDbDictionary
281
     1
  3
Model
350
EE
  3
ﾚｲｱｳﾄ1
350
EA
  0
DICTIONARY
  5
E3
102
{ACAD_REACTORS
330
D9
102
}
330
D9
100
AcDbDictionary
281
     1
  3
Standard
350
E4
  0
DICTIONARY
  5
E5
102
{ACAD_REACTORS
330
D9
102
}
330
D9
100
AcDbDictionary
281
     1
  0
ACDBDICTIONARYWDFLT
  5
DB
102
{ACAD_REACTORS
330
D9
102
}
330
D9
100
AcDbDictionary
281
     1
  3
Normal
350
DC
100
AcDbDictionaryWithDefault
340
DC
  0
DICTIONARY
  5
250
102
{ACAD_REACTORS
330
D9
102
}
330
D9
100
AcDbDictionary
281
     1
  3
DIMASSOC
350
252
  3
INDEXCTL
350
251
  0
DICTIONARY
  5
224
102
{ACAD_REACTORS
330
D9
102
}
330
D9
100
AcDbDictionary
281
     1
  3
AcmBOMDATA
350
225
  0
DICTIONARY
  5
16B
102
{ACAD_REACTORS
330
D9
102
}
330
D9
100
AcDbDictionary
281
     1
  3
AcMgSettings
350
16C
  3
AMGLAYCFG
350
231
  0
DICTIONARY
  5
241
102
{ACAD_REACTORS
330
D9
102
}
330
D9
100
AcDbDictionary
281
     1
  3
DIMENSION
350
246
  3
FEA
350
245
  3
HATCH (1)
350
242
  3
HATCH (2)
350
243
  3
SIMPLE WELD
350
247
  3
SYMBOLS
350
244
  0
XRECORD
  5
227
102
{ACAD_REACTORS
330
D9
102
}
330
D9
100
AcDbXrecord
280
     1
  1
DWGPROPS COOKIE
  2

  3

  4

  6

  7

  8

  9

300
AmdtFileType=84
301
=
302
=
303
=
304
=
305
=
306
=
307
=
308
=
309
=
 40
0.0000025347222222
 41
2450683.649872997
 42
2450683.649872997
  1

 90
        1
  0
DICTIONARY
  5
249
102
{ACAD_REACTORS
330
248
102
}
330
248
100
AcDbDictionary
281
     1
  3
*A1
350
24A
  0
LAYOUT
  5
EE
102
{ACAD_REACTORS
330
E6
102
}
330
E6
100
AcDbPlotSettings
  1

  2
\\KONISHIDENXP\SHARP MX-2700FG
  4

  6

 40
0.0
 41
0.0
 42
0.0
 43
0.0
 44
0.0
 45
0.0
 46
0.0
 47
0.0
 48
0.0
 49
0.0
140
0.0
141
0.0
142
1.0
143
1.0
 70
  1712
 72
     0
 73
     0
 74
     0
  7

 75
     0
147
1.0
148
0.0
149
0.0
100
AcDbLayout
  1
Model
 70
     1
 71
     0
 10
0.0
 20
0.0
 11
12.0
 21
9.0
 12
0.0
 22
0.0
 32
0.0
 14
0.0
 24
0.0
 34
0.0
 15
0.0
 25
0.0
 35
0.0
146
0.0
 13
0.0
 23
0.0
 33
0.0
 16
1.0
 26
0.0
 36
0.0
 17
0.0
 27
1.0
 37
0.0
 76
     0
330
EB
  0
LAYOUT
  5
EA
102
{ACAD_REACTORS
330
E6
102
}
330
E6
100
AcDbPlotSettings
  1

  2
\\KONISHIDENXP\SHARP MX-2700FG
  4

  6

 40
0.0
 41
0.0
 42
0.0
 43
0.0
 44
0.0
 45
0.0
 46
0.0
 47
0.0
 48
0.0
 49
0.0
140
0.0
141
0.0
142
1.0
143
1.0
 70
   688
 72
     0
 73
     0
 74
     5
  7

 75
    16
147
1.0
148
0.0
149
0.0
100
AcDbLayout
  1
ﾚｲｱｳﾄ1
 70
     0
 71
     1
 10
0.0
 20
0.0
 11
12.0
 21
9.0
 12
0.0
 22
0.0
 32
0.0
 14
1.000000000000000E+20
 24
1.000000000000000E+20
 34
1.000000000000000E+20
 15
-1.000000000000000E+20
 25
-1.000000000000000E+20
 35
-1.000000000000000E+20
146
0.0
 13
0.0
 23
0.0
 33
0.0
 16
1.0
 26
0.0
 36
0.0
 17
0.0
 27
1.0
 37
0.0
 76
     0
330
E7
  0
MLINESTYLE
  5
E4
102
{ACAD_REACTORS
330
E3
102
}
330
E3
100
AcDbMlineStyle
  2
STANDARD
 70
     0
  3

 62
   256
 51
90.0
 52
90.0
 71
     2
 49
0.5
 62
   256
  6
BYLAYER
 49
-0.5
 62
   256
  6
BYLAYER
  0
ACDBPLACEHOLDER
  5
DC
102
{ACAD_REACTORS
330
DB
102
}
330
DB
  0
DICTIONARYVAR
  5
252
102
{ACAD_REACTORS
330
250
102
}
330
250
100
DictionaryVariables
280
     0
  1
0
  0
DICTIONARYVAR
  5
251
102
{ACAD_REACTORS
330
250
102
}
330
250
100
DictionaryVariables
280
     0
  1
1
  0
ACMDATADICTIONARY
  5
225
102
{ACAD_REACTORS
330
224
102
}
330
224
100
AcDbDictionary
281
     1
  3
*A1
350
226
100
AcmDataDictionary
  0
DICTIONARY
  5
16C
102
{ACAD_REACTORS
330
16B
102
}
330
16B
100
AcDbDictionary
281
     1
  3
DWGSETTINGS
350
16D
  0
ACAMGFILTERDAT
  5
246
102
{ACAD_REACTORS
330
241
102
}
330
241
100
AcAmgFilterDat
 70
    15
  1
DIMENSION,AMDT_*_DIM
  2
*
  3
*
  4
*
  5
*
290
     1
  0
ACAMGFILTERDAT
  5
245
102
{ACAD_REACTORS
330
241
102
}
330
241
100
AcAmgFilterDat
 70
    15
  1
*
  2
AM_FEA-AM_*
  3
*
  4
*
  5
*
290
     1
  0
ACAMGFILTERDAT
  5
242
102
{ACAD_REACTORS
330
241
102
}
330
241
100
AcAmgFilterDat
 70
    15
  1
HATCH
  2
*
  3
*
  4
*
  5
*
290
     1
  0
ACAMGFILTERDAT
  5
243
102
{ACAD_REACTORS
330
241
102
}
330
241
100
AcAmgFilterDat
 70
    15
  1
LINE
  2
8,8N,*-8,*-8N,AM_8,AM_8N,*-AM_8,*-AM_8N
  3
*
  4
*
  5
INSERT,STDPART2D
290
     1
  0
ACAMGFILTERDAT
  5
247
102
{ACAD_REACTORS
330
241
102
}
330
241
100
AcAmgFilterDat
 70
    15
  1
ARC
  2
AM_5
  3
*
  4
2
  5
INSERT
290
     0
  0
ACAMGFILTERDAT
  5
244
102
{ACAD_REACTORS
330
241
102
}
330
241
100
AcAmgFilterDat
 70
    15
  1
ACMFCFRAME,ACMDATUMTARGET,ACMDATUMID,ACMWELDSYM,ACMSURFSYM,ACMFEATID,ACMPARTREF,ACMBALLOON,AMDTEDGESYM,AMGSCREWCALCTABLE
  2
*
  3
*
  4
*
  5
*
290
     1
  0
LAYER_INDEX
  5
24A
102
{ACAD_REACTORS
330
249
102
}
330
249
100
AcDbIndex
 40
2456415.361908275
100
AcDbLayerIndex
  8
0
360
24B
 90
       63
  8
1
360
24C
 90
        7
  8
3
360
24D
 90
        7
  8
10
360
24E
 90
        0
  8
11
360
24F
 90
        1
  0
ACMDATAENTRYBLOCK
  5
226
102
{ACAD_REACTORS
330
225
102
}
330
225
100
AcmDataEntry
100
AcmDataEntryBlock
  0
IDBUFFER
  5
24B
330
0
100
AcDbIdBuffer
330
15A
330
15B
330
15C
330
15D
330
15E
330
15F
330
160
330
161
330
162
330
163
330
164
330
165
330
166
330
167
330
168
330
10D
330
10E
330
10F
330
110
330
113
330
114
330
115
330
116
330
119
330
11A
330
11B
330
11C
330
11D
330
11E
330
11F
330
120
330
121
330
122
330
123
330
124
330
125
330
126
330
127
330
128
330
129
330
12A
330
12B
330
12C
330
12D
330
12E
330
12F
330
130
330
131
330
134
330
135
330
136
330
137
330
145
330
14D
330
14E
330
14F
330
150
330
151
330
152
330
154
330
155
330
158
330
159
  0
IDBUFFER
  5
24C
330
0
100
AcDbIdBuffer
330
112
330
138
330
139
330
13A
330
13B
330
13C
330
153
  0
IDBUFFER
  5
24D
330
0
100
AcDbIdBuffer
330
111
330
117
330
118
330
132
330
133
330
156
330
157
  0
IDBUFFER
  5
24E
330
0
100
AcDbIdBuffer
  0
IDBUFFER
  5
24F
330
0
100
AcDbIdBuffer
330
144
  0
ENDSEC
  0
EOF
