  0
SECTION
  2
HEADER
  9
$ACADVER
  1
AC1015
  9
$ACADMAINTVER
 70
    13
  9
$DWGCODEPAGE
  3
ANSI_932
  9
$INSBASE
 10
0.0
 20
0.0
 30
0.0
  9
$EXTMIN
 10
0.0
 20
0.0
 30
0.0
  9
$EXTMAX
 10
1125.0
 20
810.0
 30
0.0
  9
$LIMMIN
 10
0.0
 20
0.0
  9
$LIMMAX
 10
1125.0
 20
810.0
  9
$ORTHOMODE
 70
     0
  9
$REGENMODE
 70
     1
  9
$FILLMODE
 70
     1
  9
$QTEXTMODE
 70
     0
  9
$MIRRTEXT
 70
     1
  9
$LTSCALE
 40
30.0
  9
$ATTMODE
 70
     1
  9
$TEXTSIZE
 40
15.0
  9
$TRACEWID
 40
0.05
  9
$TEXTSTYLE
  7
BIGFONT
  9
$CLAYER
  8
0
  9
$CELTYPE
  6
ByLayer
  9
$CECOLOR
 62
   256
  9
$CELTSCALE
 40
1.0
  9
$DISPSILH
 70
     0
  9
$DIMSCALE
 40
3.0
  9
$DIMASZ
 40
3.0
  9
$DIMEXO
 40
2.0
  9
$DIMDLI
 40
0.38
  9
$DIMRND
 40
0.0
  9
$DIMDLE
 40
0.0
  9
$DIMEXE
 40
2.0
  9
$DIMTP
 40
0.0
  9
$DIMTM
 40
0.0
  9
$DIMTXT
 40
3.2
  9
$DIMCEN
 40
0.09
  9
$DIMTSZ
 40
0.0
  9
$DIMTOL
 70
     0
  9
$DIMLIM
 70
     0
  9
$DIMTIH
 70
     0
  9
$DIMTOH
 70
     0
  9
$DIMSE1
 70
     0
  9
$DIMSE2
 70
     0
  9
$DIMTAD
 70
     1
  9
$DIMZIN
 70
     0
  9
$DIMBLK
  1

  9
$DIMASO
 70
     0
  9
$DIMSHO
 70
     0
  9
$DIMPOST
  1

  9
$DIMAPOST
  1

  9
$DIMALT
 70
     0
  9
$DIMALTD
 70
     2
  9
$DIMALTF
 40
25.4
  9
$DIMLFAC
 40
1.0
  9
$DIMTOFL
 70
     0
  9
$DIMTVP
 40
1.6
  9
$DIMTIX
 70
     1
  9
$DIMSOXD
 70
     0
  9
$DIMSAH
 70
     0
  9
$DIMBLK1
  1

  9
$DIMBLK2
  1

  9
$DIMSTYLE
  2
STANDARD
  9
$DIMCLRD
 70
     0
  9
$DIMCLRE
 70
     0
  9
$DIMCLRT
 70
     0
  9
$DIMTFAC
 40
1.0
  9
$DIMGAP
 40
0.09
  9
$DIMJUST
 70
     0
  9
$DIMSD1
 70
     0
  9
$DIMSD2
 70
     0
  9
$DIMTOLJ
 70
     1
  9
$DIMTZIN
 70
     0
  9
$DIMALTZ
 70
     0
  9
$DIMALTTZ
 70
     0
  9
$DIMUPT
 70
     0
  9
$DIMDEC
 70
     4
  9
$DIMTDEC
 70
     4
  9
$DIMALTU
 70
     2
  9
$DIMALTTD
 70
     2
  9
$DIMTXSTY
  7
STANDARD
  9
$DIMAUNIT
 70
     0
  9
$DIMADEC
 70
     0
  9
$DIMALTRND
 40
0.0
  9
$DIMAZIN
 70
     0
  9
$DIMDSEP
 70
    46
  9
$DIMATFIT
 70
     3
  9
$DIMFRAC
 70
     0
  9
$DIMLDRBLK
  1

  9
$DIMLUNIT
 70
     2
  9
$DIMLWD
 70
    -2
  9
$DIMLWE
 70
    -2
  9
$DIMTMOVE
 70
     0
  9
$LUNITS
 70
     2
  9
$LUPREC
 70
     4
  9
$SKETCHINC
 40
0.1
  9
$FILLETRAD
 40
0.0
  9
$AUNITS
 70
     0
  9
$AUPREC
 70
     0
  9
$MENU
  1
ACAD
  9
$ELEVATION
 40
0.0
  9
$PELEVATION
 40
0.0
  9
$THICKNESS
 40
0.0
  9
$LIMCHECK
 70
     0
  9
$CHAMFERA
 40
0.0
  9
$CHAMFERB
 40
0.0
  9
$CHAMFERC
 40
0.0
  9
$CHAMFERD
 40
0.0
  9
$SKPOLY
 70
     0
  9
$TDCREATE
 40
2450686.766469907
  9
$TDUCREATE
 40
2450686.391469907
  9
$TDUPDATE
 40
2456448.728834815
  9
$TDUUPDATE
 40
2456448.353834815
  9
$TDINDWG
 40
0.0003705440
  9
$TDUSRTIMER
 40
0.0003705440
  9
$USRTIMER
 70
     1
  9
$ANGBASE
 50
0.0
  9
$ANGDIR
 70
     0
  9
$PDMODE
 70
     0
  9
$PDSIZE
 40
0.0
  9
$PLINEWID
 40
0.0
  9
$SPLFRAME
 70
     0
  9
$SPLINETYPE
 70
     6
  9
$SPLINESEGS
 70
     8
  9
$HANDSEED
  5
257
  9
$SURFTAB1
 70
     6
  9
$SURFTAB2
 70
     6
  9
$SURFTYPE
 70
     6
  9
$SURFU
 70
     6
  9
$SURFV
 70
     6
  9
$UCSBASE
  2

  9
$UCSNAME
  2

  9
$UCSORG
 10
0.0
 20
0.0
 30
0.0
  9
$UCSXDIR
 10
1.0
 20
0.0
 30
0.0
  9
$UCSYDIR
 10
0.0
 20
1.0
 30
0.0
  9
$UCSORTHOREF
  2

  9
$UCSORTHOVIEW
 70
     0
  9
$UCSORGTOP
 10
0.0
 20
0.0
 30
0.0
  9
$UCSORGBOTTOM
 10
0.0
 20
0.0
 30
0.0
  9
$UCSORGLEFT
 10
0.0
 20
0.0
 30
0.0
  9
$UCSORGRIGHT
 10
0.0
 20
0.0
 30
0.0
  9
$UCSORGFRONT
 10
0.0
 20
0.0
 30
0.0
  9
$UCSORGBACK
 10
0.0
 20
0.0
 30
0.0
  9
$PUCSBASE
  2

  9
$PUCSNAME
  2

  9
$PUCSORG
 10
0.0
 20
0.0
 30
0.0
  9
$PUCSXDIR
 10
1.0
 20
0.0
 30
0.0
  9
$PUCSYDIR
 10
0.0
 20
1.0
 30
0.0
  9
$PUCSORTHOREF
  2

  9
$PUCSORTHOVIEW
 70
     0
  9
$PUCSORGTOP
 10
0.0
 20
0.0
 30
0.0
  9
$PUCSORGBOTTOM
 10
0.0
 20
0.0
 30
0.0
  9
$PUCSORGLEFT
 10
0.0
 20
0.0
 30
0.0
  9
$PUCSORGRIGHT
 10
0.0
 20
0.0
 30
0.0
  9
$PUCSORGFRONT
 10
0.0
 20
0.0
 30
0.0
  9
$PUCSORGBACK
 10
0.0
 20
0.0
 30
0.0
  9
$USERI1
 70
     0
  9
$USERI2
 70
     0
  9
$USERI3
 70
     0
  9
$USERI4
 70
     0
  9
$USERI5
 70
     0
  9
$USERR1
 40
0.0
  9
$USERR2
 40
0.0
  9
$USERR3
 40
0.0
  9
$USERR4
 40
0.0
  9
$USERR5
 40
0.0
  9
$WORLDVIEW
 70
     1
  9
$SHADEDGE
 70
     3
  9
$SHADEDIF
 70
    70
  9
$TILEMODE
 70
     1
  9
$MAXACTVP
 70
    16
  9
$PINSBASE
 10
0.0
 20
0.0
 30
0.0
  9
$PLIMCHECK
 70
     0
  9
$PEXTMIN
 10
1.000000000000000E+20
 20
1.000000000000000E+20
 30
1.000000000000000E+20
  9
$PEXTMAX
 10
-1.000000000000000E+20
 20
-1.000000000000000E+20
 30
-1.000000000000000E+20
  9
$PLIMMIN
 10
0.0
 20
0.0
  9
$PLIMMAX
 10
12.0
 20
9.0
  9
$UNITMODE
 70
     0
  9
$VISRETAIN
 70
     0
  9
$PLINEGEN
 70
     1
  9
$PSLTSCALE
 70
     0
  9
$TREEDEPTH
 70
  3020
  9
$CMLSTYLE
  2
Standard
  9
$CMLJUST
 70
     0
  9
$CMLSCALE
 40
1.0
  9
$PROXYGRAPHICS
 70
     1
  9
$MEASUREMENT
 70
     0
  9
$CELWEIGHT
370
    -1
  9
$ENDCAPS
280
     0
  9
$JOINSTYLE
280
     0
  9
$LWDISPLAY
290
     0
  9
$INSUNITS
 70
     0
  9
$HYPERLINKBASE
  1

  9
$STYLESHEET
  1

  9
$XEDIT
290
     1
  9
$CEPSNTYPE
380
     0
  9
$PSTYLEMODE
290
     1
  9
$FINGERPRINTGUID
  2
{FE6991C2-3173-41C1-8539-036DDDB6E6A4}
  9
$VERSIONGUID
  2
{F9B4B91C-DE76-41BC-B324-72275301FAC4}
  9
$EXTNAMES
290
     1
  9
$PSVPSCALE
 40
0.0
  9
$OLESTARTUP
290
     0
  0
ENDSEC
  0
SECTION
  2
CLASSES
  0
CLASS
  1
ACDBDICTIONARYWDFLT
  2
AcDbDictionaryWithDefault
  3
AutoCAD 2000
 90
        0
280
     0
281
     0
  0
CLASS
  1
ACDBPLACEHOLDER
  2
AcDbPlaceHolder
  3
AutoCAD 2000
 90
        0
280
     0
281
     0
  0
CLASS
  1
LAYOUT
  2
AcDbLayout
  3
AutoCAD 2000
 90
        0
280
     0
281
     0
  0
CLASS
  1
AMGSETTINGSOBJ
  2
AmgSettingsObj
  3
"AcadM|Product Description: AutoCAD Mechanical 2000|Company: Autodesk"
 90
        0
280
     0
281
     0
  0
CLASS
  1
ACME_DOCUMENT
  2
AcMeDbDoc
  3
AcMeServices
 90
        0
280
     0
281
     0
  0
CLASS
  1
ACMESCOPE
  2
AcMeScope
  3
AcMeServices
 90
        0
280
     0
281
     0
  0
CLASS
  1
ACMECOMMANDHISTORY
  2
AcMeCommandHistory
  3
AcMeServices
 90
        0
280
     0
281
     0
  0
CLASS
  1
ACIMSYSVARMAN
  2
AcImSysVarManager
  3
AcMeServices
 90
        0
280
     0
281
     0
  0
CLASS
  1
ACIMREALSYSVAR
  2
AcImRealSysVar
  3
AcMeServices
 90
        0
280
     0
281
     0
  0
CLASS
  1
ACIMINTSYSVAR
  2
AcImIntSysVar
  3
AcMeServices
 90
        0
280
     0
281
     0
  0
CLASS
  1
ACMEDRAWINGMAN
  2
AcMeDrawingMan
  3
AcMeServices
 90
        0
280
     0
281
     0
  0
CLASS
  1
ACMEVIEW
  2
AcMeView
  3
AcMeServices
 90
        0
280
     0
281
     0
  0
CLASS
  1
ACDBENTITYCACHE
  2
AcMeEntityCache
  3
AcMeServices
 90
        0
280
     0
281
     0
  0
CLASS
  1
GSMANAGER
  2
AcMeGSManager
  3
AcMeServices
 90
        0
280
     0
281
     0
  0
CLASS
  1
AMDTINTERNALREACTOR
  2
AmdtInternalReactor
  3
AcMeServices
 90
        0
280
     0
281
     0
  0
CLASS
  1
ACMESTATEMGR
  2
AcMeStateMgr
  3
AcMeServices
 90
        0
280
     0
281
     0
  0
CLASS
  1
ACGREFMASTER
  2
AcGrefMaster
  3
AcAttribServices
 90
        0
280
     0
281
     0
  0
CLASS
  1
AM_DRAWING_MGR
  2
AcDmDwgMgr
  3
AcMechDwgViewMgmt
 90
        0
280
     0
281
     0
  0
CLASS
  1
AM_DWG_DOCUMENT
  2
AcDmDwgDocument
  3
AcMechDwgViewMgmt
 90
        0
280
     0
281
     0
  0
CLASS
  1
AM_DWG_SHEET
  2
AcDmSheet
  3
AcMechDwgViewMgmt
 90
        0
280
     0
281
     0
  0
CLASS
  1
AM_VIEWDIMPARMAP
  2
AcDmViewDimParMap
  3
AcMechDwgViewMgmt
 90
        0
280
     0
281
     0
  0
CLASS
  1
AM_DWGMGR_NAME
  2
AcDmDwgMgrName
  3
AcMechDwgViewMgmt
 90
        0
280
     0
281
     0
  0
CLASS
  1
ACME_DATABASE
  2
AcMeDbDatabase
  3
AcMeServices
 90
        0
280
     0
281
     0
  0
CLASS
  1
ACRFINSADJUSTERMGR
  2
AcRfInsAdjusterMgr
  3
AcMeServices
 90
        0
280
     0
281
     0
  0
CLASS
  1
ACGREFACADMASTER
  2
AcGrefacadMaster
  3
AcGrefServices
 90
        0
280
     0
281
     0
  0
CLASS
  1
AMDTMENUSTATEMGR
  2
AmdtMenuStateMgr
  3
McadcomServices
 90
        0
280
     0
281
     0
  0
CLASS
  1
AMDTMCOMMENUSTATE
  2
AmdtMcomMenuState
  3
McadcomServices
 90
        0
280
     0
281
     0
  0
CLASS
  1
AMIMASTER
  2
AmiMaster
  3
AmiServices
 90
        0
280
     0
281
     0
  0
CLASS
  1
ASAPP
  2
AcAsAppObject
  3
AutoSurfServices
 90
        0
280
     0
281
     0
  0
CLASS
  1
IM_STATIC_MAN
  2
AcImStaticVarManager
  3
AcMeServices
 90
        0
280
     0
281
     0
  0
CLASS
  1
ACIMSTRSYSVAR
  2
AcImStrSysVar
  3
AcMeServices
 90
        0
280
     0
281
     0
  0
CLASS
  1
ACIMDBLSTATICVAR
  2
AcImDblStaticVar
  3
AcMeServices
 90
        0
280
     0
281
     0
  0
CLASS
  1
ACIMSTRSTATICVAR
  2
AcImStrStaticVar
  3
AcMeServices
 90
        0
280
     0
281
     0
  0
CLASS
  1
ACIMINTSTATICVAR
  2
AcImIntStaticVar
  3
AcMeServices
 90
        0
280
     0
281
     0
  0
CLASS
  1
ACASGREFMASTER
  2
AcAsGrefMaster
  3
AutoSurfResolverServices
 90
        0
280
     0
281
     0
  0
CLASS
  1
ACADGREFMODULE
  2
AcAdGrefModule
  3
AdGrefServices
 90
        0
280
     0
281
     0
  0
CLASS
  1
AMDTMAPISURFMOUDULE
  2
AmdtMApiSurfModule
  3
MApiSurfServices
 90
        0
280
     0
281
     0
  0
CLASS
  1
MAPIAMMOUDLE
  2
MApiAmModule
  3
MApiAmServices
 90
        0
280
     0
281
     0
  0
CLASS
  1
AMDTADMENUSTATE
  2
AmdtAdMenuState
  3
DesignerServices
 90
        0
280
     0
281
     0
  0
CLASS
  1
ADAPPL
  2
AcAdAppl
  3
DesignerServices
 90
        0
280
     0
281
     0
  0
CLASS
  1
DEPMGR
  2
AcAdDepMgr
  3
DesignerServices
 90
        0
280
     0
281
     0
  0
CLASS
  1
PARAMMGR
  2
AcAdParamMgr
  3
DesignerServices
 90
        0
280
     0
281
     0
  0
CLASS
  1
PARAMSCOPE
  2
AcAdParamScope
  3
DesignerServices
 90
        0
280
     0
281
     0
  0
CLASS
  1
NAMEDAPPL
  2
AcAdNamedAppl
  3
DesignerServices
 90
        0
280
     0
281
     0
  0
CLASS
  1
AMDTDMMENUSTATE
  2
AmdtDmMenuState
  3
AcMechDwgViewMgmt
 90
        0
280
     0
281
     0
  0
CLASS
  1
MAPIADMODULE
  2
MApiAdModule
  3
MApiAdServices
 90
        0
280
     0
281
     0
  0
CLASS
  1
AMDTAMMENUSTATE
  2
AmdtAmMenuState
  3
DesignerAssemblies
 90
        0
280
     0
281
     0
  0
CLASS
  1
ACAMPROJECT
  2
AcAmProject
  3
DesignerAssemblies
 90
        0
280
     0
281
     0
  0
CLASS
  1
ACAMGRCOMPDEF
  2
AcAmGrCompDef
  3
DesignerAssemblies
 90
        0
280
     0
281
     0
  0
CLASS
  1
ACCMCONTEXT
  2
AcCmContext
  3
DesignerAssemblies
 90
        0
280
     0
281
     0
  0
CLASS
  1
ACAMCOMPDEF
  2
AcAmCompDef
  3
DesignerAssemblies
 90
        0
280
     0
281
     0
  0
CLASS
  1
ACAMCOMPDEFMGR
  2
AcAmCompDefMgr
  3
DesignerAssemblies
 90
        0
280
     0
281
     0
  0
CLASS
  1
AMCONTEXTMGR
  2
AcAmContextMgr
  3
DesignerAssemblies
 90
        0
280
     0
281
     0
  0
CLASS
  1
ACAMCONTEXTMODELER
  2
AcAmContextModeler
  3
DesignerAssemblies
 90
        0
280
     0
281
     0
  0
CLASS
  1
ACMDATADICTIONARY
  2
AcmDataDictionary
  3
"AcmSymBB|Product Description: AutoCAD Mechanical 2000|Company: Autodesk"
 90
        0
280
     0
281
     0
  0
CLASS
  1
ACMDATAENTRYBLOCK
  2
AcmDataEntryBlock
  3
"AcmSymBB|Product Description: AutoCAD Mechanical 2000|Company: Autodesk"
 90
        0
280
     0
281
     0
  0
CLASS
  1
CATALOGSTATE
  2
AcAmCatalogState
  3
DesignerAssemblies
 90
        0
280
     0
281
     0
  0
CLASS
  1
ACAMGRCOMPDEFSET
  2
AcAmGrCompDefSet
  3
DesignerAssemblies
 90
        0
280
     0
281
     0
  0
CLASS
  1
AMDTBROWSERDBTAB
  2
AmdtBrowserDbTab
  3
McadcomServices
 90
        0
280
     0
281
     0
  0
CLASS
  1
CBROWSERAPPOBJECT
  2
CBrowserAppObject
  3
McadcomServices
 90
        0
280
     0
281
     0
  0
CLASS
  1
DM_PLACEHOLDER
  2
AcDmSelsetPlaceholder
  3
AcMechDwgViewMgmt
 90
        0
280
     0
281
     0
  0
CLASS
  1
AMGOBJPROPCFG
  2
AmgObjPropCfg
  3
"AmgLay|Product Description: AutoCAD Mechanical 2000|Company: Autodesk"
 90
        1
280
     0
281
     0
  0
CLASS
  1
ACAMGFILTERDAT
  2
AcAmgFilterDat
  3
"AcadM|Product Description: AutoCAD Mechanical 2000|Company: Autodesk"
 90
        0
280
     0
281
     0
  0
CLASS
  1
LAYER_INDEX
  2
AcDbLayerIndex
  3
AutoCAD 2000
 90
        0
280
     0
281
     0
  0
CLASS
  1
IDBUFFER
  2
AcDbIdBuffer
  3
AutoCAD 2000
 90
        0
280
     0
281
     0
  0
CLASS
  1
DICTIONARYVAR
  2
AcDbDictionaryVar
  3
AutoCAD 2000
 90
        0
280
     0
281
     0
  0
ENDSEC
  0
SECTION
  2
TABLES
  0
TABLE
  2
VPORT
  5
8
330
0
100
AcDbSymbolTable
 70
     3
  0
VPORT
  5
256
330
8
100
AcDbSymbolTableRecord
100
AcDbViewportTableRecord
  2
*Active
 70
     0
 10
0.0
 20
0.0
 11
1.0
 21
1.0
 12
-178.3837852743297
 22
-61.29508107144715
 13
0.0
 23
0.0
 14
0.5
 24
0.5
 15
1.0
 25
1.0
 16
0.0
 26
0.0
 36
1.0
 17
687.3350253807104
 27
461.3847938229281
 37
0.0
 40
383.3728729280315
 41
1.489721886336154
 42
50.0
 43
0.0
 44
0.0
 50
0.0
 51
0.0
 71
     0
 72
   500
 73
     1
 74
     1
 75
     0
 76
     1
 77
     0
 78
     2
281
     0
 65
     0
110
0.0
120
0.0
130
0.0
111
1.0
121
0.0
131
0.0
112
0.0
122
1.0
132
0.0
 79
     0
146
0.0
  0
ENDTAB
  0
TABLE
  2
LTYPE
  5
5
330
0
100
AcDbSymbolTable
 70
    17
  0
LTYPE
  5
13
330
5
100
AcDbSymbolTableRecord
100
AcDbLinetypeTableRecord
  2
ByBlock
 70
     0
  3

 72
    65
 73
     0
 40
0.0
  0
LTYPE
  5
14
330
5
100
AcDbSymbolTableRecord
100
AcDbLinetypeTableRecord
  2
ByLayer
 70
     0
  3

 72
    65
 73
     0
 40
0.0
  0
LTYPE
  5
15
330
5
100
AcDbSymbolTableRecord
100
AcDbLinetypeTableRecord
  2
CONTINUOUS
 70
     0
  3
実線
 72
    65
 73
     0
 40
0.0
  0
LTYPE
  5
23
330
5
100
AcDbSymbolTableRecord
100
AcDbLinetypeTableRecord
  2
BYLAYER
 70
     0
  3

 72
    65
 73
     0
 40
0.0
  0
LTYPE
  5
24
330
5
100
AcDbSymbolTableRecord
100
AcDbLinetypeTableRecord
  2
CENTER
 70
     0
  3
____ _ ____ _ ____ _ ____ _ ____ _ ____ _ ____
 72
    65
 73
     4
 40
2.0
 49
1.25
 74
     0
 49
-0.25
 74
     0
 49
0.25
 74
     0
 49
-0.25
 74
     0
  0
LTYPE
  5
193
330
5
100
AcDbSymbolTableRecord
100
AcDbLinetypeTableRecord
  2
HIDDEN
 70
     0
  3
Hidden __ __ __ __ __ __ __ __ __ __ __ __ __ _
 72
    65
 73
     2
 40
0.375
 49
0.25
 74
     0
 49
-0.125
 74
     0
  0
LTYPE
  5
194
330
5
100
AcDbSymbolTableRecord
100
AcDbLinetypeTableRecord
  2
PHANTOM2
 70
     0
  3
Phantom (.5x) ___ _ _ ___ _ _ ___ _ _ ___ _ _
 72
    65
 73
     6
 40
1.25
 49
0.625
 74
     0
 49
-0.125
 74
     0
 49
0.125
 74
     0
 49
-0.125
 74
     0
 49
0.125
 74
     0
 49
-0.125
 74
     0
  0
LTYPE
  5
1F6
330
5
100
AcDbSymbolTableRecord
100
AcDbLinetypeTableRecord
  2
ASULTYPE
 70
     0
  3
実線
 72
    65
 73
     2
 40
3.0
 49
2.5
 74
     0
 49
0.5
 74
     0
  0
LTYPE
  5
1F7
330
5
100
AcDbSymbolTableRecord
100
AcDbLinetypeTableRecord
  2
ASVLTYPE
 70
     0
  3
__ __ __ __ __ __ __ __ __ __ __ __ __ __ __ __ __ __ __ __ __
 72
    65
 73
     2
 40
0.75
 49
0.5
 74
     0
 49
-0.25
 74
     0
  0
LTYPE
  5
238
330
5
100
AcDbSymbolTableRecord
100
AcDbLinetypeTableRecord
  2
AM_ISO02W050
 70
     0
  3
__ __ __ __ __ __ __ __ __ __ __ __ __ __ __
 72
    65
 73
     2
 40
7.5
 49
6.0
 74
     0
 49
-1.5
 74
     0
  0
LTYPE
  5
239
330
5
100
AcDbSymbolTableRecord
100
AcDbLinetypeTableRecord
  2
AM_ISO08W050
 70
     0
  3
____ . ____ . ____ . ____ . ____ . ____ . ____
 72
    65
 73
     4
 40
18.0
 49
12.0
 74
     0
 49
-1.5
 74
     0
 49
3.0
 74
     0
 49
-1.5
 74
     0
  0
LTYPE
  5
23A
330
5
100
AcDbSymbolTableRecord
100
AcDbLinetypeTableRecord
  2
AM_ISO09W050
 70
     0
  3
_____ . . _____ . . _____ . . ____ .. ____
 72
    65
 73
     6
 40
22.5
 49
12.0
 74
     0
 49
-1.5
 74
     0
 49
3.0
 74
     0
 49
-1.5
 74
     0
 49
3.0
 74
     0
 49
-1.5
 74
     0
  0
LTYPE
  5
23B
330
5
100
AcDbSymbolTableRecord
100
AcDbLinetypeTableRecord
  2
Amconstr
 70
     0
  3
_______________________
 72
    65
 73
     2
 40
9999.0
 49
9999.0
 74
     0
 49
0.0
 74
     0
  0
LTYPE
  5
23C
330
5
100
AcDbSymbolTableRecord
100
AcDbLinetypeTableRecord
  2
AM_ISO08W050x2
 70
     0
  3
__ . __ . __ . __ . __ . __
 72
    65
 73
     4
 40
9.0
 49
6.0
 74
     0
 49
-0.75
 74
     0
 49
1.5
 74
     0
 49
-0.75
 74
     0
  0
LTYPE
  5
23D
330
5
100
AcDbSymbolTableRecord
100
AcDbLinetypeTableRecord
  2
AM_ISO02W050x2
 70
     0
  3
 _ _ _ _ _ _ _ _ _ _ _ _
 72
    65
 73
     2
 40
3.75
 49
3.0
 74
     0
 49
-0.75
 74
     0
  0
LTYPE
  5
240
330
5
100
AcDbSymbolTableRecord
100
AcDbLinetypeTableRecord
  2
Amzigzag
 70
     0
  3
/\/-/\/-/\/-/\/-/\/-/\/
 72
    65
 73
     2
 40
11.00009999999999
 49
0.0001
 74
     4
 75
   135
340
23F
 46
0.04
 50
0.0
 44
0.0
 45
0.0
 49
-11.0
 74
     0
  0
LTYPE
  5
241
330
5
100
AcDbSymbolTableRecord
100
AcDbLinetypeTableRecord
  2
CENTER2
 70
     0
  3
Center (.5x) ___ _ ___ _ ___ _ ___ _ ___ _ ___
 72
    65
 73
     4
 40
1.125
 49
0.75
 74
     0
 49
-0.125
 74
     0
 49
0.125
 74
     0
 49
-0.125
 74
     0
  0
LTYPE
  5
242
330
5
100
AcDbSymbolTableRecord
100
AcDbLinetypeTableRecord
  2
HIDDEN2
 70
     0
  3
Hidden (.5x) _ _ _ _ _ _ _ _ _ _ _ _ _ _ _ _ _
 72
    65
 73
     2
 40
0.1875
 49
0.125
 74
     0
 49
-0.0625
 74
     0
  0
LTYPE
  5
243
330
5
100
AcDbSymbolTableRecord
100
AcDbLinetypeTableRecord
  2
Amzigzag2
 70
     0
  3
/\/-/\/-/\/-/\/-/\/-/\/
 72
    65
 73
     2
 40
0.4401
 49
0.0001
 74
     4
 75
   135
340
23F
 46
0.0016
 50
0.0
 44
0.0
 45
0.0
 49
-0.4400000000000001
 74
     0
  0
ENDTAB
  0
TABLE
  2
LAYER
  5
2
330
0
100
AcDbSymbolTable
 70
     4
  0
LAYER
  5
10
330
2
100
AcDbSymbolTableRecord
100
AcDbLayerTableRecord
  2
0
 70
     0
 62
     7
  6
CONTINUOUS
370
    -3
390
F
  0
LAYER
  5
25
330
2
100
AcDbSymbolTableRecord
100
AcDbLayerTableRecord
  2
1
 70
     0
 62
     1
  6
CENTER
370
    -3
390
F
  0
LAYER
  5
26
330
2
100
AcDbSymbolTableRecord
100
AcDbLayerTableRecord
  2
10
 70
     0
 62
     7
  6
CONTINUOUS
370
    -3
390
F
  0
LAYER
  5
27
330
2
100
AcDbSymbolTableRecord
100
AcDbLayerTableRecord
  2
11
 70
     0
 62
     3
  6
CONTINUOUS
370
    -3
390
F
  0
ENDTAB
  0
TABLE
  2
STYLE
  5
3
330
0
100
AcDbSymbolTable
 70
     3
  0
STYLE
  5
11
330
3
100
AcDbSymbolTableRecord
100
AcDbTextStyleTableRecord
  2
STANDARD
 70
     0
 40
0.0
 41
1.0
 50
0.0
 71
     0
 42
0.2
  3
TXT
  4
BIGFONT
  0
STYLE
  5
22
330
3
100
AcDbSymbolTableRecord
100
AcDbTextStyleTableRecord
  2
BIGFONT
 70
     0
 40
15.0
 41
0.8
 50
0.0
 71
     0
 42
15.0
  3

  4
bigfont
  0
STYLE
  5
23F
330
3
100
AcDbSymbolTableRecord
100
AcDbTextStyleTableRecord
  2

 70
     1
 40
0.0
 41
1.0
 50
0.0
 71
     0
 42
15.0
  3
ltypeshp.shx
  4

  0
ENDTAB
  0
TABLE
  2
VIEW
  5
6
330
0
100
AcDbSymbolTable
 70
     1
  0
VIEW
  5
29
330
6
100
AcDbSymbolTableRecord
100
AcDbViewTableRecord
  2
ALL
 70
     0
 40
810.0
 10
662.9747899159663
 20
404.9999999999999
 41
0.0
 11
0.0
 21
0.0
 31
1.0
 12
0.0
 22
0.0
 32
0.0
 42
0.0
 43
0.0
 44
0.0
 50
0.0
 71
     0
281
     0
 72
     0
  0
ENDTAB
  0
TABLE
  2
UCS
  5
7
330
0
100
AcDbSymbolTable
 70
     0
  0
ENDTAB
  0
TABLE
  2
APPID
  5
9
330
0
100
AcDbSymbolTable
 70
    12
  0
APPID
  5
12
330
9
100
AcDbSymbolTableRecord
100
AcDbRegAppTableRecord
  2
ACAD
 70
     0
  0
APPID
  5
172
330
9
100
AcDbSymbolTableRecord
100
AcDbRegAppTableRecord
  2
GENIUS_GENDIM_13
 70
     0
  0
APPID
  5
173
330
9
100
AcDbSymbolTableRecord
100
AcDbRegAppTableRecord
  2
GENIUS_GENDTOL_13
 70
     0
  0
APPID
  5
174
330
9
100
AcDbSymbolTableRecord
100
AcDbRegAppTableRecord
  2
GENIUS_GE3DTOL_13
 70
     0
  0
APPID
  5
176
330
9
100
AcDbSymbolTableRecord
100
AcDbRegAppTableRecord
  2
MCAD_NO_VIS
 70
     0
  0
APPID
  5
177
330
9
100
AcDbSymbolTableRecord
100
AcDbRegAppTableRecord
  2
ACAD_TEMP_GRAPHIC
 70
     0
  0
APPID
  5
1A9
330
9
100
AcDbSymbolTableRecord
100
AcDbRegAppTableRecord
  2
AD_DRAW
 70
     0
  0
APPID
  5
1AC
330
9
100
AcDbSymbolTableRecord
100
AcDbRegAppTableRecord
  2
ACATTRIBSERVICES
 70
     0
  0
APPID
  5
1F8
330
9
100
AcDbSymbolTableRecord
100
AcDbRegAppTableRecord
  2
ASURF_PCURVE_APPNAME
 70
     0
  0
APPID
  5
227
330
9
100
AcDbSymbolTableRecord
100
AcDbRegAppTableRecord
  2
DESIGNERASSEMBLIES
 70
     0
  0
APPID
  5
22F
330
9
100
AcDbSymbolTableRecord
100
AcDbRegAppTableRecord
  2
ACADM_DIM_EDIT
 70
     0
  0
APPID
  5
230
330
9
100
AcDbSymbolTableRecord
100
AcDbRegAppTableRecord
  2
AMDT_DM_ADJ
 70
     0
  0
ENDTAB
  0
TABLE
  2
DIMSTYLE
  5
A
330
0
100
AcDbSymbolTable
 70
     1
100
AcDbDimStyleTable
 71
     0
  0
DIMSTYLE
105
28
330
A
100
AcDbSymbolTableRecord
100
AcDbDimStyleTableRecord
  2
STANDARD
 70
     0
279
     2
340
22
  0
ENDTAB
  0
TABLE
  2
BLOCK_RECORD
  5
1
330
0
100
AcDbSymbolTable
 70
     2
  0
BLOCK_RECORD
  5
1E
102
{ACAD_XDICTIONARY
360
24C
102
}
330
1
100
AcDbSymbolTableRecord
100
AcDbBlockTableRecord
  2
*Model_Space
340
21
  0
BLOCK_RECORD
  5
1A
330
1
100
AcDbSymbolTableRecord
100
AcDbBlockTableRecord
  2
*Paper_Space
340
1D
  0
BLOCK_RECORD
  5
2D
330
1
100
AcDbSymbolTableRecord
100
AcDbBlockTableRecord
  2
QQ
340
0
102
{BLKREFS
331
39
102
}
  0
BLOCK_RECORD
  5
21E
330
1
100
AcDbSymbolTableRecord
100
AcDbBlockTableRecord
  2
*U1
340
0
  0
ENDTAB
  0
ENDSEC
  0
SECTION
  2
BLOCKS
  0
BLOCK
  5
1F
330
1E
100
AcDbEntity
  8
0
100
AcDbBlockBegin
  2
*Model_Space
 70
     0
 10
0.0
 20
0.0
 30
0.0
  3
*Model_Space
  1

  0
ENDBLK
  5
20
330
1E
100
AcDbEntity
  8
0
100
AcDbBlockEnd
  0
BLOCK
  5
1B
330
1A
100
AcDbEntity
 67
     1
  8
0
100
AcDbBlockBegin
  2
*Paper_Space
 70
     0
 10
0.0
 20
0.0
 30
0.0
  3
*Paper_Space
  1

  0
ENDBLK
  5
1C
330
1A
100
AcDbEntity
 67
     1
  8
0
100
AcDbBlockEnd
  0
BLOCK
  5
2E
330
2D
100
AcDbEntity
  8
0
100
AcDbBlockBegin
  2
QQ
 70
     0
 10
270.0
 20
0.0
 30
0.0
  3
QQ
  1

  0
LINE
  5
2F
330
2D
100
AcDbEntity
  8
11
100
AcDbLine
 10
172.9999999999998
 20
36.0
 30
0.0
 11
270.0
 21
36.0
 31
0.0
  0
TEXT
  5
30
330
2D
100
AcDbEntity
  8
11
100
AcDbText
 10
175.0
 20
32.5
 30
0.0
 40
2.5
  1
部品名称
100
AcDbText
  0
LINE
  5
31
330
2D
100
AcDbEntity
  8
11
100
AcDbLine
 10
172.9999999999998
 20
36.0
 30
0.0
 11
172.9999999999998
 21
0.0
 31
0.0
  0
LINE
  5
32
330
2D
100
AcDbEntity
  8
11
100
AcDbLine
 10
172.9999999999998
 20
24.0
 30
0.0
 11
270.0
 21
24.0
 31
0.0
  0
TEXT
  5
33
330
2D
100
AcDbEntity
  8
11
100
AcDbText
 10
175.0
 20
20.5
 30
0.0
 40
2.5
  1
品番
100
AcDbText
  0
LINE
  5
34
330
2D
100
AcDbEntity
  8
11
100
AcDbLine
 10
172.9999999999998
 20
12.0
 30
0.0
 11
270.0
 21
12.0
 31
0.0
  0
TEXT
  5
35
330
2D
100
AcDbEntity
  8
11
100
AcDbText
 10
175.0
 20
8.5
 30
0.0
 40
2.5
  1
尺度
100
AcDbText
  0
TEXT
  5
36
330
2D
100
AcDbEntity
  8
11
100
AcDbText
 10
200.0
 20
8.5
 30
0.0
 40
2.5
  1
図番
100
AcDbText
  0
LINE
  5
37
330
2D
100
AcDbEntity
  8
11
100
AcDbLine
 10
198.0
 20
0.0
 30
0.0
 11
198.0
 21
12.0
 31
0.0
  0
ENDBLK
  5
38
330
2D
100
AcDbEntity
  8
0
100
AcDbBlockEnd
  0
BLOCK
  5
21F
330
21E
100
AcDbEntity
  8
0
100
AcDbBlockBegin
  2
*U1
 70
     1
 10
0.0
 20
0.0
 30
0.0
  3
*U1
  1

  0
ENDBLK
  5
220
330
21E
100
AcDbEntity
  8
0
100
AcDbBlockEnd
  0
ENDSEC
  0
SECTION
  2
ENTITIES
  0
LINE
  5
40
330
1E
100
AcDbEntity
  8
1
100
AcDbLine
 10
350.0
 20
400.0
 30
0.0
 11
393.5
 21
400.0
 31
0.0
  0
LINE
  5
41
330
1E
100
AcDbEntity
  8
1
100
AcDbLine
 10
370.9999999999999
 20
360.4999999999999
 30
0.0
 11
370.9999999999999
 21
492.9999999999999
 31
0.0
  0
LINE
  5
42
330
1E
100
AcDbEntity
  8
0
100
AcDbLine
 10
370.9999999999999
 20
409.9999999999999
 30
0.0
 11
360.9999999999999
 21
409.9999999999999
 31
0.0
  0
LINE
  5
43
330
1E
100
AcDbEntity
  8
0
100
AcDbLine
 10
360.9999999999999
 20
409.9999999999999
 30
0.0
 11
360.9999999999999
 21
387.0
 31
0.0
  0
LINE
  5
44
330
1E
100
AcDbEntity
  8
0
100
AcDbLine
 10
360.9999999999999
 20
387.0
 30
0.0
 11
381.0
 21
387.0
 31
0.0
  0
LINE
  5
45
330
1E
100
AcDbEntity
  8
0
100
AcDbLine
 10
381.0
 20
387.0
 30
0.0
 11
381.0
 21
409.9999999999999
 31
0.0
  0
LINE
  5
46
330
1E
100
AcDbEntity
  8
0
100
AcDbLine
 10
381.0
 20
409.9999999999999
 30
0.0
 11
370.9999999999999
 21
409.9999999999999
 31
0.0
  0
LINE
  5
47
330
1E
100
AcDbEntity
  8
0
100
AcDbLine
 10
360.9999999999999
 20
387.0
 30
0.0
 11
360.9999999999999
 21
382.0
 31
0.0
  0
LINE
  5
48
330
1E
100
AcDbEntity
  8
0
100
AcDbLine
 10
360.9999999999999
 20
382.0
 30
0.0
 11
381.0
 21
382.0
 31
0.0
  0
LINE
  5
49
330
1E
100
AcDbEntity
  8
0
100
AcDbLine
 10
381.0
 20
382.0
 30
0.0
 11
381.0
 21
387.0
 31
0.0
  0
LINE
  5
4A
330
1E
100
AcDbEntity
  8
0
100
AcDbLine
 10
376.0
 20
382.0
 30
0.0
 11
376.0
 21
370.0
 31
0.0
  0
LINE
  5
4B
330
1E
100
AcDbEntity
  8
0
100
AcDbLine
 10
376.0
 20
370.0
 30
0.0
 11
375.0
 21
368.9999999999999
 31
0.0
  0
LINE
  5
4C
330
1E
100
AcDbEntity
  8
0
100
AcDbLine
 10
375.0
 20
368.9999999999999
 30
0.0
 11
366.9999999999999
 21
368.9999999999999
 31
0.0
  0
LINE
  5
4D
330
1E
100
AcDbEntity
  8
0
100
AcDbLine
 10
366.9999999999999
 20
368.9999999999999
 30
0.0
 11
366.0
 21
370.0
 31
0.0
  0
LINE
  5
4E
330
1E
100
AcDbEntity
  8
0
100
AcDbLine
 10
366.0
 20
370.0
 30
0.0
 11
366.0
 21
382.0
 31
0.0
  0
LINE
  5
4F
330
1E
100
AcDbEntity
  8
0
100
AcDbLine
 10
366.9999999999999
 20
382.0
 30
0.0
 11
366.9999999999999
 21
368.9999999999999
 31
0.0
  0
LINE
  5
50
330
1E
100
AcDbEntity
  8
0
100
AcDbLine
 10
375.0
 20
368.9999999999999
 30
0.0
 11
375.0
 21
382.0
 31
0.0
  0
LINE
  5
51
330
1E
100
AcDbEntity
  8
0
100
AcDbLine
 10
376.0
 20
370.0
 30
0.0
 11
366.0
 21
370.0
 31
0.0
  0
ARC
  5
52
330
1E
100
AcDbEntity
  8
0
100
AcDbCircle
 10
370.9999999999999
 20
470.3999999999999
 30
0.0
 40
14.60000000000001
100
AcDbArc
 50
41.11209043916701
 51
138.887909560833
  0
LINE
  5
53
330
1E
100
AcDbEntity
  8
0
100
AcDbLine
 10
381.0
 20
409.9999999999999
 30
0.0
 11
382.0
 21
479.9999999999999
 31
0.0
  0
LINE
  5
54
330
1E
100
AcDbEntity
  8
0
100
AcDbLine
 10
360.0
 20
479.9999999999999
 30
0.0
 11
360.9999999999999
 21
409.9999999999999
 31
0.0
  0
LINE
  5
55
330
1E
100
AcDbEntity
  8
11
100
AcDbLine
 10
380.5
 20
387.0
 30
0.0
 11
380.5
 21
382.0
 31
0.0
  0
LINE
  5
56
330
1E
100
AcDbEntity
  8
11
100
AcDbLine
 10
380.0
 20
382.0
 30
0.0
 11
380.0
 21
387.0
 31
0.0
  0
LINE
  5
57
330
1E
100
AcDbEntity
  8
11
100
AcDbLine
 10
379.4999999999999
 20
387.0
 30
0.0
 11
379.4999999999999
 21
382.0
 31
0.0
  0
LINE
  5
58
330
1E
100
AcDbEntity
  8
11
100
AcDbLine
 10
379.0
 20
382.0
 30
0.0
 11
379.0
 21
387.0
 31
0.0
  0
LINE
  5
59
330
1E
100
AcDbEntity
  8
11
100
AcDbLine
 10
378.5
 20
387.0
 30
0.0
 11
378.5
 21
382.0
 31
0.0
  0
LINE
  5
5A
330
1E
100
AcDbEntity
  8
11
100
AcDbLine
 10
378.0
 20
382.0
 30
0.0
 11
378.0
 21
387.0
 31
0.0
  0
LINE
  5
5B
330
1E
100
AcDbEntity
  8
11
100
AcDbLine
 10
377.4999999999999
 20
387.0
 30
0.0
 11
377.4999999999999
 21
382.0
 31
0.0
  0
LINE
  5
5C
330
1E
100
AcDbEntity
  8
11
100
AcDbLine
 10
377.0
 20
382.0
 30
0.0
 11
377.0
 21
387.0
 31
0.0
  0
LINE
  5
5D
330
1E
100
AcDbEntity
  8
11
100
AcDbLine
 10
376.5
 20
382.0
 30
0.0
 11
376.5
 21
387.0
 31
0.0
  0
LINE
  5
5E
330
1E
100
AcDbEntity
  8
11
100
AcDbLine
 10
376.0
 20
382.0
 30
0.0
 11
376.0
 21
387.0
 31
0.0
  0
LINE
  5
5F
330
1E
100
AcDbEntity
  8
11
100
AcDbLine
 10
375.4999999999999
 20
382.0
 30
0.0
 11
375.4999999999999
 21
387.0
 31
0.0
  0
LINE
  5
60
330
1E
100
AcDbEntity
  8
11
100
AcDbLine
 10
375.0
 20
382.0
 30
0.0
 11
375.0
 21
387.0
 31
0.0
  0
LINE
  5
61
330
1E
100
AcDbEntity
  8
11
100
AcDbLine
 10
374.5
 20
382.0
 30
0.0
 11
374.5
 21
387.0
 31
0.0
  0
LINE
  5
62
330
1E
100
AcDbEntity
  8
11
100
AcDbLine
 10
374.0
 20
382.0
 30
0.0
 11
374.0
 21
387.0
 31
0.0
  0
LINE
  5
63
330
1E
100
AcDbEntity
  8
11
100
AcDbLine
 10
373.4999999999999
 20
382.0
 30
0.0
 11
373.4999999999999
 21
387.0
 31
0.0
  0
LINE
  5
64
330
1E
100
AcDbEntity
  8
11
100
AcDbLine
 10
372.9999999999999
 20
383.0
 30
0.0
 11
372.9999999999999
 21
382.0
 31
0.0
  0
LINE
  5
65
330
1E
100
AcDbEntity
  8
11
100
AcDbLine
 10
372.9999999999999
 20
383.0
 30
0.0
 11
372.9999999999999
 21
387.0
 31
0.0
  0
LINE
  5
66
330
1E
100
AcDbEntity
  8
11
100
AcDbLine
 10
372.5
 20
382.0
 30
0.0
 11
372.5
 21
387.0
 31
0.0
  0
LINE
  5
67
330
1E
100
AcDbEntity
  8
11
100
AcDbLine
 10
372.0
 20
382.5
 30
0.0
 11
372.0
 21
387.0
 31
0.0
  0
LINE
  5
68
330
1E
100
AcDbEntity
  8
11
100
AcDbLine
 10
372.0
 20
382.0
 30
0.0
 11
372.0
 21
382.5
 31
0.0
  0
LINE
  5
69
330
1E
100
AcDbEntity
  8
11
100
AcDbLine
 10
371.4999999999999
 20
382.0
 30
0.0
 11
371.4999999999999
 21
387.0
 31
0.0
  0
LINE
  5
6A
330
1E
100
AcDbEntity
  8
11
100
AcDbLine
 10
370.9999999999999
 20
382.0
 30
0.0
 11
370.9999999999999
 21
387.0
 31
0.0
  0
LINE
  5
6B
330
1E
100
AcDbEntity
  8
11
100
AcDbLine
 10
370.5
 20
382.0
 30
0.0
 11
370.5
 21
387.0
 31
0.0
  0
LINE
  5
6C
330
1E
100
AcDbEntity
  8
11
100
AcDbLine
 10
370.0
 20
382.0
 30
0.0
 11
370.0
 21
387.0
 31
0.0
  0
LINE
  5
6D
330
1E
100
AcDbEntity
  8
11
100
AcDbLine
 10
369.5
 20
382.0
 30
0.0
 11
369.5
 21
387.0
 31
0.0
  0
LINE
  5
6E
330
1E
100
AcDbEntity
  8
11
100
AcDbLine
 10
368.9999999999999
 20
382.0
 30
0.0
 11
368.9999999999999
 21
387.0
 31
0.0
  0
LINE
  5
6F
330
1E
100
AcDbEntity
  8
11
100
AcDbLine
 10
368.5
 20
382.0
 30
0.0
 11
368.5
 21
387.0
 31
0.0
  0
LINE
  5
70
330
1E
100
AcDbEntity
  8
11
100
AcDbLine
 10
368.0
 20
382.0
 30
0.0
 11
368.0
 21
387.0
 31
0.0
  0
LINE
  5
71
330
1E
100
AcDbEntity
  8
11
100
AcDbLine
 10
367.5
 20
382.0
 30
0.0
 11
367.5
 21
387.0
 31
0.0
  0
LINE
  5
72
330
1E
100
AcDbEntity
  8
11
100
AcDbLine
 10
366.9999999999999
 20
382.0
 30
0.0
 11
366.9999999999999
 21
387.0
 31
0.0
  0
LINE
  5
73
330
1E
100
AcDbEntity
  8
11
100
AcDbLine
 10
366.5
 20
382.0
 30
0.0
 11
366.5
 21
387.0
 31
0.0
  0
LINE
  5
74
330
1E
100
AcDbEntity
  8
11
100
AcDbLine
 10
366.0
 20
382.0
 30
0.0
 11
366.0
 21
387.0
 31
0.0
  0
LINE
  5
75
330
1E
100
AcDbEntity
  8
11
100
AcDbLine
 10
365.5
 20
382.0
 30
0.0
 11
365.5
 21
387.0
 31
0.0
  0
LINE
  5
76
330
1E
100
AcDbEntity
  8
11
100
AcDbLine
 10
364.9999999999999
 20
382.0
 30
0.0
 11
364.9999999999999
 21
387.0
 31
0.0
  0
LINE
  5
77
330
1E
100
AcDbEntity
  8
11
100
AcDbLine
 10
364.5
 20
382.0
 30
0.0
 11
364.5
 21
387.0
 31
0.0
  0
LINE
  5
78
330
1E
100
AcDbEntity
  8
11
100
AcDbLine
 10
364.0
 20
382.0
 30
0.0
 11
364.0
 21
387.0
 31
0.0
  0
LINE
  5
79
330
1E
100
AcDbEntity
  8
11
100
AcDbLine
 10
363.5
 20
382.0
 30
0.0
 11
363.5
 21
387.0
 31
0.0
  0
LINE
  5
7A
330
1E
100
AcDbEntity
  8
11
100
AcDbLine
 10
362.9999999999999
 20
382.0
 30
0.0
 11
362.9999999999999
 21
387.0
 31
0.0
  0
LINE
  5
7B
330
1E
100
AcDbEntity
  8
11
100
AcDbLine
 10
362.5
 20
382.0
 30
0.0
 11
362.5
 21
387.0
 31
0.0
  0
LINE
  5
7C
330
1E
100
AcDbEntity
  8
11
100
AcDbLine
 10
362.0
 20
382.0
 30
0.0
 11
362.0
 21
387.0
 31
0.0
  0
LINE
  5
7D
330
1E
100
AcDbEntity
  8
11
100
AcDbLine
 10
361.5
 20
382.0
 30
0.0
 11
361.5
 21
387.0
 31
0.0
  0
LINE
  5
87
330
1E
100
AcDbEntity
  8
0
100
AcDbLine
 10
513.8924219090247
 20
370.3682413663254
 30
0.0
 11
513.8924219090247
 21
383.3682413663252
 31
0.0
  0
LINE
  5
88
330
1E
100
AcDbEntity
  8
0
100
AcDbLine
 10
505.8924219090246
 20
383.3682413663252
 30
0.0
 11
505.8924219090246
 21
370.3682413663254
 31
0.0
  0
LINE
  5
89
330
1E
100
AcDbEntity
  8
0
100
AcDbLine
 10
504.8924219090246
 20
371.3682413663252
 30
0.0
 11
504.8924219090246
 21
383.3682413663252
 31
0.0
  0
LINE
  5
8A
330
1E
100
AcDbEntity
  8
0
100
AcDbLine
 10
514.8924219090247
 20
383.3682413663252
 30
0.0
 11
514.8924219090247
 21
371.3682413663252
 31
0.0
  0
LINE
  5
8B
330
1E
100
AcDbEntity
  8
0
100
AcDbLine
 10
514.8924219090247
 20
371.3682413663252
 30
0.0
 11
504.8924219090246
 21
371.3682413663252
 31
0.0
  0
LINE
  5
8C
330
1E
100
AcDbEntity
  8
0
100
AcDbLine
 10
514.8924219090247
 20
371.3682413663252
 30
0.0
 11
513.8924219090247
 21
370.3682413663254
 31
0.0
  0
LINE
  5
8D
330
1E
100
AcDbEntity
  8
0
100
AcDbLine
 10
505.8924219090246
 20
370.3682413663254
 30
0.0
 11
504.8924219090246
 21
371.3682413663252
 31
0.0
  0
LINE
  5
8E
330
1E
100
AcDbEntity
  8
0
100
AcDbLine
 10
513.8924219090247
 20
370.3682413663254
 30
0.0
 11
505.8924219090246
 21
370.3682413663254
 31
0.0
  0
LINE
  5
8F
330
1E
100
AcDbEntity
  8
0
100
AcDbLine
 10
499.8924219090246
 20
383.3682413663252
 30
0.0
 11
519.8924219090247
 21
383.3682413663252
 31
0.0
  0
LINE
  5
90
330
1E
100
AcDbEntity
  8
0
100
AcDbLine
 10
499.8924219090246
 20
388.3682413663251
 30
0.0
 11
519.8924219090247
 21
388.3682413663251
 31
0.0
  0
LINE
  5
91
330
1E
100
AcDbEntity
  8
11
100
AcDbLine
 10
500.3924219090246
 20
383.3682413663252
 30
0.0
 11
500.3924219090246
 21
388.3682413663251
 31
0.0
  0
LINE
  5
92
330
1E
100
AcDbEntity
  8
11
100
AcDbLine
 10
500.8924219090246
 20
383.3682413663252
 30
0.0
 11
500.8924219090246
 21
388.3682413663251
 31
0.0
  0
LINE
  5
93
330
1E
100
AcDbEntity
  8
11
100
AcDbLine
 10
501.3924219090246
 20
383.3682413663252
 30
0.0
 11
501.3924219090246
 21
388.3682413663251
 31
0.0
  0
LINE
  5
94
330
1E
100
AcDbEntity
  8
11
100
AcDbLine
 10
501.8924219090246
 20
383.3682413663252
 30
0.0
 11
501.8924219090246
 21
388.3682413663251
 31
0.0
  0
LINE
  5
95
330
1E
100
AcDbEntity
  8
11
100
AcDbLine
 10
502.3924219090246
 20
383.3682413663252
 30
0.0
 11
502.3924219090246
 21
388.3682413663251
 31
0.0
  0
LINE
  5
96
330
1E
100
AcDbEntity
  8
11
100
AcDbLine
 10
502.8924219090247
 20
383.3682413663252
 30
0.0
 11
502.8924219090247
 21
388.3682413663251
 31
0.0
  0
LINE
  5
97
330
1E
100
AcDbEntity
  8
11
100
AcDbLine
 10
503.3924219090247
 20
383.3682413663252
 30
0.0
 11
503.3924219090247
 21
388.3682413663251
 31
0.0
  0
LINE
  5
98
330
1E
100
AcDbEntity
  8
0
100
AcDbLine
 10
499.8924219090246
 20
388.3682413663251
 30
0.0
 11
499.8924219090246
 21
383.3682413663252
 31
0.0
  0
LINE
  5
99
330
1E
100
AcDbEntity
  8
11
100
AcDbLine
 10
503.8924219090247
 20
383.3682413663252
 30
0.0
 11
503.8924219090247
 21
388.3682413663251
 31
0.0
  0
LINE
  5
9A
330
1E
100
AcDbEntity
  8
11
100
AcDbLine
 10
504.3924219090246
 20
383.3682413663252
 30
0.0
 11
504.3924219090246
 21
388.3682413663251
 31
0.0
  0
LINE
  5
9B
330
1E
100
AcDbEntity
  8
11
100
AcDbLine
 10
504.8924219090246
 20
383.3682413663252
 30
0.0
 11
504.8924219090246
 21
388.3682413663251
 31
0.0
  0
LINE
  5
9C
330
1E
100
AcDbEntity
  8
11
100
AcDbLine
 10
505.3924219090246
 20
383.3682413663252
 30
0.0
 11
505.3924219090246
 21
388.3682413663251
 31
0.0
  0
LINE
  5
9D
330
1E
100
AcDbEntity
  8
11
100
AcDbLine
 10
505.8924219090246
 20
383.3682413663252
 30
0.0
 11
505.8924219090246
 21
388.3682413663251
 31
0.0
  0
LINE
  5
9E
330
1E
100
AcDbEntity
  8
11
100
AcDbLine
 10
506.3924219090246
 20
383.3682413663252
 30
0.0
 11
506.3924219090246
 21
388.3682413663251
 31
0.0
  0
LINE
  5
9F
330
1E
100
AcDbEntity
  8
11
100
AcDbLine
 10
506.8924219090247
 20
383.3682413663252
 30
0.0
 11
506.8924219090247
 21
388.3682413663251
 31
0.0
  0
LINE
  5
A0
330
1E
100
AcDbEntity
  8
11
100
AcDbLine
 10
507.3924219090247
 20
383.3682413663252
 30
0.0
 11
507.3924219090247
 21
388.3682413663251
 31
0.0
  0
LINE
  5
A1
330
1E
100
AcDbEntity
  8
11
100
AcDbLine
 10
507.8924219090247
 20
383.3682413663252
 30
0.0
 11
507.8924219090247
 21
388.3682413663251
 31
0.0
  0
LINE
  5
A2
330
1E
100
AcDbEntity
  8
11
100
AcDbLine
 10
508.3924219090246
 20
383.3682413663252
 30
0.0
 11
508.3924219090246
 21
388.3682413663251
 31
0.0
  0
LINE
  5
A3
330
1E
100
AcDbEntity
  8
11
100
AcDbLine
 10
508.8924219090246
 20
383.3682413663252
 30
0.0
 11
508.8924219090246
 21
388.3682413663251
 31
0.0
  0
LINE
  5
A4
330
1E
100
AcDbEntity
  8
11
100
AcDbLine
 10
509.3924219090246
 20
383.3682413663252
 30
0.0
 11
509.3924219090246
 21
388.3682413663251
 31
0.0
  0
LINE
  5
A5
330
1E
100
AcDbEntity
  8
11
100
AcDbLine
 10
509.8924219090246
 20
383.3682413663252
 30
0.0
 11
509.8924219090246
 21
388.3682413663251
 31
0.0
  0
LINE
  5
A6
330
1E
100
AcDbEntity
  8
11
100
AcDbLine
 10
510.3924219090246
 20
383.3682413663252
 30
0.0
 11
510.3924219090246
 21
388.3682413663251
 31
0.0
  0
LINE
  5
A7
330
1E
100
AcDbEntity
  8
11
100
AcDbLine
 10
510.8924219090247
 20
383.3682413663252
 30
0.0
 11
510.8924219090247
 21
383.8682413663251
 31
0.0
  0
LINE
  5
A8
330
1E
100
AcDbEntity
  8
11
100
AcDbLine
 10
510.8924219090247
 20
383.8682413663251
 30
0.0
 11
510.8924219090247
 21
388.3682413663251
 31
0.0
  0
LINE
  5
A9
330
1E
100
AcDbEntity
  8
11
100
AcDbLine
 10
511.3924219090247
 20
383.3682413663252
 30
0.0
 11
511.3924219090247
 21
388.3682413663251
 31
0.0
  0
LINE
  5
AA
330
1E
100
AcDbEntity
  8
11
100
AcDbLine
 10
511.8924219090247
 20
384.3682413663252
 30
0.0
 11
511.8924219090247
 21
388.3682413663251
 31
0.0
  0
LINE
  5
AB
330
1E
100
AcDbEntity
  8
11
100
AcDbLine
 10
511.8924219090247
 20
384.3682413663252
 30
0.0
 11
511.8924219090247
 21
383.3682413663252
 31
0.0
  0
LINE
  5
AC
330
1E
100
AcDbEntity
  8
11
100
AcDbLine
 10
512.3924219090247
 20
383.3682413663252
 30
0.0
 11
512.3924219090247
 21
388.3682413663251
 31
0.0
  0
LINE
  5
AD
330
1E
100
AcDbEntity
  8
11
100
AcDbLine
 10
512.8924219090247
 20
383.3682413663252
 30
0.0
 11
512.8924219090247
 21
388.3682413663251
 31
0.0
  0
LINE
  5
AE
330
1E
100
AcDbEntity
  8
11
100
AcDbLine
 10
513.3924219090247
 20
383.3682413663252
 30
0.0
 11
513.3924219090247
 21
388.3682413663251
 31
0.0
  0
LINE
  5
AF
330
1E
100
AcDbEntity
  8
11
100
AcDbLine
 10
513.8924219090247
 20
383.3682413663252
 30
0.0
 11
513.8924219090247
 21
388.3682413663251
 31
0.0
  0
LINE
  5
B0
330
1E
100
AcDbEntity
  8
11
100
AcDbLine
 10
514.3924219090247
 20
383.3682413663252
 30
0.0
 11
514.3924219090247
 21
388.3682413663251
 31
0.0
  0
LINE
  5
B1
330
1E
100
AcDbEntity
  8
11
100
AcDbLine
 10
514.8924219090247
 20
383.3682413663252
 30
0.0
 11
514.8924219090247
 21
388.3682413663251
 31
0.0
  0
LINE
  5
B2
330
1E
100
AcDbEntity
  8
11
100
AcDbLine
 10
515.3924219090247
 20
383.3682413663252
 30
0.0
 11
515.3924219090247
 21
388.3682413663251
 31
0.0
  0
LINE
  5
B3
330
1E
100
AcDbEntity
  8
11
100
AcDbLine
 10
515.8924219090247
 20
383.3682413663252
 30
0.0
 11
515.8924219090247
 21
388.3682413663251
 31
0.0
  0
LINE
  5
B4
330
1E
100
AcDbEntity
  8
11
100
AcDbLine
 10
516.3924219090247
 20
388.3682413663251
 30
0.0
 11
516.3924219090247
 21
383.3682413663252
 31
0.0
  0
LINE
  5
B5
330
1E
100
AcDbEntity
  8
11
100
AcDbLine
 10
516.8924219090247
 20
383.3682413663252
 30
0.0
 11
516.8924219090247
 21
388.3682413663251
 31
0.0
  0
LINE
  5
B6
330
1E
100
AcDbEntity
  8
11
100
AcDbLine
 10
517.3924219090247
 20
388.3682413663251
 30
0.0
 11
517.3924219090247
 21
383.3682413663252
 31
0.0
  0
LINE
  5
B7
330
1E
100
AcDbEntity
  8
11
100
AcDbLine
 10
517.8924219090247
 20
383.3682413663252
 30
0.0
 11
517.8924219090247
 21
388.3682413663251
 31
0.0
  0
LINE
  5
B8
330
1E
100
AcDbEntity
  8
11
100
AcDbLine
 10
518.3924219090247
 20
388.3682413663251
 30
0.0
 11
518.3924219090247
 21
383.3682413663252
 31
0.0
  0
LINE
  5
B9
330
1E
100
AcDbEntity
  8
11
100
AcDbLine
 10
518.8924219090247
 20
383.3682413663252
 30
0.0
 11
518.8924219090247
 21
388.3682413663251
 31
0.0
  0
LINE
  5
BA
330
1E
100
AcDbEntity
  8
11
100
AcDbLine
 10
519.3924219090247
 20
388.3682413663251
 30
0.0
 11
519.3924219090247
 21
383.3682413663252
 31
0.0
  0
LINE
  5
BB
330
1E
100
AcDbEntity
  8
0
100
AcDbLine
 10
519.8924219090247
 20
383.3682413663252
 30
0.0
 11
519.8924219090247
 21
388.3682413663251
 31
0.0
  0
LINE
  5
BC
330
1E
100
AcDbEntity
  8
1
100
AcDbLine
 10
509.8924219090246
 20
421.8682413663254
 30
0.0
 11
509.8924219090246
 21
361.3682413663251
 31
0.0
  0
LINE
  5
BD
330
1E
100
AcDbEntity
  8
0
100
AcDbLine
 10
502.8924219090247
 20
388.3682413663251
 30
0.0
 11
502.8924219090247
 21
409.8682413663254
 31
0.0
  0
LINE
  5
BE
330
1E
100
AcDbEntity
  8
0
100
AcDbLine
 10
502.8924219090247
 20
409.8682413663254
 30
0.0
 11
503.3924219090247
 21
410.3682413663252
 31
0.0
  0
LINE
  5
BF
330
1E
100
AcDbEntity
  8
0
100
AcDbLine
 10
503.3924219090247
 20
410.3682413663252
 30
0.0
 11
516.3924219090247
 21
410.3682413663252
 31
0.0
  0
LINE
  5
C0
330
1E
100
AcDbEntity
  8
0
100
AcDbLine
 10
516.3924219090247
 20
410.3682413663252
 30
0.0
 11
516.8924219090247
 21
409.8682413663254
 31
0.0
  0
LINE
  5
C1
330
1E
100
AcDbEntity
  8
0
100
AcDbLine
 10
516.8924219090247
 20
409.8682413663254
 30
0.0
 11
516.8924219090247
 21
388.3682413663251
 31
0.0
  0
LINE
  5
C2
330
1E
100
AcDbEntity
  8
1
100
AcDbLine
 10
631.3838702242398
 20
421.3682413663254
 30
0.0
 11
631.3838702242398
 21
361.3682413663251
 31
0.0
  0
LINE
  5
C3
330
1E
100
AcDbEntity
  8
0
100
AcDbLine
 10
624.3838702242399
 20
388.3682413663251
 30
0.0
 11
624.3838702242399
 21
395.6682413663254
 31
0.0
  0
LINE
  5
C4
330
1E
100
AcDbEntity
  8
0
100
AcDbLine
 10
621.3838702242399
 20
388.3682413663251
 30
0.0
 11
641.3838702242399
 21
388.3682413663251
 31
0.0
  0
LINE
  5
C5
330
1E
100
AcDbEntity
  8
0
100
AcDbLine
 10
621.3838702242399
 20
383.3682413663252
 30
0.0
 11
641.3838702242399
 21
383.3682413663252
 31
0.0
  0
LINE
  5
C6
330
1E
100
AcDbEntity
  8
0
100
AcDbLine
 10
636.3838702242397
 20
371.3682413663252
 30
0.0
 11
635.3838702242398
 21
370.3682413663254
 31
0.0
  0
LINE
  5
C7
330
1E
100
AcDbEntity
  8
0
100
AcDbLine
 10
636.3838702242397
 20
371.3682413663252
 30
0.0
 11
626.3838702242399
 21
371.3682413663252
 31
0.0
  0
LINE
  5
C8
330
1E
100
AcDbEntity
  8
0
100
AcDbLine
 10
626.3838702242399
 20
371.3682413663252
 30
0.0
 11
626.3838702242399
 21
383.3682413663252
 31
0.0
  0
LINE
  5
C9
330
1E
100
AcDbEntity
  8
0
100
AcDbLine
 10
627.3838702242398
 20
383.3682413663252
 30
0.0
 11
627.3838702242398
 21
370.3682413663254
 31
0.0
  0
LINE
  5
CA
330
1E
100
AcDbEntity
  8
0
100
AcDbLine
 10
635.3838702242398
 20
370.3682413663254
 30
0.0
 11
635.3838702242398
 21
383.3682413663252
 31
0.0
  0
LINE
  5
CB
330
1E
100
AcDbEntity
  8
0
100
AcDbLine
 10
635.3838702242398
 20
370.3682413663254
 30
0.0
 11
627.3838702242398
 21
370.3682413663254
 31
0.0
  0
LINE
  5
CC
330
1E
100
AcDbEntity
  8
0
100
AcDbLine
 10
627.3838702242398
 20
370.3682413663254
 30
0.0
 11
626.3838702242399
 21
371.3682413663252
 31
0.0
  0
LINE
  5
CD
330
1E
100
AcDbEntity
  8
0
100
AcDbLine
 10
621.3838702242399
 20
388.3682413663251
 30
0.0
 11
621.3838702242399
 21
383.3682413663252
 31
0.0
  0
LINE
  5
CE
330
1E
100
AcDbEntity
  8
11
100
AcDbLine
 10
624.8838702242399
 20
383.3682413663252
 30
0.0
 11
624.8838702242399
 21
388.3682413663251
 31
0.0
  0
LINE
  5
CF
330
1E
100
AcDbEntity
  8
11
100
AcDbLine
 10
624.3838702242399
 20
383.3682413663252
 30
0.0
 11
624.3838702242399
 21
388.3682413663251
 31
0.0
  0
LINE
  5
D0
330
1E
100
AcDbEntity
  8
11
100
AcDbLine
 10
623.8838702242397
 20
383.3682413663252
 30
0.0
 11
623.8838702242397
 21
388.3682413663251
 31
0.0
  0
LINE
  5
D1
330
1E
100
AcDbEntity
  8
11
100
AcDbLine
 10
623.3838702242397
 20
383.3682413663252
 30
0.0
 11
623.3838702242397
 21
388.3682413663251
 31
0.0
  0
LINE
  5
D2
330
1E
100
AcDbEntity
  8
11
100
AcDbLine
 10
622.8838702242398
 20
383.3682413663252
 30
0.0
 11
622.8838702242398
 21
388.3682413663251
 31
0.0
  0
LINE
  5
D3
330
1E
100
AcDbEntity
  8
11
100
AcDbLine
 10
622.3838702242399
 20
383.3682413663252
 30
0.0
 11
622.3838702242399
 21
388.3682413663251
 31
0.0
  0
LINE
  5
D4
330
1E
100
AcDbEntity
  8
11
100
AcDbLine
 10
621.8838702242399
 20
383.3682413663252
 30
0.0
 11
621.8838702242399
 21
388.3682413663251
 31
0.0
  0
LINE
  5
D5
330
1E
100
AcDbEntity
  8
11
100
AcDbLine
 10
635.8838702242397
 20
383.3682413663252
 30
0.0
 11
635.8838702242397
 21
388.3682413663251
 31
0.0
  0
LINE
  5
D6
330
1E
100
AcDbEntity
  8
11
100
AcDbLine
 10
635.3838702242398
 20
383.3682413663252
 30
0.0
 11
635.3838702242398
 21
388.3682413663251
 31
0.0
  0
LINE
  5
D7
330
1E
100
AcDbEntity
  8
11
100
AcDbLine
 10
634.8838702242399
 20
383.3682413663252
 30
0.0
 11
634.8838702242399
 21
388.3682413663251
 31
0.0
  0
LINE
  5
D8
330
1E
100
AcDbEntity
  8
11
100
AcDbLine
 10
634.3838702242399
 20
383.3682413663252
 30
0.0
 11
634.3838702242399
 21
388.3682413663251
 31
0.0
  0
LINE
  5
D9
330
1E
100
AcDbEntity
  8
11
100
AcDbLine
 10
633.8838702242399
 20
383.3682413663252
 30
0.0
 11
633.8838702242399
 21
388.3682413663251
 31
0.0
  0
LINE
  5
DA
330
1E
100
AcDbEntity
  8
11
100
AcDbLine
 10
633.3838702242399
 20
384.3682413663252
 30
0.0
 11
633.3838702242399
 21
383.3682413663252
 31
0.0
  0
LINE
  5
DB
330
1E
100
AcDbEntity
  8
11
100
AcDbLine
 10
633.3838702242399
 20
384.3682413663252
 30
0.0
 11
633.3838702242399
 21
388.3682413663251
 31
0.0
  0
LINE
  5
DC
330
1E
100
AcDbEntity
  8
11
100
AcDbLine
 10
632.8838702242399
 20
383.3682413663252
 30
0.0
 11
632.8838702242399
 21
388.3682413663251
 31
0.0
  0
LINE
  5
DD
330
1E
100
AcDbEntity
  8
11
100
AcDbLine
 10
632.3838702242397
 20
383.8682413663251
 30
0.0
 11
632.3838702242397
 21
388.3682413663251
 31
0.0
  0
LINE
  5
DE
330
1E
100
AcDbEntity
  8
11
100
AcDbLine
 10
632.3838702242397
 20
383.3682413663252
 30
0.0
 11
632.3838702242397
 21
383.8682413663251
 31
0.0
  0
LINE
  5
DF
330
1E
100
AcDbEntity
  8
11
100
AcDbLine
 10
631.8838702242397
 20
383.3682413663252
 30
0.0
 11
631.8838702242397
 21
388.3682413663251
 31
0.0
  0
LINE
  5
E0
330
1E
100
AcDbEntity
  8
11
100
AcDbLine
 10
631.3838702242398
 20
383.3682413663252
 30
0.0
 11
631.3838702242398
 21
388.3682413663251
 31
0.0
  0
LINE
  5
E1
330
1E
100
AcDbEntity
  8
11
100
AcDbLine
 10
630.8838702242399
 20
383.3682413663252
 30
0.0
 11
630.8838702242399
 21
388.3682413663251
 31
0.0
  0
LINE
  5
E2
330
1E
100
AcDbEntity
  8
11
100
AcDbLine
 10
630.3838702242399
 20
383.3682413663252
 30
0.0
 11
630.3838702242399
 21
388.3682413663251
 31
0.0
  0
LINE
  5
E3
330
1E
100
AcDbEntity
  8
11
100
AcDbLine
 10
629.8838702242399
 20
383.3682413663252
 30
0.0
 11
629.8838702242399
 21
388.3682413663251
 31
0.0
  0
LINE
  5
E4
330
1E
100
AcDbEntity
  8
11
100
AcDbLine
 10
629.3838702242399
 20
383.3682413663252
 30
0.0
 11
629.3838702242399
 21
388.3682413663251
 31
0.0
  0
LINE
  5
E5
330
1E
100
AcDbEntity
  8
11
100
AcDbLine
 10
628.8838702242399
 20
383.3682413663252
 30
0.0
 11
628.8838702242399
 21
388.3682413663251
 31
0.0
  0
LINE
  5
E6
330
1E
100
AcDbEntity
  8
11
100
AcDbLine
 10
628.3838702242397
 20
383.3682413663252
 30
0.0
 11
628.3838702242397
 21
388.3682413663251
 31
0.0
  0
LINE
  5
E7
330
1E
100
AcDbEntity
  8
11
100
AcDbLine
 10
627.8838702242397
 20
383.3682413663252
 30
0.0
 11
627.8838702242397
 21
388.3682413663251
 31
0.0
  0
LINE
  5
E8
330
1E
100
AcDbEntity
  8
11
100
AcDbLine
 10
627.3838702242398
 20
383.3682413663252
 30
0.0
 11
627.3838702242398
 21
388.3682413663251
 31
0.0
  0
LINE
  5
E9
330
1E
100
AcDbEntity
  8
11
100
AcDbLine
 10
626.8838702242399
 20
383.3682413663252
 30
0.0
 11
626.8838702242399
 21
388.3682413663251
 31
0.0
  0
LINE
  5
EA
330
1E
100
AcDbEntity
  8
11
100
AcDbLine
 10
626.3838702242399
 20
383.3682413663252
 30
0.0
 11
626.3838702242399
 21
388.3682413663251
 31
0.0
  0
LINE
  5
EB
330
1E
100
AcDbEntity
  8
11
100
AcDbLine
 10
625.8838702242399
 20
383.3682413663252
 30
0.0
 11
625.8838702242399
 21
388.3682413663251
 31
0.0
  0
LINE
  5
EC
330
1E
100
AcDbEntity
  8
11
100
AcDbLine
 10
625.3838702242399
 20
383.3682413663252
 30
0.0
 11
625.3838702242399
 21
388.3682413663251
 31
0.0
  0
LINE
  5
ED
330
1E
100
AcDbEntity
  8
0
100
AcDbLine
 10
636.3838702242397
 20
383.3682413663252
 30
0.0
 11
636.3838702242397
 21
371.3682413663252
 31
0.0
  0
LINE
  5
EE
330
1E
100
AcDbEntity
  8
0
100
AcDbLine
 10
641.3838702242399
 20
383.3682413663252
 30
0.0
 11
641.3838702242399
 21
388.3682413663251
 31
0.0
  0
LINE
  5
EF
330
1E
100
AcDbEntity
  8
11
100
AcDbLine
 10
640.8838702242397
 20
388.3682413663251
 30
0.0
 11
640.8838702242397
 21
383.3682413663252
 31
0.0
  0
LINE
  5
F0
330
1E
100
AcDbEntity
  8
11
100
AcDbLine
 10
640.3838702242397
 20
383.3682413663252
 30
0.0
 11
640.3838702242397
 21
388.3682413663251
 31
0.0
  0
LINE
  5
F1
330
1E
100
AcDbEntity
  8
11
100
AcDbLine
 10
639.8838702242398
 20
388.3682413663251
 30
0.0
 11
639.8838702242398
 21
383.3682413663252
 31
0.0
  0
LINE
  5
F2
330
1E
100
AcDbEntity
  8
11
100
AcDbLine
 10
639.3838702242399
 20
383.3682413663252
 30
0.0
 11
639.3838702242399
 21
388.3682413663251
 31
0.0
  0
LINE
  5
F3
330
1E
100
AcDbEntity
  8
11
100
AcDbLine
 10
638.8838702242399
 20
388.3682413663251
 30
0.0
 11
638.8838702242399
 21
383.3682413663252
 31
0.0
  0
LINE
  5
F4
330
1E
100
AcDbEntity
  8
11
100
AcDbLine
 10
638.3838702242399
 20
383.3682413663252
 30
0.0
 11
638.3838702242399
 21
388.3682413663251
 31
0.0
  0
LINE
  5
F5
330
1E
100
AcDbEntity
  8
11
100
AcDbLine
 10
637.8838702242399
 20
388.3682413663251
 30
0.0
 11
637.8838702242399
 21
383.3682413663252
 31
0.0
  0
LINE
  5
F6
330
1E
100
AcDbEntity
  8
11
100
AcDbLine
 10
637.3838702242399
 20
383.3682413663252
 30
0.0
 11
637.3838702242399
 21
388.3682413663251
 31
0.0
  0
LINE
  5
F7
330
1E
100
AcDbEntity
  8
11
100
AcDbLine
 10
636.8838702242399
 20
383.3682413663252
 30
0.0
 11
636.8838702242399
 21
388.3682413663251
 31
0.0
  0
LINE
  5
F8
330
1E
100
AcDbEntity
  8
11
100
AcDbLine
 10
636.3838702242397
 20
383.3682413663252
 30
0.0
 11
636.3838702242397
 21
388.3682413663251
 31
0.0
  0
LINE
  5
F9
330
1E
100
AcDbEntity
  8
0
100
AcDbLine
 10
624.3838702242399
 20
409.8682413663254
 30
0.0
 11
624.8838702242399
 21
410.3682413663252
 31
0.0
  0
LINE
  5
FA
330
1E
100
AcDbEntity
  8
1
100
AcDbLine
 10
490.3924219090247
 20
400.3682413663254
 30
0.0
 11
531.8924219090247
 21
400.3682413663254
 31
0.0
  0
LINE
  5
FB
330
1E
100
AcDbEntity
  8
1
100
AcDbLine
 10
613.8838702242399
 20
400.3682413663254
 30
0.0
 11
735.8838702242397
 21
400.3682413663254
 31
0.0
  0
CIRCLE
  5
FC
330
1E
100
AcDbEntity
  8
0
100
AcDbCircle
 10
509.8924219090246
 20
400.3682413663254
 30
0.0
 40
4.75
  0
ARC
  5
FD
330
1E
100
AcDbEntity
  8
0
100
AcDbCircle
 10
509.8924219090246
 20
400.3682413663254
 30
0.0
 40
11.0
100
AcDbArc
 50
129.4980622900098
 51
230.4755898716659
  0
ARC
  5
FE
330
1E
100
AcDbEntity
  8
0
100
AcDbCircle
 10
509.8924219090246
 20
400.3682413663254
 30
0.0
 40
10.0
100
AcDbArc
 50
134.4450785872944
 51
225.6045387902288
  0
ARC
  5
FF
330
1E
100
AcDbEntity
  8
0
100
AcDbCircle
 10
509.8924219090246
 20
400.3682413663254
 30
0.0
 40
11.0
100
AcDbArc
 50
65.37345177093617
 51
114.5938203423644
  0
ARC
  5
100
330
1E
100
AcDbEntity
  8
0
100
AcDbCircle
 10
509.8924219090246
 20
400.3682413663254
 30
0.0
 40
10.0
100
AcDbArc
 50
314.4598317611812
 51
45.58318997593271
  0
ARC
  5
101
330
1E
100
AcDbEntity
  8
0
100
AcDbCircle
 10
509.8924219090246
 20
400.3682413663254
 30
0.0
 40
11.0
100
AcDbArc
 50
309.5049261558771
 51
50.48204808308533
  0
LINE
  5
102
330
1E
100
AcDbEntity
  8
0
100
AcDbLine
 10
624.8838702242399
 20
410.3682413663252
 30
0.0
 11
637.2838702242399
 21
410.3682413663252
 31
0.0
  0
LINE
  5
103
330
1E
100
AcDbEntity
  8
0
100
AcDbLine
 10
660.3838702242398
 20
410.3682413663252
 30
0.0
 11
660.3838702242398
 21
390.3682413663251
 31
0.0
  0
LINE
  5
104
330
1E
100
AcDbEntity
  8
0
100
AcDbLine
 10
660.3838702242398
 20
390.3682413663251
 30
0.0
 11
637.4838702242399
 21
390.3682413663251
 31
0.0
  0
ARC
  5
105
330
1E
100
AcDbEntity
  8
0
100
AcDbCircle
 10
720.7838702242399
 20
400.3682413663254
 30
0.0
 40
14.60000000000001
100
AcDbArc
 50
311.1120904391669
 51
48.887909560833
  0
LINE
  5
106
330
1E
100
AcDbEntity
  8
0
100
AcDbLine
 10
730.3838702242398
 20
411.3682413663251
 30
0.0
 11
660.3838702242398
 21
410.3682413663252
 31
0.0
  0
LINE
  5
107
330
1E
100
AcDbEntity
  8
0
100
AcDbLine
 10
730.3838702242398
 20
389.3682413663252
 30
0.0
 11
660.3838702242398
 21
390.3682413663251
 31
0.0
  0
LINE
  5
108
330
1E
100
AcDbEntity
  8
0
100
AcDbLine
 10
637.4838702242399
 20
410.3682413663252
 30
0.0
 11
637.3838702242399
 21
410.2682413663254
 31
0.0
  0
LINE
  5
109
330
1E
100
AcDbEntity
  8
0
100
AcDbLine
 10
637.4838702242399
 20
410.3682413663252
 30
0.0
 11
660.3838702242398
 21
410.3682413663252
 31
0.0
  0
LINE
  5
10A
330
1E
100
AcDbEntity
  8
0
100
AcDbLine
 10
637.2838702242399
 20
410.3682413663252
 30
0.0
 11
637.3838702242399
 21
410.2682413663254
 31
0.0
  0
LINE
  5
10B
330
1E
100
AcDbEntity
  8
0
100
AcDbLine
 10
637.3838702242399
 20
410.2682413663254
 30
0.0
 11
637.3838702242399
 21
388.3682413663251
 31
0.0
  0
LINE
  5
10C
330
1E
100
AcDbEntity
  8
0
100
AcDbLine
 10
637.4838702242399
 20
390.3682413663251
 30
0.0
 11
637.3838702242399
 21
390.4682413663254
 31
0.0
  0
ARC
  5
10D
330
1E
100
AcDbEntity
  8
0
100
AcDbCircle
 10
617.7705368909065
 20
400.3682413663254
 30
0.0
 40
8.113333333333335
100
AcDbArc
 50
324.5991444226652
 51
35.40085557733427
  0
LINE
  5
10E
330
1E
100
AcDbEntity
  8
0
100
AcDbLine
 10
624.3838702242399
 20
405.0682413663252
 30
0.0
 11
624.3838702242399
 21
409.8682413663254
 31
0.0
  0
ENDSEC
  0
SECTION
  2
OBJECTS
  0
DICTIONARY
  5
C
330
0
100
AcDbDictionary
281
     1
  3
ACAD_GROUP
350
D
  3
ACAD_LAYOUT
350
19
  3
ACAD_MLINESTYLE
350
16
  3
ACAD_PLOTSETTINGS
350
18
  3
ACAD_PLOTSTYLENAME
350
E
  3
AcDbVariableDictionary
350
253
  3
AcmDictionary
350
228
  3
AMG
350
16F
  3
AMGSNAPSETTINGS
350
245
  3
DWGPROPS
350
22B
  3
MAPISURF_MODULE
350
1FB
  0
DICTIONARY
  5
24C
330
1E
100
AcDbDictionary
280
     1
281
     1
  3
ACAD_INDEX
360
24D
  0
DICTIONARY
  5
D
102
{ACAD_REACTORS
330
C
102
}
330
C
100
AcDbDictionary
281
     1
  0
DICTIONARY
  5
19
102
{ACAD_REACTORS
330
C
102
}
330
C
100
AcDbDictionary
281
     1
  3
Model
350
21
  3
ﾚｲｱｳﾄ1
350
1D
  0
DICTIONARY
  5
16
102
{ACAD_REACTORS
330
C
102
}
330
C
100
AcDbDictionary
281
     1
  3
Standard
350
17
  0
DICTIONARY
  5
18
102
{ACAD_REACTORS
330
C
102
}
330
C
100
AcDbDictionary
281
     1
  0
ACDBDICTIONARYWDFLT
  5
E
102
{ACAD_REACTORS
330
C
102
}
330
C
100
AcDbDictionary
281
     1
  3
Normal
350
F
100
AcDbDictionaryWithDefault
340
F
  0
DICTIONARY
  5
253
102
{ACAD_REACTORS
330
C
102
}
330
C
100
AcDbDictionary
281
     1
  3
DIMASSOC
350
255
  3
INDEXCTL
350
254
  0
DICTIONARY
  5
228
102
{ACAD_REACTORS
330
C
102
}
330
C
100
AcDbDictionary
281
     1
  3
AcmBOMDATA
350
229
  0
DICTIONARY
  5
16F
102
{ACAD_REACTORS
330
C
102
}
330
C
100
AcDbDictionary
281
     1
  3
AcMgSettings
350
170
  3
AMGLAYCFG
350
235
  0
DICTIONARY
  5
245
102
{ACAD_REACTORS
330
C
102
}
330
C
100
AcDbDictionary
281
     1
  3
DIMENSION
350
24A
  3
FEA
350
249
  3
HATCH (1)
350
246
  3
HATCH (2)
350
247
  3
SIMPLE WELD
350
24B
  3
SYMBOLS
350
248
  0
XRECORD
  5
22B
102
{ACAD_REACTORS
330
C
102
}
330
C
100
AcDbXrecord
280
     1
  1
DWGPROPS COOKIE
  2

  3

  4

  6

  7

  8

  9

300
AmdtFileType=84
301
=
302
=
303
=
304
=
305
=
306
=
307
=
308
=
309
=
 40
0.0000025231481481
 41
2450686.766469907
 42
2450686.766469907
  1

 90
        1
  0
DICTIONARY
  5
24D
102
{ACAD_REACTORS
330
24C
102
}
330
24C
100
AcDbDictionary
281
     1
  3
*A1
350
24E
  0
LAYOUT
  5
21
102
{ACAD_REACTORS
330
19
102
}
330
19
100
AcDbPlotSettings
  1

  2
\\KONISHIDENXP\SHARP MX-2700FG
  4

  6

 40
0.0
 41
0.0
 42
0.0
 43
0.0
 44
0.0
 45
0.0
 46
0.0
 47
0.0
 48
0.0
 49
0.0
140
0.0
141
0.0
142
1.0
143
1.0
 70
  1712
 72
     0
 73
     0
 74
     0
  7

 75
     0
147
1.0
148
0.0
149
0.0
100
AcDbLayout
  1
Model
 70
     1
 71
     0
 10
0.0
 20
0.0
 11
12.0
 21
9.0
 12
0.0
 22
0.0
 32
0.0
 14
0.0
 24
0.0
 34
0.0
 15
0.0
 25
0.0
 35
0.0
146
0.0
 13
0.0
 23
0.0
 33
0.0
 16
1.0
 26
0.0
 36
0.0
 17
0.0
 27
1.0
 37
0.0
 76
     0
330
1E
  0
LAYOUT
  5
1D
102
{ACAD_REACTORS
330
19
102
}
330
19
100
AcDbPlotSettings
  1

  2
\\KONISHIDENXP\SHARP MX-2700FG
  4

  6

 40
0.0
 41
0.0
 42
0.0
 43
0.0
 44
0.0
 45
0.0
 46
0.0
 47
0.0
 48
0.0
 49
0.0
140
0.0
141
0.0
142
1.0
143
1.0
 70
   688
 72
     0
 73
     0
 74
     5
  7

 75
    16
147
1.0
148
0.0
149
0.0
100
AcDbLayout
  1
ﾚｲｱｳﾄ1
 70
     0
 71
     1
 10
0.0
 20
0.0
 11
12.0
 21
9.0
 12
0.0
 22
0.0
 32
0.0
 14
1.000000000000000E+20
 24
1.000000000000000E+20
 34
1.000000000000000E+20
 15
-1.000000000000000E+20
 25
-1.000000000000000E+20
 35
-1.000000000000000E+20
146
0.0
 13
0.0
 23
0.0
 33
0.0
 16
1.0
 26
0.0
 36
0.0
 17
0.0
 27
1.0
 37
0.0
 76
     0
330
1A
  0
MLINESTYLE
  5
17
102
{ACAD_REACTORS
330
16
102
}
330
16
100
AcDbMlineStyle
  2
STANDARD
 70
     0
  3

 62
   256
 51
90.0
 52
90.0
 71
     2
 49
0.5
 62
   256
  6
BYLAYER
 49
-0.5
 62
   256
  6
BYLAYER
  0
ACDBPLACEHOLDER
  5
F
102
{ACAD_REACTORS
330
E
102
}
330
E
  0
DICTIONARYVAR
  5
255
102
{ACAD_REACTORS
330
253
102
}
330
253
100
DictionaryVariables
280
     0
  1
0
  0
DICTIONARYVAR
  5
254
102
{ACAD_REACTORS
330
253
102
}
330
253
100
DictionaryVariables
280
     0
  1
1
  0
ACMDATADICTIONARY
  5
229
102
{ACAD_REACTORS
330
228
102
}
330
228
100
AcDbDictionary
281
     1
  3
*A1
350
22A
100
AcmDataDictionary
  0
DICTIONARY
  5
170
102
{ACAD_REACTORS
330
16F
102
}
330
16F
100
AcDbDictionary
281
     1
  3
DWGSETTINGS
350
171
  0
ACAMGFILTERDAT
  5
24A
102
{ACAD_REACTORS
330
245
102
}
330
245
100
AcAmgFilterDat
 70
    15
  1
DIMENSION,AMDT_*_DIM
  2
*
  3
*
  4
*
  5
*
290
     1
  0
ACAMGFILTERDAT
  5
249
102
{ACAD_REACTORS
330
245
102
}
330
245
100
AcAmgFilterDat
 70
    15
  1
*
  2
AM_FEA-AM_*
  3
*
  4
*
  5
*
290
     1
  0
ACAMGFILTERDAT
  5
246
102
{ACAD_REACTORS
330
245
102
}
330
245
100
AcAmgFilterDat
 70
    15
  1
HATCH
  2
*
  3
*
  4
*
  5
*
290
     1
  0
ACAMGFILTERDAT
  5
247
102
{ACAD_REACTORS
330
245
102
}
330
245
100
AcAmgFilterDat
 70
    15
  1
LINE
  2
8,8N,*-8,*-8N,AM_8,AM_8N,*-AM_8,*-AM_8N
  3
*
  4
*
  5
INSERT,STDPART2D
290
     1
  0
ACAMGFILTERDAT
  5
24B
102
{ACAD_REACTORS
330
245
102
}
330
245
100
AcAmgFilterDat
 70
    15
  1
ARC
  2
AM_5
  3
*
  4
2
  5
INSERT
290
     0
  0
ACAMGFILTERDAT
  5
248
102
{ACAD_REACTORS
330
245
102
}
330
245
100
AcAmgFilterDat
 70
    15
  1
ACMFCFRAME,ACMDATUMTARGET,ACMDATUMID,ACMWELDSYM,ACMSURFSYM,ACMFEATID,ACMPARTREF,ACMBALLOON,AMDTEDGESYM,AMGSCREWCALCTABLE
  2
*
  3
*
  4
*
  5
*
290
     1
  0
LAYER_INDEX
  5
24E
102
{ACAD_REACTORS
330
24D
102
}
330
24D
100
AcDbIndex
 40
2456448.728834815
100
AcDbLayerIndex
  8
0
360
24F
 90
       69
  8
1
360
250
 90
        6
  8
10
360
251
 90
        0
  8
11
360
252
 90
      123
  0
ACMDATAENTRYBLOCK
  5
22A
102
{ACAD_REACTORS
330
229
102
}
330
229
100
AcmDataEntry
100
AcmDataEntryBlock
  0
IDBUFFER
  5
24F
330
0
100
AcDbIdBuffer
330
EE
330
F9
330
FC
330
FD
330
FE
330
FF
330
100
330
101
330
102
330
103
330
104
330
105
330
106
330
107
330
108
330
109
330
10A
330
10B
330
10C
330
10D
330
10E
330
42
330
43
330
44
330
45
330
46
330
47
330
48
330
49
330
4A
330
4B
330
4C
330
4D
330
4E
330
4F
330
50
330
51
330
52
330
53
330
54
330
87
330
88
330
89
330
8A
330
8B
330
8C
330
8D
330
8E
330
8F
330
90
330
98
330
BB
330
BD
330
BE
330
BF
330
C0
330
C1
330
C3
330
C4
330
C5
330
C6
330
C7
330
C8
330
C9
330
CA
330
CB
330
CC
330
CD
330
ED
  0
IDBUFFER
  5
250
330
0
100
AcDbIdBuffer
330
40
330
41
330
BC
330
C2
330
FA
330
FB
  0
IDBUFFER
  5
251
330
0
100
AcDbIdBuffer
  0
IDBUFFER
  5
252
330
0
100
AcDbIdBuffer
330
EC
330
EF
330
F0
330
F1
330
F2
330
F3
330
F4
330
F5
330
F6
330
F7
330
F8
330
55
330
56
330
57
330
58
330
59
330
5A
330
5B
330
5C
330
5D
330
5E
330
5F
330
60
330
61
330
62
330
63
330
64
330
65
330
66
330
67
330
68
330
69
330
6A
330
6B
330
6C
330
6D
330
6E
330
6F
330
70
330
71
330
72
330
73
330
74
330
75
330
76
330
77
330
78
330
79
330
7A
330
7B
330
7C
330
7D
330
91
330
92
330
93
330
94
330
95
330
96
330
97
330
99
330
9A
330
9B
330
9C
330
9D
330
9E
330
9F
330
A0
330
A1
330
A2
330
A3
330
A4
330
A5
330
A6
330
A7
330
A8
330
A9
330
AA
330
AB
330
AC
330
AD
330
AE
330
AF
330
B0
330
B1
330
B2
330
B3
330
B4
330
B5
330
B6
330
B7
330
B8
330
B9
330
BA
330
CE
330
CF
330
D0
330
D1
330
D2
330
D3
330
D4
330
D5
330
D6
330
D7
330
D8
330
D9
330
DA
330
DB
330
DC
330
DD
330
DE
330
DF
330
E0
330
E1
330
E2
330
E3
330
E4
330
E5
330
E6
330
E7
330
E8
330
E9
330
EA
330
EB
  0
ENDSEC
  0
EOF
