  0
SECTION
  2
HEADER
  9
$ACADVER
  1
AC1014
  9
$ACADMAINTVER
 70
     0
  9
$DWGCODEPAGE
  3
ANSI_932
  9
$INSBASE
 10
0.0
 20
0.0
 30
0.0
  9
$EXTMIN
 10
73.5
 20
68.5
 30
0.0
  9
$EXTMAX
 10
306.5
 20
211.5
 30
0.0
  9
$LIMMIN
 10
0.0
 20
0.0
  9
$LIMMAX
 10
375.0
 20
270.0
  9
$ORTHOMODE
 70
     1
  9
$REGENMODE
 70
     1
  9
$FILLMODE
 70
     1
  9
$QTEXTMODE
 70
     0
  9
$MIRRTEXT
 70
     0
  9
$DRAGMODE
 70
     2
  9
$LTSCALE
 40
10.0
  9
$OSMODE
 70
   231
  9
$ATTMODE
 70
     1
  9
$TEXTSIZE
 40
4.0
  9
$TRACEWID
 40
0.05
  9
$TEXTSTYLE
  7
STANDARD
  9
$CLAYER
  8
0
  9
$CELTYPE
  6
BYLAYER
  9
$CECOLOR
 62
   256
  9
$CELTSCALE
 40
1.0
  9
$DELOBJ
 70
     1
  9
$DISPSILH
 70
     0
  9
$DIMSCALE
 40
1.0
  9
$DIMASZ
 40
3.0
  9
$DIMEXO
 40
2.0
  9
$DIMDLI
 40
0.38
  9
$DIMRND
 40
0.0
  9
$DIMDLE
 40
0.0
  9
$DIMEXE
 40
2.0
  9
$DIMTP
 40
0.0
  9
$DIMTM
 40
0.0
  9
$DIMTXT
 40
3.2
  9
$DIMCEN
 40
0.0
  9
$DIMTSZ
 40
0.0
  9
$DIMTOL
 70
     0
  9
$DIMLIM
 70
     0
  9
$DIMTIH
 70
     0
  9
$DIMTOH
 70
     0
  9
$DIMSE1
 70
     0
  9
$DIMSE2
 70
     0
  9
$DIMTAD
 70
     1
  9
$DIMZIN
 70
     0
  9
$DIMBLK
  1

  9
$DIMASO
 70
     1
  9
$DIMSHO
 70
     0
  9
$DIMPOST
  1

  9
$DIMAPOST
  1

  9
$DIMALT
 70
     0
  9
$DIMALTD
 70
     2
  9
$DIMALTF
 40
25.4
  9
$DIMLFAC
 40
1.0
  9
$DIMTOFL
 70
     1
  9
$DIMTVP
 40
1.6
  9
$DIMTIX
 70
     1
  9
$DIMSOXD
 70
     0
  9
$DIMSAH
 70
     0
  9
$DIMBLK1
  1

  9
$DIMBLK2
  1

  9
$DIMSTYLE
  2
STANDARD
  9
$DIMCLRD
 70
     0
  9
$DIMCLRE
 70
     0
  9
$DIMCLRT
 70
     0
  9
$DIMTFAC
 40
1.0
  9
$DIMGAP
 40
0.09
  9
$DIMJUST
 70
     0
  9
$DIMSD1
 70
     0
  9
$DIMSD2
 70
     0
  9
$DIMTOLJ
 70
     1
  9
$DIMTZIN
 70
     0
  9
$DIMALTZ
 70
     0
  9
$DIMALTTZ
 70
     0
  9
$DIMFIT
 70
     3
  9
$DIMUPT
 70
     0
  9
$DIMUNIT
 70
     2
  9
$DIMDEC
 70
     4
  9
$DIMTDEC
 70
     4
  9
$DIMALTU
 70
     2
  9
$DIMALTTD
 70
     2
  9
$DIMTXSTY
  7
STANDARD
  9
$DIMAUNIT
 70
     0
  9
$LUNITS
 70
     2
  9
$LUPREC
 70
     4
  9
$SKETCHINC
 40
0.1
  9
$FILLETRAD
 40
0.5
  9
$AUNITS
 70
     0
  9
$AUPREC
 70
     4
  9
$MENU
  1
E:\r13\win\SUPPORT\ACAD
  9
$ELEVATION
 40
0.0
  9
$PELEVATION
 40
0.0
  9
$THICKNESS
 40
0.0
  9
$LIMCHECK
 70
     0
  9
$BLIPMODE
 70
     1
  9
$CHAMFERA
 40
0.0
  9
$CHAMFERB
 40
0.0
  9
$CHAMFERC
 40
0.0
  9
$CHAMFERD
 40
0.0
  9
$SKPOLY
 70
     0
  9
$TDCREATE
 40
2449839.781493055
  9
$TDUPDATE
 40
2453557.676554352
  9
$TDINDWG
 40
0.0007467130
  9
$TDUSRTIMER
 40
0.0007467130
  9
$USRTIMER
 70
     1
  9
$ANGBASE
 50
0.0
  9
$ANGDIR
 70
     0
  9
$PDMODE
 70
     0
  9
$PDSIZE
 40
0.0
  9
$PLINEWID
 40
0.0
  9
$COORDS
 70
     0
  9
$SPLFRAME
 70
     0
  9
$SPLINETYPE
 70
     6
  9
$SPLINESEGS
 70
     8
  9
$ATTDIA
 70
     0
  9
$ATTREQ
 70
     1
  9
$HANDLING
 70
     1
  9
$HANDSEED
  5
1BA
  9
$SURFTAB1
 70
     6
  9
$SURFTAB2
 70
     6
  9
$SURFTYPE
 70
     6
  9
$SURFU
 70
     6
  9
$SURFV
 70
     6
  9
$UCSNAME
  2

  9
$UCSORG
 10
0.0
 20
0.0
 30
0.0
  9
$UCSXDIR
 10
1.0
 20
0.0
 30
0.0
  9
$UCSYDIR
 10
0.0
 20
1.0
 30
0.0
  9
$PUCSNAME
  2

  9
$PUCSORG
 10
0.0
 20
0.0
 30
0.0
  9
$PUCSXDIR
 10
1.0
 20
0.0
 30
0.0
  9
$PUCSYDIR
 10
0.0
 20
1.0
 30
0.0
  9
$USERI1
 70
     0
  9
$USERI2
 70
     1
  9
$USERI3
 70
     1
  9
$USERI4
 70
     0
  9
$USERI5
 70
     0
  9
$USERR1
 40
0.0
  9
$USERR2
 40
0.0
  9
$USERR3
 40
0.0
  9
$USERR4
 40
0.0
  9
$USERR5
 40
0.0
  9
$WORLDVIEW
 70
     1
  9
$SHADEDGE
 70
     3
  9
$SHADEDIF
 70
    70
  9
$TILEMODE
 70
     1
  9
$MAXACTVP
 70
    16
  9
$PINSBASE
 10
0.0
 20
0.0
 30
0.0
  9
$PLIMCHECK
 70
     0
  9
$PEXTMIN
 10
1.000000E+20
 20
1.000000E+20
 30
1.000000E+20
  9
$PEXTMAX
 10
-1.000000E+20
 20
-1.000000E+20
 30
-1.000000E+20
  9
$PLIMMIN
 10
0.0
 20
0.0
  9
$PLIMMAX
 10
12.0
 20
9.0
  9
$UNITMODE
 70
     0
  9
$VISRETAIN
 70
     0
  9
$PLINEGEN
 70
     0
  9
$PSLTSCALE
 70
     0
  9
$TREEDEPTH
 70
  3020
  9
$PICKSTYLE
 70
     1
  9
$CMLSTYLE
  2
STANDARD
  9
$CMLJUST
 70
     0
  9
$CMLSCALE
 40
1.0
  9
$PROXYGRAPHICS
 70
     1
  9
$MEASUREMENT
 70
     0
  0
ENDSEC
  0
SECTION
  2
CLASSES
  0
ENDSEC
  0
SECTION
  2
TABLES
  0
TABLE
  2
VPORT
  5
195
100
AcDbSymbolTable
 70
     3
  0
VPORT
  5
1B9
100
AcDbSymbolTableRecord
100
AcDbViewportTableRecord
  2
*ACTIVE
 70
     0
 10
0.0
 20
0.0
 11
1.0
 21
1.0
 12
193.717472
 22
135.0
 13
0.0
 23
0.0
 14
10.0
 24
10.0
 15
10.0
 25
10.0
 16
0.0
 26
0.0
 36
1.0
 17
0.0
 27
0.0
 37
0.0
 40
270.0
 41
1.434944
 42
50.0
 43
0.0
 44
0.0
 50
0.0
 51
0.0
 71
     0
 72
   500
 73
     1
 74
     0
 75
     0
 76
     0
 77
     0
 78
     2
  0
ENDTAB
  0
TABLE
  2
LTYPE
  5
192
100
AcDbSymbolTable
 70
     3
  0
LTYPE
  5
19F
100
AcDbSymbolTableRecord
100
AcDbLinetypeTableRecord
  2
BYBLOCK
 70
     0
  3

 72
    65
 73
     0
 40
0.0
  0
LTYPE
  5
1A0
100
AcDbSymbolTableRecord
100
AcDbLinetypeTableRecord
  2
BYLAYER
 70
     0
  3

 72
    65
 73
     0
 40
0.0
  0
LTYPE
  5
1A1
100
AcDbSymbolTableRecord
100
AcDbLinetypeTableRecord
  2
CONTINUOUS
 70
     0
  3
Solid Line
 72
    65
 73
     0
 40
0.0
  0
LTYPE
  5
1AC
100
AcDbSymbolTableRecord
100
AcDbLinetypeTableRecord
  2
CENTER
 70
     0
  3
____ _ ____ _ ____ _ ____ _ ____ _ ____ _ ____
 72
    65
 73
     4
 40
2.0
 49
1.25
 74
     0
 49
-0.25
 74
     0
 49
0.25
 74
     0
 49
-0.25
 74
     0
  0
LTYPE
  5
1AD
100
AcDbSymbolTableRecord
100
AcDbLinetypeTableRecord
  2
HIDDEN
 70
     0
  3
_ _ _ _ _ _ _ _ _ _ _ _ _ _ _ _ _ _ _ _ _ _ _
 72
    65
 73
     2
 40
0.375
 49
0.25
 74
     0
 49
-0.125
 74
     0
  0
ENDTAB
  0
TABLE
  2
LAYER
  5
18F
100
AcDbSymbolTable
 70
     4
  0
LAYER
  5
19B
100
AcDbSymbolTableRecord
100
AcDbLayerTableRecord
  2
0
 70
     0
 62
     7
  6
CONTINUOUS
  0
LAYER
  5
1AE
100
AcDbSymbolTableRecord
100
AcDbLayerTableRecord
  2
1
 70
     0
 62
     1
  6
CENTER
  0
LAYER
  5
1AF
100
AcDbSymbolTableRecord
100
AcDbLayerTableRecord
  2
2
 70
     0
 62
     2
  6
HIDDEN
  0
LAYER
  5
1B0
100
AcDbSymbolTableRecord
100
AcDbLayerTableRecord
  2
3
 70
     0
 62
     3
  6
CONTINUOUS
  0
ENDTAB
  0
TABLE
  2
STYLE
  5
190
100
AcDbSymbolTable
 70
     1
  0
STYLE
  5
19C
100
AcDbSymbolTableRecord
100
AcDbTextStyleTableRecord
  2
STANDARD
 70
     0
 40
0.0
 41
1.0
 50
0.0
 71
     0
 42
4.0
  3
TXT
  4
BIGFONT
  0
ENDTAB
  0
TABLE
  2
VIEW
  5
193
100
AcDbSymbolTable
 70
     1
  0
VIEW
  5
1B1
100
AcDbSymbolTableRecord
100
AcDbViewTableRecord
  2
ALL
 70
     0
 40
270.0
 10
220.991597
 20
135.0
 41
0.0
 11
0.0
 21
0.0
 31
1.0
 12
0.0
 22
0.0
 32
0.0
 42
0.0
 43
0.0
 44
0.0
 50
0.0
 71
     0
  0
ENDTAB
  0
TABLE
  2
UCS
  5
194
100
AcDbSymbolTable
 70
     0
  0
ENDTAB
  0
TABLE
  2
APPID
  5
196
100
AcDbSymbolTable
 70
     1
  0
APPID
  5
19D
100
AcDbSymbolTableRecord
100
AcDbRegAppTableRecord
  2
ACAD
 70
     0
  0
ENDTAB
  0
TABLE
  2
DIMSTYLE
  5
197
100
AcDbSymbolTable
 70
     1
  0
DIMSTYLE
105
1B2
100
AcDbSymbolTableRecord
100
AcDbDimStyleTableRecord
  2
STANDARD
 70
     0
  3

  4

  5

  6

  7

 40
1.0
 41
0.18
 42
0.0625
 43
0.38
 44
0.18
 45
0.0
 46
0.0
 47
0.0
 48
0.0
140
0.18
141
0.09
142
0.0
143
25.4
144
1.0
145
0.0
146
1.0
147
0.09
 71
     0
 72
     0
 73
     1
 74
     1
 75
     0
 76
     0
 77
     0
 78
     0
170
     0
171
     2
172
     0
173
     0
174
     0
175
     0
176
     0
177
     0
178
     0
270
     2
271
     4
272
     4
273
     2
274
     2
340
19C
275
     0
280
     0
281
     0
282
     0
283
     1
284
     0
285
     0
286
     0
287
     3
288
     0
  0
ENDTAB
  0
TABLE
  2
BLOCK_RECORD
  5
18E
100
AcDbSymbolTable
 70
     2
  0
BLOCK_RECORD
  5
1A5
100
AcDbSymbolTableRecord
100
AcDbBlockTableRecord
  2
*MODEL_SPACE
  0
BLOCK_RECORD
  5
1A2
100
AcDbSymbolTableRecord
100
AcDbBlockTableRecord
  2
*PAPER_SPACE
  0
BLOCK_RECORD
  5
1B4
100
AcDbSymbolTableRecord
100
AcDbBlockTableRecord
  2
$MODEL_SPACE
  0
BLOCK_RECORD
  5
1B6
100
AcDbSymbolTableRecord
100
AcDbBlockTableRecord
  2
$PAPER_SPACE
  0
ENDTAB
  0
ENDSEC
  0
SECTION
  2
BLOCKS
  0
BLOCK
  5
1A6
100
AcDbEntity
  8
0
100
AcDbBlockBegin
  2
*MODEL_SPACE
 70
     0
 10
0.0
 20
0.0
 30
0.0
  3
*MODEL_SPACE
  1

  0
ENDBLK
  5
1A7
100
AcDbEntity
  8
0
100
AcDbBlockEnd
  0
BLOCK
  5
1A3
100
AcDbEntity
 67
     1
  8
0
100
AcDbBlockBegin
  2
*PAPER_SPACE
 70
     0
 10
0.0
 20
0.0
 30
0.0
  3
*PAPER_SPACE
  1

  0
ENDBLK
  5
1A4
100
AcDbEntity
 67
     1
  8
0
100
AcDbBlockEnd
  0
BLOCK
  5
1B5
100
AcDbEntity
  8
0
100
AcDbBlockBegin
  2
$MODEL_SPACE
 70
     0
 10
0.0
 20
0.0
 30
0.0
  3
$MODEL_SPACE
  1

  0
ENDBLK
  5
136
100
AcDbEntity
  8
0
100
AcDbBlockEnd
  0
BLOCK
  5
1B7
100
AcDbEntity
  8
0
100
AcDbBlockBegin
  2
$PAPER_SPACE
 70
     0
 10
0.0
 20
0.0
 30
0.0
  3
$PAPER_SPACE
  1

  0
ENDBLK
  5
134
100
AcDbEntity
  8
0
100
AcDbBlockEnd
  0
ENDSEC
  0
SECTION
  2
ENTITIES
  0
LINE
  5
36
100
AcDbEntity
  8
0
100
AcDbLine
 10
90.0
 20
142.309401
 30
0.0
 11
92.0
 21
141.154701
 31
0.0
  0
LINE
  5
37
100
AcDbEntity
  8
0
100
AcDbLine
 10
88.0
 20
141.154701
 30
0.0
 11
90.0
 21
142.309401
 31
0.0
  0
LINE
  5
38
100
AcDbEntity
  8
0
100
AcDbLine
 10
88.0
 20
138.845299
 30
0.0
 11
88.0
 21
141.154701
 31
0.0
  0
LINE
  5
39
100
AcDbEntity
  8
0
100
AcDbLine
 10
90.0
 20
137.690599
 30
0.0
 11
88.0
 21
138.845299
 31
0.0
  0
LINE
  5
3A
100
AcDbEntity
  8
0
100
AcDbLine
 10
92.0
 20
138.845299
 30
0.0
 11
90.0
 21
137.690599
 31
0.0
  0
LINE
  5
3B
100
AcDbEntity
  8
0
100
AcDbLine
 10
92.0
 20
141.154701
 30
0.0
 11
92.0
 21
138.845299
 31
0.0
  0
CIRCLE
  5
3C
100
AcDbEntity
  8
0
100
AcDbCircle
 10
90.0
 20
140.0
 30
0.0
 40
4.0
  0
CIRCLE
  5
3D
100
AcDbEntity
  8
3
100
AcDbCircle
 10
90.0
 20
140.0
 30
0.0
 40
3.3235
  0
LINE
  5
3E
100
AcDbEntity
  8
0
100
AcDbLine
 10
96.000588
 20
144.330467
 30
0.0
 11
94.780398
 21
143.625989
 31
0.0
  0
LINE
  5
3F
100
AcDbEntity
  8
0
100
AcDbLine
 10
96.750588
 20
143.031429
 30
0.0
 11
95.530398
 21
142.326951
 31
0.0
  0
LINE
  5
40
100
AcDbEntity
  8
0
100
AcDbLine
 10
94.821152
 20
143.649519
 30
0.0
 11
95.571152
 21
142.350481
 31
0.0
  0
LINE
  5
41
100
AcDbEntity
  8
0
100
AcDbLine
 10
96.750588
 20
136.968571
 30
0.0
 11
95.530398
 21
137.673049
 31
0.0
  0
LINE
  5
42
100
AcDbEntity
  8
0
100
AcDbLine
 10
96.000588
 20
135.669533
 30
0.0
 11
94.780398
 21
136.374011
 31
0.0
  0
LINE
  5
43
100
AcDbEntity
  8
0
100
AcDbLine
 10
95.571152
 20
137.649519
 30
0.0
 11
94.821152
 21
136.350481
 31
0.0
  0
LINE
  5
44
100
AcDbEntity
  8
0
100
AcDbLine
 10
90.75
 20
132.638105
 30
0.0
 11
90.75
 21
134.04706
 31
0.0
  0
LINE
  5
45
100
AcDbEntity
  8
0
100
AcDbLine
 10
89.25
 20
132.638105
 30
0.0
 11
89.25
 21
134.04706
 31
0.0
  0
LINE
  5
46
100
AcDbEntity
  8
0
100
AcDbLine
 10
90.75
 20
134.0
 30
0.0
 11
89.25
 21
134.0
 31
0.0
  0
LINE
  5
47
100
AcDbEntity
  8
0
100
AcDbLine
 10
83.999412
 20
135.669533
 30
0.0
 11
85.219602
 21
136.374011
 31
0.0
  0
LINE
  5
48
100
AcDbEntity
  8
0
100
AcDbLine
 10
83.249412
 20
136.968571
 30
0.0
 11
84.469602
 21
137.673049
 31
0.0
  0
LINE
  5
49
100
AcDbEntity
  8
0
100
AcDbLine
 10
85.178848
 20
136.350481
 30
0.0
 11
84.428848
 21
137.649519
 31
0.0
  0
LINE
  5
4A
100
AcDbEntity
  8
0
100
AcDbLine
 10
83.249412
 20
143.031429
 30
0.0
 11
84.469602
 21
142.326951
 31
0.0
  0
LINE
  5
4B
100
AcDbEntity
  8
0
100
AcDbLine
 10
83.999412
 20
144.330467
 30
0.0
 11
85.219602
 21
143.625989
 31
0.0
  0
LINE
  5
4C
100
AcDbEntity
  8
0
100
AcDbLine
 10
84.428848
 20
142.350481
 30
0.0
 11
85.178848
 21
143.649519
 31
0.0
  0
CIRCLE
  5
4D
100
AcDbEntity
  8
0
100
AcDbCircle
 10
90.0
 20
140.0
 30
0.0
 40
6.0
  0
LINE
  5
4E
100
AcDbEntity
  8
1
100
AcDbLine
 10
98.573651
 20
144.95
 30
0.0
 11
92.598076
 21
141.5
 31
0.0
  0
LINE
  5
4F
100
AcDbEntity
  8
1
100
AcDbLine
 10
98.573651
 20
135.05
 30
0.0
 11
92.598076
 21
138.5
 31
0.0
  0
LINE
  5
50
100
AcDbEntity
  8
1
100
AcDbLine
 10
81.426349
 20
135.05
 30
0.0
 11
87.401924
 21
138.5
 31
0.0
  0
LINE
  5
51
100
AcDbEntity
  8
1
100
AcDbLine
 10
81.426349
 20
144.95
 30
0.0
 11
87.401924
 21
141.5
 31
0.0
  0
LINE
  5
52
100
AcDbEntity
  8
0
100
AcDbLine
 10
89.25
 20
146.0
 30
0.0
 11
90.75
 21
146.0
 31
0.0
  0
LINE
  5
53
100
AcDbEntity
  8
0
100
AcDbLine
 10
90.75
 20
147.361895
 30
0.0
 11
90.75
 21
145.95294
 31
0.0
  0
LINE
  5
54
100
AcDbEntity
  8
0
100
AcDbLine
 10
89.25
 20
147.361895
 30
0.0
 11
89.25
 21
145.95294
 31
0.0
  0
LINE
  5
55
100
AcDbEntity
  8
1
100
AcDbLine
 10
90.0
 20
156.5
 30
0.0
 11
90.0
 21
123.5
 31
0.0
  0
LINE
  5
56
100
AcDbEntity
  8
1
100
AcDbLine
 10
106.5
 20
140.0
 30
0.0
 11
73.5
 21
140.0
 31
0.0
  0
CIRCLE
  5
57
100
AcDbEntity
  8
0
100
AcDbCircle
 10
90.0
 20
140.0
 30
0.0
 40
7.4
  0
CIRCLE
  5
58
100
AcDbEntity
  8
0
100
AcDbCircle
 10
90.0
 20
140.0
 30
0.0
 40
9.5
  0
CIRCLE
  5
59
100
AcDbEntity
  8
0
100
AcDbCircle
 10
90.0
 20
140.0
 30
0.0
 40
11.5
  0
LINE
  5
5A
100
AcDbEntity
  8
0
100
AcDbLine
 10
160.46674
 20
149.531116
 30
0.0
 11
190.0
 21
151.5
 31
0.0
  0
LINE
  5
5B
100
AcDbEntity
  8
0
100
AcDbLine
 10
160.46674
 20
130.468884
 30
0.0
 11
190.0
 21
128.5
 31
0.0
  0
LINE
  5
5C
100
AcDbEntity
  8
0
100
AcDbLine
 10
160.0
 20
134.0
 30
0.0
 11
159.8
 21
134.0
 31
0.0
  0
LINE
  5
5D
100
AcDbEntity
  8
0
100
AcDbLine
 10
157.3
 20
143.25
 30
0.0
 11
159.3
 21
143.25
 31
0.0
  0
LINE
  5
5E
100
AcDbEntity
  8
0
100
AcDbLine
 10
157.3
 20
136.75
 30
0.0
 11
159.3
 21
136.75
 31
0.0
  0
LINE
  5
5F
100
AcDbEntity
  8
0
100
AcDbLine
 10
156.8
 20
136.0
 30
0.0
 11
156.8
 21
144.0
 31
0.0
  0
LINE
  5
60
100
AcDbEntity
  8
0
100
AcDbLine
 10
159.8
 20
134.0
 30
0.0
 11
159.8
 21
146.0
 31
0.0
  0
ARC
  5
61
100
AcDbEntity
  8
0
100
AcDbCircle
 10
159.3
 20
143.75
 30
0.0
 40
0.5
100
AcDbArc
 50
270.0
 51
0.0
  0
ARC
  5
62
100
AcDbEntity
  8
0
100
AcDbCircle
 10
159.3
 20
136.25
 30
0.0
 40
0.5
100
AcDbArc
 50
0.0
 51
90.0
  0
LINE
  5
63
100
AcDbEntity
  8
0
100
AcDbLine
 10
144.8
 20
137.2
 30
0.0
 11
144.8
 21
142.8
 31
0.0
  0
LINE
  5
64
100
AcDbEntity
  8
0
100
AcDbLine
 10
156.8
 20
144.0
 30
0.0
 11
146.0
 21
144.0
 31
0.0
  0
LINE
  5
65
100
AcDbEntity
  8
3
100
AcDbLine
 10
156.8
 20
143.3235
 30
0.0
 11
145.3235
 21
143.3235
 31
0.0
  0
LINE
  5
66
100
AcDbEntity
  8
3
100
AcDbLine
 10
156.8
 20
136.6765
 30
0.0
 11
145.3235
 21
136.6765
 31
0.0
  0
LINE
  5
67
100
AcDbEntity
  8
0
100
AcDbLine
 10
156.8
 20
136.0
 30
0.0
 11
146.0
 21
136.0
 31
0.0
  0
LINE
  5
68
100
AcDbEntity
  8
0
100
AcDbLine
 10
146.0
 20
136.0
 30
0.0
 11
144.8
 21
137.2
 31
0.0
  0
LINE
  5
69
100
AcDbEntity
  8
0
100
AcDbLine
 10
144.8
 20
142.8
 30
0.0
 11
146.0
 21
144.0
 31
0.0
  0
LINE
  5
6A
100
AcDbEntity
  8
0
100
AcDbLine
 10
146.0
 20
136.0
 30
0.0
 11
146.0
 21
144.0
 31
0.0
  0
LINE
  5
6B
100
AcDbEntity
  8
2
100
AcDbLine
 10
150.8
 20
142.309401
 30
0.0
 11
152.133333
 21
140.0
 31
0.0
  0
LINE
  5
6C
100
AcDbEntity
  8
2
100
AcDbLine
 10
150.8
 20
137.690599
 30
0.0
 11
152.133333
 21
140.0
 31
0.0
  0
LINE
  5
6D
100
AcDbEntity
  8
2
100
AcDbLine
 10
150.8
 20
137.690599
 30
0.0
 11
150.8
 21
142.309401
 31
0.0
  0
LINE
  5
6E
100
AcDbEntity
  8
2
100
AcDbLine
 10
144.8
 20
137.690599
 30
0.0
 11
150.8
 21
137.690599
 31
0.0
  0
LINE
  5
6F
100
AcDbEntity
  8
2
100
AcDbLine
 10
144.8
 20
138.845299
 30
0.0
 11
150.8
 21
138.845299
 31
0.0
  0
LINE
  5
70
100
AcDbEntity
  8
2
100
AcDbLine
 10
144.8
 20
141.154701
 30
0.0
 11
150.8
 21
141.154701
 31
0.0
  0
LINE
  5
71
100
AcDbEntity
  8
2
100
AcDbLine
 10
144.8
 20
142.309401
 30
0.0
 11
150.8
 21
142.309401
 31
0.0
  0
LINE
  5
72
100
AcDbEntity
  8
0
100
AcDbLine
 10
160.0
 20
146.0
 30
0.0
 11
159.8
 21
146.0
 31
0.0
  0
LINE
  5
73
100
AcDbEntity
  8
0
100
AcDbLine
 10
221.360268
 20
129.5
 30
0.0
 11
221.360268
 21
150.5
 31
0.0
  0
ARC
  5
74
100
AcDbEntity
  8
0
100
AcDbCircle
 10
221.360268
 20
130.5
 30
0.0
 40
2.0
100
AcDbArc
 50
270.0
 51
342.764715
  0
ARC
  5
75
100
AcDbEntity
  8
0
100
AcDbCircle
 10
221.360268
 20
149.5
 30
0.0
 40
2.0
100
AcDbArc
 50
17.235285
 51
90.0
  0
ARC
  5
76
100
AcDbEntity
  8
0
100
AcDbCircle
 10
190.7375
 20
140.0
 30
0.0
 40
34.0625
100
AcDbArc
 50
342.764715
 51
17.235285
  0
LINE
  5
77
100
AcDbEntity
  8
0
100
AcDbLine
 10
190.0
 20
128.5
 30
0.0
 11
190.0
 21
151.5
 31
0.0
  0
LINE
  5
78
100
AcDbEntity
  8
1
100
AcDbLine
 10
139.8
 20
140.0
 30
0.0
 11
229.9
 21
140.0
 31
0.0
  0
LINE
  5
79
100
AcDbEntity
  8
0
100
AcDbLine
 10
221.360268
 20
128.5
 30
0.0
 11
190.0
 21
128.5
 31
0.0
  0
LINE
  5
7A
100
AcDbEntity
  8
0
100
AcDbLine
 10
190.0
 20
151.5
 30
0.0
 11
221.360268
 21
151.5
 31
0.0
  0
LINE
  5
7B
100
AcDbEntity
  8
0
100
AcDbLine
 10
160.0
 20
130.967777
 30
0.0
 11
160.0
 21
149.032225
 31
0.0
  0
ARC
  5
7C
100
AcDbEntity
  8
0
100
AcDbCircle
 10
160.5
 20
149.032223
 30
0.0
 40
0.5
100
AcDbArc
 50
93.814075
 51
180.0
  0
ARC
  5
7D
100
AcDbEntity
  8
0
100
AcDbCircle
 10
160.5
 20
130.967777
 30
0.0
 40
0.5
100
AcDbArc
 50
180.0
 51
266.185925
  0
ARC
  5
7E
100
AcDbEntity
  8
0
100
AcDbCircle
 10
157.3
 20
143.75
 30
0.0
 40
0.5
100
AcDbArc
 50
180.0
 51
270.0
  0
ARC
  5
7F
100
AcDbEntity
  8
0
100
AcDbCircle
 10
157.3
 20
136.25
 30
0.0
 40
0.5
100
AcDbArc
 50
90.0
 51
180.0
  0
ARC
  5
88
100
AcDbEntity
  8
0
100
AcDbCircle
 10
157.3
 20
196.25
 30
0.0
 40
0.5
100
AcDbArc
 50
90.0
 51
180.0
  0
ARC
  5
89
100
AcDbEntity
  8
0
100
AcDbCircle
 10
157.3
 20
203.75
 30
0.0
 40
0.5
100
AcDbArc
 50
180.0
 51
270.0
  0
ARC
  5
8A
100
AcDbEntity
  8
0
100
AcDbCircle
 10
160.5
 20
190.967777
 30
0.0
 40
0.5
100
AcDbArc
 50
180.0
 51
266.185925
  0
ARC
  5
8B
100
AcDbEntity
  8
0
100
AcDbCircle
 10
160.5
 20
209.032223
 30
0.0
 40
0.5
100
AcDbArc
 50
93.814075
 51
180.0
  0
LINE
  5
8C
100
AcDbEntity
  8
0
100
AcDbLine
 10
160.0
 20
190.967777
 30
0.0
 11
160.0
 21
209.032225
 31
0.0
  0
LINE
  5
8D
100
AcDbEntity
  8
0
100
AcDbLine
 10
190.0
 20
211.5
 30
0.0
 11
221.360268
 21
211.5
 31
0.0
  0
LINE
  5
8E
100
AcDbEntity
  8
0
100
AcDbLine
 10
221.360268
 20
188.5
 30
0.0
 11
190.0
 21
188.5
 31
0.0
  0
LINE
  5
8F
100
AcDbEntity
  8
1
100
AcDbLine
 10
139.8
 20
200.0
 30
0.0
 11
229.9
 21
200.0
 31
0.0
  0
LINE
  5
90
100
AcDbEntity
  8
0
100
AcDbLine
 10
190.0
 20
188.5
 30
0.0
 11
190.0
 21
211.5
 31
0.0
  0
ARC
  5
91
100
AcDbEntity
  8
0
100
AcDbCircle
 10
190.7375
 20
200.0
 30
0.0
 40
34.0625
100
AcDbArc
 50
342.764715
 51
17.235285
  0
ARC
  5
92
100
AcDbEntity
  8
0
100
AcDbCircle
 10
221.360268
 20
209.5
 30
0.0
 40
2.0
100
AcDbArc
 50
17.235285
 51
90.0
  0
ARC
  5
93
100
AcDbEntity
  8
0
100
AcDbCircle
 10
221.360268
 20
190.5
 30
0.0
 40
2.0
100
AcDbArc
 50
270.0
 51
342.764715
  0
LINE
  5
94
100
AcDbEntity
  8
0
100
AcDbLine
 10
221.360268
 20
189.5
 30
0.0
 11
221.360268
 21
210.5
 31
0.0
  0
LINE
  5
95
100
AcDbEntity
  8
0
100
AcDbLine
 10
160.0
 20
206.0
 30
0.0
 11
159.8
 21
206.0
 31
0.0
  0
LINE
  5
96
100
AcDbEntity
  8
2
100
AcDbLine
 10
150.8
 20
198.0
 30
0.0
 11
150.8
 21
202.0
 31
0.0
  0
LINE
  5
97
100
AcDbEntity
  8
0
100
AcDbLine
 10
146.0
 20
196.0
 30
0.0
 11
146.0
 21
204.0
 31
0.0
  0
LINE
  5
98
100
AcDbEntity
  8
0
100
AcDbLine
 10
144.8
 20
202.8
 30
0.0
 11
146.0
 21
204.0
 31
0.0
  0
LINE
  5
99
100
AcDbEntity
  8
0
100
AcDbLine
 10
146.0
 20
196.0
 30
0.0
 11
144.8
 21
197.2
 31
0.0
  0
LINE
  5
9A
100
AcDbEntity
  8
0
100
AcDbLine
 10
156.8
 20
196.0
 30
0.0
 11
146.0
 21
196.0
 31
0.0
  0
LINE
  5
9B
100
AcDbEntity
  8
3
100
AcDbLine
 10
156.8
 20
196.6765
 30
0.0
 11
145.3235
 21
196.6765
 31
0.0
  0
LINE
  5
9C
100
AcDbEntity
  8
3
100
AcDbLine
 10
156.8
 20
203.3235
 30
0.0
 11
145.3235
 21
203.3235
 31
0.0
  0
LINE
  5
9D
100
AcDbEntity
  8
0
100
AcDbLine
 10
156.8
 20
204.0
 30
0.0
 11
146.0
 21
204.0
 31
0.0
  0
LINE
  5
9E
100
AcDbEntity
  8
0
100
AcDbLine
 10
144.8
 20
197.2
 30
0.0
 11
144.8
 21
202.8
 31
0.0
  0
ARC
  5
9F
100
AcDbEntity
  8
0
100
AcDbCircle
 10
159.3
 20
196.25
 30
0.0
 40
0.5
100
AcDbArc
 50
0.0
 51
90.0
  0
ARC
  5
A0
100
AcDbEntity
  8
0
100
AcDbCircle
 10
159.3
 20
203.75
 30
0.0
 40
0.5
100
AcDbArc
 50
270.0
 51
0.0
  0
LINE
  5
A1
100
AcDbEntity
  8
0
100
AcDbLine
 10
159.8
 20
194.0
 30
0.0
 11
159.8
 21
206.0
 31
0.0
  0
LINE
  5
A2
100
AcDbEntity
  8
0
100
AcDbLine
 10
156.8
 20
196.0
 30
0.0
 11
156.8
 21
204.0
 31
0.0
  0
LINE
  5
A3
100
AcDbEntity
  8
0
100
AcDbLine
 10
157.3
 20
196.75
 30
0.0
 11
159.3
 21
196.75
 31
0.0
  0
LINE
  5
A4
100
AcDbEntity
  8
0
100
AcDbLine
 10
157.3
 20
203.25
 30
0.0
 11
159.3
 21
203.25
 31
0.0
  0
LINE
  5
A5
100
AcDbEntity
  8
0
100
AcDbLine
 10
160.0
 20
194.0
 30
0.0
 11
159.8
 21
194.0
 31
0.0
  0
LINE
  5
A6
100
AcDbEntity
  8
0
100
AcDbLine
 10
160.46674
 20
190.468884
 30
0.0
 11
190.0
 21
188.5
 31
0.0
  0
LINE
  5
A7
100
AcDbEntity
  8
0
100
AcDbLine
 10
160.46674
 20
209.531116
 30
0.0
 11
190.0
 21
211.5
 31
0.0
  0
LINE
  5
A8
100
AcDbEntity
  8
2
100
AcDbLine
 10
144.8
 20
202.0
 30
0.0
 11
150.8
 21
202.0
 31
0.0
  0
LINE
  5
A9
100
AcDbEntity
  8
2
100
AcDbLine
 10
150.8
 20
202.0
 30
0.0
 11
152.133333
 21
200.0
 31
0.0
  0
LINE
  5
AA
100
AcDbEntity
  8
2
100
AcDbLine
 10
144.8
 20
198.0
 30
0.0
 11
150.8
 21
198.0
 31
0.0
  0
LINE
  5
AB
100
AcDbEntity
  8
2
100
AcDbLine
 10
150.8
 20
198.0
 30
0.0
 11
152.133333
 21
200.0
 31
0.0
  0
LINE
  5
AC
100
AcDbEntity
  8
2
100
AcDbLine
 10
144.8
 20
200.0
 30
0.0
 11
150.8
 21
200.0
 31
0.0
  0
ENDSEC
  0
SECTION
  2
OBJECTS
  0
DICTIONARY
  5
199
100
AcDbDictionary
  3
ACAD_GROUP
350
19A
  3
ACAD_MLINESTYLE
350
1A8
  0
DICTIONARY
  5
19A
102
{ACAD_REACTORS
330
199
102
}
100
AcDbDictionary
  0
DICTIONARY
  5
1A8
102
{ACAD_REACTORS
330
199
102
}
100
AcDbDictionary
  3
STANDARD
350
1A9
  0
MLINESTYLE
  5
1A9
102
{ACAD_REACTORS
330
1A8
102
}
100
AcDbMlineStyle
  2
STANDARD
 70
     0
  3

 62
   256
 51
90.0
 52
90.0
 71
     2
 49
0.5
 62
   256
  6
BYLAYER
 49
-0.5
 62
   256
  6
BYLAYER
  0
ENDSEC
  0
EOF
