  0
SECTION
  2
HEADER
  9
$ACADVER
  1
AC1015
  9
$ACADMAINTVER
 70
    13
  9
$DWGCODEPAGE
  3
ANSI_932
  9
$INSBASE
 10
0.0
 20
0.0
 30
0.0
  9
$EXTMIN
 10
12.75
 20
2.716666666666667
 30
0.0
  9
$EXTMAX
 10
186.7666666666666
 20
131.7387691407264
 30
0.0
  9
$LIMMIN
 10
0.0
 20
0.0
  9
$LIMMAX
 10
220.0
 20
170.0
  9
$ORTHOMODE
 70
     1
  9
$REGENMODE
 70
     1
  9
$FILLMODE
 70
     1
  9
$QTEXTMODE
 70
     0
  9
$MIRRTEXT
 70
     1
  9
$LTSCALE
 40
1.0
  9
$ATTMODE
 70
     1
  9
$TEXTSIZE
 40
7.0
  9
$TRACEWID
 40
1.0
  9
$TEXTSTYLE
  7
STANDARD
  9
$CLAYER
  8
0
  9
$CELTYPE
  6
ByLayer
  9
$CECOLOR
 62
   256
  9
$CELTSCALE
 40
1.0
  9
$DISPSILH
 70
     0
  9
$DIMSCALE
 40
1.0
  9
$DIMASZ
 40
2.5
  9
$DIMEXO
 40
0.625
  9
$DIMDLI
 40
3.75
  9
$DIMRND
 40
0.0
  9
$DIMDLE
 40
0.0
  9
$DIMEXE
 40
1.25
  9
$DIMTP
 40
0.0
  9
$DIMTM
 40
0.0
  9
$DIMTXT
 40
2.5
  9
$DIMCEN
 40
2.5
  9
$DIMTSZ
 40
0.0
  9
$DIMTOL
 70
     0
  9
$DIMLIM
 70
     0
  9
$DIMTIH
 70
     1
  9
$DIMTOH
 70
     0
  9
$DIMSE1
 70
     0
  9
$DIMSE2
 70
     0
  9
$DIMTAD
 70
     1
  9
$DIMZIN
 70
     8
  9
$DIMBLK
  1

  9
$DIMASO
 70
     1
  9
$DIMSHO
 70
     1
  9
$DIMPOST
  1

  9
$DIMAPOST
  1

  9
$DIMALT
 70
     0
  9
$DIMALTD
 70
     2
  9
$DIMALTF
 40
0.0394
  9
$DIMLFAC
 40
1.0
  9
$DIMTOFL
 70
     1
  9
$DIMTVP
 40
1.0
  9
$DIMTIX
 70
     0
  9
$DIMSOXD
 70
     0
  9
$DIMSAH
 70
     0
  9
$DIMBLK1
  1

  9
$DIMBLK2
  1

  9
$DIMSTYLE
  2
ISO-25
  9
$DIMCLRD
 70
     0
  9
$DIMCLRE
 70
     0
  9
$DIMCLRT
 70
     0
  9
$DIMTFAC
 40
1.0
  9
$DIMGAP
 40
0.625
  9
$DIMJUST
 70
     0
  9
$DIMSD1
 70
     0
  9
$DIMSD2
 70
     0
  9
$DIMTOLJ
 70
     1
  9
$DIMTZIN
 70
     0
  9
$DIMALTZ
 70
     0
  9
$DIMALTTZ
 70
     0
  9
$DIMUPT
 70
     0
  9
$DIMDEC
 70
     4
  9
$DIMTDEC
 70
     4
  9
$DIMALTU
 70
     2
  9
$DIMALTTD
 70
     2
  9
$DIMTXSTY
  7
STANDARD
  9
$DIMAUNIT
 70
     0
  9
$DIMADEC
 70
     0
  9
$DIMALTRND
 40
0.0
  9
$DIMAZIN
 70
     0
  9
$DIMDSEP
 70
    46
  9
$DIMATFIT
 70
     3
  9
$DIMFRAC
 70
     0
  9
$DIMLDRBLK
  1

  9
$DIMLUNIT
 70
     2
  9
$DIMLWD
 70
    -2
  9
$DIMLWE
 70
    -2
  9
$DIMTMOVE
 70
     0
  9
$LUNITS
 70
     2
  9
$LUPREC
 70
     4
  9
$SKETCHINC
 40
1.0
  9
$FILLETRAD
 40
1.5
  9
$AUNITS
 70
     0
  9
$AUPREC
 70
     0
  9
$MENU
  1
.
  9
$ELEVATION
 40
0.0
  9
$PELEVATION
 40
0.0
  9
$THICKNESS
 40
0.0
  9
$LIMCHECK
 70
     0
  9
$CHAMFERA
 40
0.5
  9
$CHAMFERB
 40
0.5
  9
$CHAMFERC
 40
0.0
  9
$CHAMFERD
 40
0.0
  9
$SKPOLY
 70
     0
  9
$TDCREATE
 40
2450687.704699074
  9
$TDUCREATE
 40
2450687.329699074
  9
$TDUPDATE
 40
2456448.697448449
  9
$TDUUPDATE
 40
2456448.322448449
  9
$TDINDWG
 40
0.0007590046
  9
$TDUSRTIMER
 40
0.0007590046
  9
$USRTIMER
 70
     1
  9
$ANGBASE
 50
0.0
  9
$ANGDIR
 70
     0
  9
$PDMODE
 70
     0
  9
$PDSIZE
 40
0.0
  9
$PLINEWID
 40
0.0
  9
$SPLFRAME
 70
     0
  9
$SPLINETYPE
 70
     6
  9
$SPLINESEGS
 70
     8
  9
$HANDSEED
  5
2B1
  9
$SURFTAB1
 70
     6
  9
$SURFTAB2
 70
     6
  9
$SURFTYPE
 70
     6
  9
$SURFU
 70
     6
  9
$SURFV
 70
     6
  9
$UCSBASE
  2

  9
$UCSNAME
  2

  9
$UCSORG
 10
0.0
 20
0.0
 30
0.0
  9
$UCSXDIR
 10
1.0
 20
0.0
 30
0.0
  9
$UCSYDIR
 10
0.0
 20
1.0
 30
0.0
  9
$UCSORTHOREF
  2

  9
$UCSORTHOVIEW
 70
     0
  9
$UCSORGTOP
 10
0.0
 20
0.0
 30
0.0
  9
$UCSORGBOTTOM
 10
0.0
 20
0.0
 30
0.0
  9
$UCSORGLEFT
 10
0.0
 20
0.0
 30
0.0
  9
$UCSORGRIGHT
 10
0.0
 20
0.0
 30
0.0
  9
$UCSORGFRONT
 10
0.0
 20
0.0
 30
0.0
  9
$UCSORGBACK
 10
0.0
 20
0.0
 30
0.0
  9
$PUCSBASE
  2

  9
$PUCSNAME
  2

  9
$PUCSORG
 10
0.0
 20
0.0
 30
0.0
  9
$PUCSXDIR
 10
1.0
 20
0.0
 30
0.0
  9
$PUCSYDIR
 10
0.0
 20
1.0
 30
0.0
  9
$PUCSORTHOREF
  2

  9
$PUCSORTHOVIEW
 70
     0
  9
$PUCSORGTOP
 10
0.0
 20
0.0
 30
0.0
  9
$PUCSORGBOTTOM
 10
0.0
 20
0.0
 30
0.0
  9
$PUCSORGLEFT
 10
0.0
 20
0.0
 30
0.0
  9
$PUCSORGRIGHT
 10
0.0
 20
0.0
 30
0.0
  9
$PUCSORGFRONT
 10
0.0
 20
0.0
 30
0.0
  9
$PUCSORGBACK
 10
0.0
 20
0.0
 30
0.0
  9
$USERI1
 70
     0
  9
$USERI2
 70
     0
  9
$USERI3
 70
     0
  9
$USERI4
 70
     0
  9
$USERI5
 70
     0
  9
$USERR1
 40
0.0
  9
$USERR2
 40
0.0
  9
$USERR3
 40
0.0
  9
$USERR4
 40
0.0
  9
$USERR5
 40
0.0
  9
$WORLDVIEW
 70
     1
  9
$SHADEDGE
 70
     3
  9
$SHADEDIF
 70
    70
  9
$TILEMODE
 70
     1
  9
$MAXACTVP
 70
    16
  9
$PINSBASE
 10
0.0
 20
0.0
 30
0.0
  9
$PLIMCHECK
 70
     0
  9
$PEXTMIN
 10
1.000000000000000E+20
 20
1.000000000000000E+20
 30
1.000000000000000E+20
  9
$PEXTMAX
 10
-1.000000000000000E+20
 20
-1.000000000000000E+20
 30
-1.000000000000000E+20
  9
$PLIMMIN
 10
0.0
 20
0.0
  9
$PLIMMAX
 10
420.0
 20
297.0
  9
$UNITMODE
 70
     0
  9
$VISRETAIN
 70
     0
  9
$PLINEGEN
 70
     0
  9
$PSLTSCALE
 70
     1
  9
$TREEDEPTH
 70
  3020
  9
$CMLSTYLE
  2
Standard
  9
$CMLJUST
 70
     0
  9
$CMLSCALE
 40
1.0
  9
$PROXYGRAPHICS
 70
     1
  9
$MEASUREMENT
 70
     0
  9
$CELWEIGHT
370
    -1
  9
$ENDCAPS
280
     0
  9
$JOINSTYLE
280
     0
  9
$LWDISPLAY
290
     0
  9
$INSUNITS
 70
     0
  9
$HYPERLINKBASE
  1

  9
$STYLESHEET
  1

  9
$XEDIT
290
     1
  9
$CEPSNTYPE
380
     0
  9
$PSTYLEMODE
290
     1
  9
$FINGERPRINTGUID
  2
{C26A5998-3787-4125-9267-944B64DEEE07}
  9
$VERSIONGUID
  2
{7A3580BA-7D2B-44B8-87AA-DB21D13ABB62}
  9
$EXTNAMES
290
     1
  9
$PSVPSCALE
 40
0.0
  9
$OLESTARTUP
290
     0
  0
ENDSEC
  0
SECTION
  2
CLASSES
  0
CLASS
  1
ACDBDICTIONARYWDFLT
  2
AcDbDictionaryWithDefault
  3
AutoCAD 2000
 90
        0
280
     0
281
     0
  0
CLASS
  1
ACDBPLACEHOLDER
  2
AcDbPlaceHolder
  3
AutoCAD 2000
 90
        0
280
     0
281
     0
  0
CLASS
  1
LAYOUT
  2
AcDbLayout
  3
AutoCAD 2000
 90
        0
280
     0
281
     0
  0
CLASS
  1
AMGSETTINGSOBJ
  2
AmgSettingsObj
  3
"AcadM|Product Description: AutoCAD Mechanical 2000|Company: Autodesk"
 90
        0
280
     0
281
     0
  0
CLASS
  1
ACME_DOCUMENT
  2
AcMeDbDoc
  3
AcMeServices
 90
        0
280
     0
281
     0
  0
CLASS
  1
ACMESCOPE
  2
AcMeScope
  3
AcMeServices
 90
        0
280
     0
281
     0
  0
CLASS
  1
ACMECOMMANDHISTORY
  2
AcMeCommandHistory
  3
AcMeServices
 90
        0
280
     0
281
     0
  0
CLASS
  1
ACIMSYSVARMAN
  2
AcImSysVarManager
  3
AcMeServices
 90
        0
280
     0
281
     0
  0
CLASS
  1
ACIMREALSYSVAR
  2
AcImRealSysVar
  3
AcMeServices
 90
        0
280
     0
281
     0
  0
CLASS
  1
ACIMINTSYSVAR
  2
AcImIntSysVar
  3
AcMeServices
 90
        0
280
     0
281
     0
  0
CLASS
  1
ACMEDRAWINGMAN
  2
AcMeDrawingMan
  3
AcMeServices
 90
        0
280
     0
281
     0
  0
CLASS
  1
ACMEVIEW
  2
AcMeView
  3
AcMeServices
 90
        0
280
     0
281
     0
  0
CLASS
  1
ACDBENTITYCACHE
  2
AcMeEntityCache
  3
AcMeServices
 90
        0
280
     0
281
     0
  0
CLASS
  1
GSMANAGER
  2
AcMeGSManager
  3
AcMeServices
 90
        0
280
     0
281
     0
  0
CLASS
  1
AMDTINTERNALREACTOR
  2
AmdtInternalReactor
  3
AcMeServices
 90
        0
280
     0
281
     0
  0
CLASS
  1
ACMESTATEMGR
  2
AcMeStateMgr
  3
AcMeServices
 90
        0
280
     0
281
     0
  0
CLASS
  1
ACGREFMASTER
  2
AcGrefMaster
  3
AcAttribServices
 90
        0
280
     0
281
     0
  0
CLASS
  1
AM_DRAWING_MGR
  2
AcDmDwgMgr
  3
AcMechDwgViewMgmt
 90
        0
280
     0
281
     0
  0
CLASS
  1
AM_DWG_DOCUMENT
  2
AcDmDwgDocument
  3
AcMechDwgViewMgmt
 90
        0
280
     0
281
     0
  0
CLASS
  1
AM_DWG_SHEET
  2
AcDmSheet
  3
AcMechDwgViewMgmt
 90
        0
280
     0
281
     0
  0
CLASS
  1
AM_VIEWDIMPARMAP
  2
AcDmViewDimParMap
  3
AcMechDwgViewMgmt
 90
        0
280
     0
281
     0
  0
CLASS
  1
AM_DWGMGR_NAME
  2
AcDmDwgMgrName
  3
AcMechDwgViewMgmt
 90
        0
280
     0
281
     0
  0
CLASS
  1
ACME_DATABASE
  2
AcMeDbDatabase
  3
AcMeServices
 90
        0
280
     0
281
     0
  0
CLASS
  1
ACRFINSADJUSTERMGR
  2
AcRfInsAdjusterMgr
  3
AcMeServices
 90
        0
280
     0
281
     0
  0
CLASS
  1
ACGREFACADMASTER
  2
AcGrefacadMaster
  3
AcGrefServices
 90
        0
280
     0
281
     0
  0
CLASS
  1
AMDTMENUSTATEMGR
  2
AmdtMenuStateMgr
  3
McadcomServices
 90
        0
280
     0
281
     0
  0
CLASS
  1
AMDTMCOMMENUSTATE
  2
AmdtMcomMenuState
  3
McadcomServices
 90
        0
280
     0
281
     0
  0
CLASS
  1
AMIMASTER
  2
AmiMaster
  3
AmiServices
 90
        0
280
     0
281
     0
  0
CLASS
  1
ASAPP
  2
AcAsAppObject
  3
AutoSurfServices
 90
        0
280
     0
281
     0
  0
CLASS
  1
IM_STATIC_MAN
  2
AcImStaticVarManager
  3
AcMeServices
 90
        0
280
     0
281
     0
  0
CLASS
  1
ACIMSTRSYSVAR
  2
AcImStrSysVar
  3
AcMeServices
 90
        0
280
     0
281
     0
  0
CLASS
  1
ACIMDBLSTATICVAR
  2
AcImDblStaticVar
  3
AcMeServices
 90
        0
280
     0
281
     0
  0
CLASS
  1
ACIMSTRSTATICVAR
  2
AcImStrStaticVar
  3
AcMeServices
 90
        0
280
     0
281
     0
  0
CLASS
  1
ACIMINTSTATICVAR
  2
AcImIntStaticVar
  3
AcMeServices
 90
        0
280
     0
281
     0
  0
CLASS
  1
ACASGREFMASTER
  2
AcAsGrefMaster
  3
AutoSurfResolverServices
 90
        0
280
     0
281
     0
  0
CLASS
  1
ACADGREFMODULE
  2
AcAdGrefModule
  3
AdGrefServices
 90
        0
280
     0
281
     0
  0
CLASS
  1
AMDTMAPISURFMOUDULE
  2
AmdtMApiSurfModule
  3
MApiSurfServices
 90
        0
280
     0
281
     0
  0
CLASS
  1
MAPIAMMOUDLE
  2
MApiAmModule
  3
MApiAmServices
 90
        0
280
     0
281
     0
  0
CLASS
  1
AMDTADMENUSTATE
  2
AmdtAdMenuState
  3
DesignerServices
 90
        0
280
     0
281
     0
  0
CLASS
  1
ADAPPL
  2
AcAdAppl
  3
DesignerServices
 90
        0
280
     0
281
     0
  0
CLASS
  1
DEPMGR
  2
AcAdDepMgr
  3
DesignerServices
 90
        0
280
     0
281
     0
  0
CLASS
  1
PARAMMGR
  2
AcAdParamMgr
  3
DesignerServices
 90
        0
280
     0
281
     0
  0
CLASS
  1
PARAMSCOPE
  2
AcAdParamScope
  3
DesignerServices
 90
        0
280
     0
281
     0
  0
CLASS
  1
NAMEDAPPL
  2
AcAdNamedAppl
  3
DesignerServices
 90
        0
280
     0
281
     0
  0
CLASS
  1
AMDTDMMENUSTATE
  2
AmdtDmMenuState
  3
AcMechDwgViewMgmt
 90
        0
280
     0
281
     0
  0
CLASS
  1
MAPIADMODULE
  2
MApiAdModule
  3
MApiAdServices
 90
        0
280
     0
281
     0
  0
CLASS
  1
AMDTAMMENUSTATE
  2
AmdtAmMenuState
  3
DesignerAssemblies
 90
        0
280
     0
281
     0
  0
CLASS
  1
ACAMPROJECT
  2
AcAmProject
  3
DesignerAssemblies
 90
        0
280
     0
281
     0
  0
CLASS
  1
ACAMGRCOMPDEF
  2
AcAmGrCompDef
  3
DesignerAssemblies
 90
        0
280
     0
281
     0
  0
CLASS
  1
ACCMCONTEXT
  2
AcCmContext
  3
DesignerAssemblies
 90
        0
280
     0
281
     0
  0
CLASS
  1
ACAMCOMPDEF
  2
AcAmCompDef
  3
DesignerAssemblies
 90
        0
280
     0
281
     0
  0
CLASS
  1
ACAMCOMPDEFMGR
  2
AcAmCompDefMgr
  3
DesignerAssemblies
 90
        0
280
     0
281
     0
  0
CLASS
  1
AMCONTEXTMGR
  2
AcAmContextMgr
  3
DesignerAssemblies
 90
        0
280
     0
281
     0
  0
CLASS
  1
ACAMCONTEXTMODELER
  2
AcAmContextModeler
  3
DesignerAssemblies
 90
        0
280
     0
281
     0
  0
CLASS
  1
ACMDATADICTIONARY
  2
AcmDataDictionary
  3
"AcmSymBB|Product Description: AutoCAD Mechanical 2000|Company: Autodesk"
 90
        0
280
     0
281
     0
  0
CLASS
  1
ACMDATAENTRYBLOCK
  2
AcmDataEntryBlock
  3
"AcmSymBB|Product Description: AutoCAD Mechanical 2000|Company: Autodesk"
 90
        0
280
     0
281
     0
  0
CLASS
  1
CATALOGSTATE
  2
AcAmCatalogState
  3
DesignerAssemblies
 90
        0
280
     0
281
     0
  0
CLASS
  1
ACAMGRCOMPDEFSET
  2
AcAmGrCompDefSet
  3
DesignerAssemblies
 90
        0
280
     0
281
     0
  0
CLASS
  1
AMDTBROWSERDBTAB
  2
AmdtBrowserDbTab
  3
McadcomServices
 90
        0
280
     0
281
     0
  0
CLASS
  1
CBROWSERAPPOBJECT
  2
CBrowserAppObject
  3
McadcomServices
 90
        0
280
     0
281
     0
  0
CLASS
  1
DM_PLACEHOLDER
  2
AcDmSelsetPlaceholder
  3
AcMechDwgViewMgmt
 90
        0
280
     0
281
     0
  0
CLASS
  1
AMGOBJPROPCFG
  2
AmgObjPropCfg
  3
"AmgLay|Product Description: AutoCAD Mechanical 2000|Company: Autodesk"
 90
        1
280
     0
281
     0
  0
CLASS
  1
ACAMGFILTERDAT
  2
AcAmgFilterDat
  3
"AcadM|Product Description: AutoCAD Mechanical 2000|Company: Autodesk"
 90
        0
280
     0
281
     0
  0
CLASS
  1
LAYER_INDEX
  2
AcDbLayerIndex
  3
AutoCAD 2000
 90
        0
280
     0
281
     0
  0
CLASS
  1
IDBUFFER
  2
AcDbIdBuffer
  3
AutoCAD 2000
 90
        0
280
     0
281
     0
  0
CLASS
  1
DICTIONARYVAR
  2
AcDbDictionaryVar
  3
AutoCAD 2000
 90
        0
280
     0
281
     0
  0
CLASS
  1
ACMSTANDARDANSI
  2
AcmStandardANSI
  3
"Amdt_StdImp|Product Description: AutoCAD Mechanical 2000|Company: Autodesk"
 90
        0
280
     0
281
     0
  0
CLASS
  1
ACMSURFSTANDARDANSI
  2
AcmSurfTextStdANSI
  3
"Amdt_StdImp|Product Description: AutoCAD Mechanical 2000|Company: Autodesk"
 90
        0
280
     0
281
     0
  0
CLASS
  1
ACMFCFSTANDARDANSI
  2
AcmFCFStdANSI
  3
"Amdt_StdImp|Product Description: AutoCAD Mechanical 2000|Company: Autodesk"
 90
        0
280
     0
281
     0
  0
CLASS
  1
ACMWELDSTANDARDANSI
  2
AcmWeldingStdANSI
  3
"Amdt_StdImp|Product Description: AutoCAD Mechanical 2000|Company: Autodesk"
 90
        0
280
     0
281
     0
  0
CLASS
  1
ACMIDSTANDARDANSI
  2
AcmIdStdANSI
  3
"Amdt_StdImp|Product Description: AutoCAD Mechanical 2000|Company: Autodesk"
 90
        0
280
     0
281
     0
  0
CLASS
  1
ACMDATUMSTANDARDANSI
  2
AcmDatumStdANSI
  3
"Amdt_StdImp|Product Description: AutoCAD Mechanical 2000|Company: Autodesk"
 90
        0
280
     0
281
     0
  0
CLASS
  1
ACMBOMSTANDARDANSI
  2
AcmBOMStdANSI
  3
"Amdt_StdImp|Product Description: AutoCAD Mechanical 2000|Company: Autodesk"
 90
        0
280
     0
281
     0
  0
CLASS
  1
ACMDETAILSTANDARDANSI
  2
AmdtDetailSymStdANSI
  3
"Amdt_StdImp|Product Description: AutoCAD Mechanical 2000|Company: Autodesk"
 90
        0
280
     0
281
     0
  0
CLASS
  1
ACMSECTIONSTANDARDANSI
  2
AmdtSectionSymStdANSI
  3
"Amdt_StdImp|Product Description: AutoCAD Mechanical 2000|Company: Autodesk"
 90
        0
280
     0
281
     0
  0
CLASS
  1
ACMCENTERLINESTANDARDANSI
  2
AmdtCenterLineStdANSI
  3
"Amdt_StdImp|Product Description: AutoCAD Mechanical 2000|Company: Autodesk"
 90
        0
280
     0
281
     0
  0
CLASS
  1
ACMTHREADLINESTANDARDANSI
  2
AmdtThreadLineStdANSI
  3
"Amdt_StdImp|Product Description: AutoCAD Mechanical 2000|Company: Autodesk"
 90
        0
280
     0
281
     0
  0
CLASS
  1
ACMNOTESTANDARDANSI
  2
AmdtNoteStdANSI
  3
"Amdt_StdImp|Product Description: AutoCAD Mechanical 2000|Company: Autodesk"
 90
        0
280
     0
281
     0
  0
CLASS
  1
ACAMGLAYSTD
  2
AcAmgLayStd
  3
"AcAmgLayStd|Product Description: AutoCAD Mechanical 2000|Company: Autodesk"
 90
        0
280
     0
281
     0
  0
CLASS
  1
ACAMGDIMSTD
  2
AcAmgDimStd
  3
"AcAmgDimStd|Product Description: AutoCAD Mechanical 2000|Company: Autodesk"
 90
        0
280
     0
281
     0
  0
CLASS
  1
ACAMGHOLECHARTSTDANSI
  2
AcAmgHoleChartStdANSI
  3
ACMSYMBB_MODULE_NAME
 90
        0
280
     0
281
     0
  0
CLASS
  1
ACAMGTITLESTD
  2
AcAmgTitleStd
  3
"TITLEAPP"
 90
        0
280
     0
281
     0
  0
CLASS
  1
AMDTFORMULAUPDATEDISPATCHER
  2
AmdtFormulaUpdateDispatcher
  3
AcMeServices
 90
        0
280
     0
281
     0
  0
ENDSEC
  0
SECTION
  2
TABLES
  0
TABLE
  2
VPORT
  5
8
330
0
100
AcDbSymbolTable
 70
     4
  0
VPORT
  5
2B0
330
8
100
AcDbSymbolTableRecord
100
AcDbViewportTableRecord
  2
*Active
 70
     0
 10
0.0
 20
0.0
 11
1.0
 21
1.0
 12
0.0
 22
0.0
 13
0.0
 23
0.0
 14
0.25
 24
0.25
 15
0.5
 25
0.5
 16
0.0
 26
0.0
 36
1.0
 17
134.8647018545767
 27
90.53012048192773
 37
0.0
 40
181.0602409638553
 41
1.489721886336154
 42
50.0
 43
0.0
 44
0.0
 50
0.0
 51
0.0
 71
     0
 72
 20000
 73
     1
 74
     1
 75
     1
 76
     0
 77
     0
 78
     0
281
     0
 65
     0
110
0.0
120
0.0
130
0.0
111
1.0
121
0.0
131
0.0
112
0.0
122
1.0
132
0.0
 79
     0
146
0.0
  0
ENDTAB
  0
TABLE
  2
LTYPE
  5
5
330
0
100
AcDbSymbolTable
 70
    22
  0
LTYPE
  5
13
330
5
100
AcDbSymbolTableRecord
100
AcDbLinetypeTableRecord
  2
ByBlock
 70
     0
  3

 72
    65
 73
     0
 40
0.0
  0
LTYPE
  5
14
330
5
100
AcDbSymbolTableRecord
100
AcDbLinetypeTableRecord
  2
ByLayer
 70
     0
  3

 72
    65
 73
     0
 40
0.0
  0
LTYPE
  5
15
330
5
100
AcDbSymbolTableRecord
100
AcDbLinetypeTableRecord
  2
CONTINUOUS
 70
     0
  3
Solid line
 72
    65
 73
     0
 40
0.0
  0
LTYPE
  5
22
330
5
100
AcDbSymbolTableRecord
100
AcDbLinetypeTableRecord
  2
BYBLOCK
 70
     0
  3

 72
    65
 73
     0
 40
0.0
  0
LTYPE
  5
23
330
5
100
AcDbSymbolTableRecord
100
AcDbLinetypeTableRecord
  2
BYLAYER
 70
     0
  3

 72
    65
 73
     0
 40
0.0
  0
LTYPE
  5
24
330
5
100
AcDbSymbolTableRecord
100
AcDbLinetypeTableRecord
  2
TENSEN
 70
     0
  3

 72
    65
 73
     2
 40
2.5
 49
1.5
 74
     0
 49
-1.0
 74
     0
  0
LTYPE
  5
25
330
5
100
AcDbSymbolTableRecord
100
AcDbLinetypeTableRecord
  2
ITTEN
 70
     0
  3

 72
    65
 73
     4
 40
3.6
 49
2.0
 74
     0
 49
-0.5
 74
     0
 49
0.6
 74
     0
 49
-0.5
 74
     0
  0
LTYPE
  5
93
330
5
100
AcDbSymbolTableRecord
100
AcDbLinetypeTableRecord
  2
HIDDEN
 70
     0
  3
Hidden __ __ __ __ __ __ __ __ __ __ __ __ __ _
 72
    65
 73
     2
 40
0.375
 49
0.25
 74
     0
 49
-0.125
 74
     0
  0
LTYPE
  5
94
330
5
100
AcDbSymbolTableRecord
100
AcDbLinetypeTableRecord
  2
PHANTOM2
 70
     0
  3
Phantom (.5x) ___ _ _ ___ _ _ ___ _ _ ___ _ _
 72
    65
 73
     6
 40
1.25
 49
0.625
 74
     0
 49
-0.125
 74
     0
 49
0.125
 74
     0
 49
-0.125
 74
     0
 49
0.125
 74
     0
 49
-0.125
 74
     0
  0
LTYPE
  5
95
330
5
100
AcDbSymbolTableRecord
100
AcDbLinetypeTableRecord
  2
CENTER
 70
     0
  3
Center ____ _ ____ _ ____ _ ____ _ ____ _ ____
 72
    65
 73
     4
 40
2.0
 49
1.25
 74
     0
 49
-0.25
 74
     0
 49
0.25
 74
     0
 49
-0.25
 74
     0
  0
LTYPE
  5
F7
330
5
100
AcDbSymbolTableRecord
100
AcDbLinetypeTableRecord
  2
ASULTYPE
 70
     0
  3
実線
 72
    65
 73
     2
 40
3.0
 49
2.5
 74
     0
 49
0.5
 74
     0
  0
LTYPE
  5
F8
330
5
100
AcDbSymbolTableRecord
100
AcDbLinetypeTableRecord
  2
ASVLTYPE
 70
     0
  3
__ __ __ __ __ __ __ __ __ __ __ __ __ __ __ __ __ __ __ __ __
 72
    65
 73
     2
 40
0.75
 49
0.5
 74
     0
 49
-0.25
 74
     0
  0
LTYPE
  5
139
330
5
100
AcDbSymbolTableRecord
100
AcDbLinetypeTableRecord
  2
AM_ISO02W050
 70
     0
  3
__ __ __ __ __ __ __ __ __ __ __ __ __ __ __
 72
    65
 73
     2
 40
7.5
 49
6.0
 74
     0
 49
-1.5
 74
     0
  0
LTYPE
  5
13A
330
5
100
AcDbSymbolTableRecord
100
AcDbLinetypeTableRecord
  2
AM_ISO08W050
 70
     0
  3
____ . ____ . ____ . ____ . ____ . ____ . ____
 72
    65
 73
     4
 40
18.0
 49
12.0
 74
     0
 49
-1.5
 74
     0
 49
3.0
 74
     0
 49
-1.5
 74
     0
  0
LTYPE
  5
13B
330
5
100
AcDbSymbolTableRecord
100
AcDbLinetypeTableRecord
  2
AM_ISO09W050
 70
     0
  3
_____ . . _____ . . _____ . . ____ .. ____
 72
    65
 73
     6
 40
22.5
 49
12.0
 74
     0
 49
-1.5
 74
     0
 49
3.0
 74
     0
 49
-1.5
 74
     0
 49
3.0
 74
     0
 49
-1.5
 74
     0
  0
LTYPE
  5
13C
330
5
100
AcDbSymbolTableRecord
100
AcDbLinetypeTableRecord
  2
Amconstr
 70
     0
  3
_______________________
 72
    65
 73
     2
 40
9999.0
 49
9999.0
 74
     0
 49
0.0
 74
     0
  0
LTYPE
  5
13D
330
5
100
AcDbSymbolTableRecord
100
AcDbLinetypeTableRecord
  2
AM_ISO08W050x2
 70
     0
  3
__ . __ . __ . __ . __ . __
 72
    65
 73
     4
 40
9.0
 49
6.0
 74
     0
 49
-0.75
 74
     0
 49
1.5
 74
     0
 49
-0.75
 74
     0
  0
LTYPE
  5
13E
330
5
100
AcDbSymbolTableRecord
100
AcDbLinetypeTableRecord
  2
AM_ISO02W050x2
 70
     0
  3
 _ _ _ _ _ _ _ _ _ _ _ _
 72
    65
 73
     2
 40
3.75
 49
3.0
 74
     0
 49
-0.75
 74
     0
  0
LTYPE
  5
141
330
5
100
AcDbSymbolTableRecord
100
AcDbLinetypeTableRecord
  2
Amzigzag
 70
     0
  3
/\/-/\/-/\/-/\/-/\/-/\/
 72
    65
 73
     2
 40
11.00009999999999
 49
0.0001
 74
     4
 75
   135
340
140
 46
0.04
 50
0.0
 44
0.0
 45
0.0
 49
-11.0
 74
     0
  0
LTYPE
  5
142
330
5
100
AcDbSymbolTableRecord
100
AcDbLinetypeTableRecord
  2
CENTER2
 70
     0
  3
Center (.5x) ___ _ ___ _ ___ _ ___ _ ___ _ ___
 72
    65
 73
     4
 40
1.125
 49
0.75
 74
     0
 49
-0.125
 74
     0
 49
0.125
 74
     0
 49
-0.125
 74
     0
  0
LTYPE
  5
143
330
5
100
AcDbSymbolTableRecord
100
AcDbLinetypeTableRecord
  2
HIDDEN2
 70
     0
  3
Hidden (.5x) _ _ _ _ _ _ _ _ _ _ _ _ _ _ _ _ _
 72
    65
 73
     2
 40
0.1875
 49
0.125
 74
     0
 49
-0.0625
 74
     0
  0
LTYPE
  5
144
330
5
100
AcDbSymbolTableRecord
100
AcDbLinetypeTableRecord
  2
Amzigzag2
 70
     0
  3
/\/-/\/-/\/-/\/-/\/-/\/
 72
    65
 73
     2
 40
0.4401
 49
0.0001
 74
     4
 75
   135
340
140
 46
0.0016
 50
0.0
 44
0.0
 45
0.0
 49
-0.4400000000000001
 74
     0
  0
LTYPE
  5
196
330
5
100
AcDbSymbolTableRecord
100
AcDbLinetypeTableRecord
  2
ACANSTGB
 70
     0
  3
__ . . __ . .
 72
    65
 73
     6
 40
0.35433070866
 49
0.15748031496
 74
     0
 49
-0.03937007874
 74
     0
 49
0.03937007874
 74
     0
 49
-0.03937007874
 74
     0
 49
0.03937007874
 74
     0
 49
-0.03937007874
 74
     0
  0
LTYPE
  5
197
330
5
100
AcDbSymbolTableRecord
100
AcDbLinetypeTableRecord
  2
ACANSTGL
 70
     0
  3
_ _ _ _ _
 72
    65
 73
     2
 40
0.11811023622
 49
0.07874015748
 74
     0
 49
-0.03937007874
 74
     0
  0
ENDTAB
  0
TABLE
  2
LAYER
  5
2
330
0
100
AcDbSymbolTable
 70
     8
  0
LAYER
  5
10
330
2
100
AcDbSymbolTableRecord
100
AcDbLayerTableRecord
  2
0
 70
     0
 62
     7
  6
CONTINUOUS
370
    -3
390
F
  0
LAYER
  5
26
330
2
100
AcDbSymbolTableRecord
100
AcDbLayerTableRecord
  2
2
 70
     0
 62
     2
  6
TENSEN
370
    -3
390
F
  0
LAYER
  5
27
330
2
100
AcDbSymbolTableRecord
100
AcDbLayerTableRecord
  2
1
 70
     0
 62
     1
  6
ITTEN
370
    -3
390
F
  0
LAYER
  5
28
330
2
100
AcDbSymbolTableRecord
100
AcDbLayerTableRecord
  2
3
 70
     0
 62
     3
  6
CONTINUOUS
370
    -3
390
F
  0
LAYER
  5
29
330
2
100
AcDbSymbolTableRecord
100
AcDbLayerTableRecord
  2
10
 70
     0
 62
     7
  6
CONTINUOUS
370
    -3
390
F
  0
LAYER
  5
2A
330
2
100
AcDbSymbolTableRecord
100
AcDbLayerTableRecord
  2
11
 70
     0
 62
     7
  6
CONTINUOUS
370
    -3
390
F
  0
LAYER
  5
2B
330
2
100
AcDbSymbolTableRecord
100
AcDbLayerTableRecord
  2
4
 70
     0
 62
     7
  6
CONTINUOUS
370
    -3
390
F
  0
LAYER
  5
198
330
2
100
AcDbSymbolTableRecord
100
AcDbLayerTableRecord
  2
DEFPOINTS
 70
     0
 62
     7
  6
CONTINUOUS
290
     0
370
    -3
390
F
  0
ENDTAB
  0
TABLE
  2
STYLE
  5
3
330
0
100
AcDbSymbolTable
 70
     4
  0
STYLE
  5
11
330
3
100
AcDbSymbolTableRecord
100
AcDbTextStyleTableRecord
  2
STANDARD
 70
     0
 40
7.0
 41
0.8
 50
0.0
 71
     0
 42
7.0
  3
ISOCP
  4
B:\r13\com\fonts\bigfont.shx
  0
STYLE
  5
140
330
3
100
AcDbSymbolTableRecord
100
AcDbTextStyleTableRecord
  2

 70
     1
 40
0.0
 41
1.0
 50
0.0
 71
     0
 42
7.0
  3
ltypeshp.shx
  4

  0
STYLE
  5
199
330
3
100
AcDbSymbolTableRecord
100
AcDbTextStyleTableRecord
  2
ACANSTS
 70
     0
 40
1.0
 41
1.0
 50
0.0
 71
     0
 42
3.5
  3
romans.shx
  4
extfont.shx
  0
STYLE
  5
19A
330
3
100
AcDbSymbolTableRecord
100
AcDbTextStyleTableRecord
  2
ACANSGDT
 70
     0
 40
0.0
 41
1.0
 50
0.0
 71
     0
 42
3.5
  3
amgdtans.shx
  4

  0
ENDTAB
  0
TABLE
  2
VIEW
  5
6
330
0
100
AcDbSymbolTable
 70
     0
  0
ENDTAB
  0
TABLE
  2
UCS
  5
7
330
0
100
AcDbSymbolTable
 70
     0
  0
ENDTAB
  0
TABLE
  2
APPID
  5
9
330
0
100
AcDbSymbolTable
 70
    12
  0
APPID
  5
12
330
9
100
AcDbSymbolTableRecord
100
AcDbRegAppTableRecord
  2
ACAD
 70
     0
  0
APPID
  5
72
330
9
100
AcDbSymbolTableRecord
100
AcDbRegAppTableRecord
  2
GENIUS_GENDIM_13
 70
     0
  0
APPID
  5
73
330
9
100
AcDbSymbolTableRecord
100
AcDbRegAppTableRecord
  2
GENIUS_GENDTOL_13
 70
     0
  0
APPID
  5
74
330
9
100
AcDbSymbolTableRecord
100
AcDbRegAppTableRecord
  2
GENIUS_GE3DTOL_13
 70
     0
  0
APPID
  5
76
330
9
100
AcDbSymbolTableRecord
100
AcDbRegAppTableRecord
  2
MCAD_NO_VIS
 70
     0
  0
APPID
  5
77
330
9
100
AcDbSymbolTableRecord
100
AcDbRegAppTableRecord
  2
ACAD_TEMP_GRAPHIC
 70
     0
  0
APPID
  5
AA
330
9
100
AcDbSymbolTableRecord
100
AcDbRegAppTableRecord
  2
AD_DRAW
 70
     0
  0
APPID
  5
AD
330
9
100
AcDbSymbolTableRecord
100
AcDbRegAppTableRecord
  2
ACATTRIBSERVICES
 70
     0
  0
APPID
  5
F9
330
9
100
AcDbSymbolTableRecord
100
AcDbRegAppTableRecord
  2
ASURF_PCURVE_APPNAME
 70
     0
  0
APPID
  5
128
330
9
100
AcDbSymbolTableRecord
100
AcDbRegAppTableRecord
  2
DESIGNERASSEMBLIES
 70
     0
  0
APPID
  5
130
330
9
100
AcDbSymbolTableRecord
100
AcDbRegAppTableRecord
  2
ACADM_DIM_EDIT
 70
     0
  0
APPID
  5
131
330
9
100
AcDbSymbolTableRecord
100
AcDbRegAppTableRecord
  2
AMDT_DM_ADJ
 70
     0
  0
ENDTAB
  0
TABLE
  2
DIMSTYLE
  5
A
330
0
100
AcDbSymbolTable
 70
    14
100
AcDbDimStyleTable
 71
     0
  0
DIMSTYLE
105
2C
330
A
100
AcDbSymbolTableRecord
100
AcDbDimStyleTableRecord
  2
STANDARD
 70
     0
279
     2
284
     8
285
     8
286
     8
340
11
  0
DIMSTYLE
105
2D
330
A
100
AcDbSymbolTableRecord
100
AcDbDimStyleTableRecord
  2
ISO-25
 70
     0
 41
2.5
 42
0.625
 43
3.75
 44
1.25
 74
     0
 77
     1
 78
     8
140
2.5
141
2.5
143
0.0394
145
1.0
147
0.625
172
     1
279
     2
284
     8
285
     8
286
     8
340
11
  0
DIMSTYLE
105
2E
330
A
100
AcDbSymbolTableRecord
100
AcDbDimStyleTableRecord
  2
ISO-35
 70
     0
 41
3.5
 42
0.875
 43
5.25
 44
1.75
 74
     0
 77
     1
 78
     8
140
3.5
141
3.5
143
0.0394
145
1.399999999999999
147
0.875
172
     1
279
     2
284
     8
285
     8
286
     8
340
11
  0
DIMSTYLE
105
2F
330
A
100
AcDbSymbolTableRecord
100
AcDbDimStyleTableRecord
  2
ISO-5
 70
     0
 41
5.0
 42
1.25
 43
7.5
 44
2.5
 74
     0
 77
     1
 78
     8
140
5.0
141
5.0
143
0.0394
145
2.0
147
1.25
172
     1
279
     2
284
     8
285
     8
286
     8
340
11
  0
DIMSTYLE
105
30
330
A
100
AcDbSymbolTableRecord
100
AcDbDimStyleTableRecord
  2
ISO-7
 70
     0
 41
7.0
 42
1.75
 43
10.5
 44
3.5
 74
     0
 77
     1
 78
     8
140
7.0
141
7.0
143
0.0394
145
2.799999999999998
147
1.75
172
     1
279
     2
284
     8
285
     8
286
     8
340
11
  0
DIMSTYLE
105
31
330
A
100
AcDbSymbolTableRecord
100
AcDbDimStyleTableRecord
  2
ISO1
 70
     0
 41
10.0
 42
2.5
 43
15.0
 44
5.0
 74
     0
 77
     1
 78
     8
140
10.0
141
10.0
143
0.0394
145
4.0
147
2.5
172
     1
279
     2
284
     8
285
     8
286
     8
340
11
  0
DIMSTYLE
105
32
330
A
100
AcDbSymbolTableRecord
100
AcDbDimStyleTableRecord
  2
ISO1-4
 70
     0
 41
14.0
 42
3.5
 43
21.0
 44
7.0
 74
     0
 77
     1
 78
     8
140
14.0
141
14.0
143
0.0394
145
5.599999999999998
147
3.5
172
     1
279
     2
284
     8
285
     8
286
     8
340
11
  0
DIMSTYLE
105
33
330
A
100
AcDbSymbolTableRecord
100
AcDbDimStyleTableRecord
  2
ISO2
 70
     0
 41
20.0
 42
5.0
 43
30.0
 44
10.0
 74
     0
 77
     1
 78
     8
140
20.0
141
20.0
143
0.0394
145
8.0
147
5.0
172
     1
279
     2
284
     8
285
     8
286
     8
340
11
  0
DIMSTYLE
105
19B
330
A
100
AcDbSymbolTableRecord
100
AcDbDimStyleTableRecord
  2
AM_ANSI
 70
     0
  4
mm
 41
0.1
 42
0.05
 43
0.5
 44
0.1
 47
0.1
 48
0.1
 78
     7
 79
     2
140
0.12
141
0.0
146
0.71
147
0.06
176
   256
177
   256
178
     2
274
     4
284
     7
340
11
371
    -1
372
    -1
  0
DIMSTYLE
105
19C
330
A
100
AcDbSymbolTableRecord
100
AcDbDimStyleTableRecord
  2
AM_ANSI$3
 70
     0
  4
mm
 41
0.1
 42
0.05
 43
0.5
 44
0.1
 47
0.1
 48
0.1
 78
     7
 79
     2
140
0.12
141
0.0
146
0.71
147
0.06
176
   256
177
   256
178
     2
274
     4
284
     7
288
     1
289
     0
340
11
371
    -1
372
    -1
  0
DIMSTYLE
105
19D
330
A
100
AcDbSymbolTableRecord
100
AcDbDimStyleTableRecord
  2
AM_ANSI$4
 70
     0
  4
mm
 41
0.1
 42
0.05
 43
0.5
 44
0.1
 47
0.1
 48
0.1
 78
     7
 79
     2
140
0.12
141
0.0
146
0.71
147
0.06
176
   256
177
   256
178
     2
274
     4
284
     7
288
     1
289
     0
340
11
371
    -1
372
    -1
  0
DIMSTYLE
105
19E
330
A
100
AcDbSymbolTableRecord
100
AcDbDimStyleTableRecord
  2
AM_ANSI$7
 70
     0
  4
mm
 41
0.1
 42
0.05
 43
0.5
 44
0.1
 47
0.1
 48
0.1
 78
     7
 79
     2
140
0.24
141
0.0
146
0.71
147
0.06
176
   256
177
   256
178
     2
274
     4
284
     7
340
11
371
    -1
372
    -1
  0
DIMSTYLE
105
19F
330
A
100
AcDbSymbolTableRecord
100
AcDbDimStyleTableRecord
  2
AM_ANSI$SF
 70
     0
  4
mm
 41
0.1
 42
0.05
 43
0.5
 44
0.1
 47
0.1
 48
0.1
 75
     1
 76
     1
 78
     7
 79
     2
140
0.12
141
0.0
146
0.71
147
0.06
176
   256
177
   256
178
     2
274
     4
284
     7
340
11
371
    -1
372
    -1
  0
DIMSTYLE
105
1A0
330
A
100
AcDbSymbolTableRecord
100
AcDbDimStyleTableRecord
  2
AM_ANSI$SH
 70
     0
  4
mm
 41
0.1
 42
0.05
 43
0.5
 44
0.1
 47
0.1
 48
0.1
 75
     1
 76
     1
 78
     7
 79
     2
140
0.12
141
0.0
146
0.71
147
0.06
173
     1
176
   256
177
   256
178
     2
274
     4
284
     7
340
11
341
15D
343
15D
371
    -1
372
    -1
  0
ENDTAB
  0
TABLE
  2
BLOCK_RECORD
  5
1
330
0
100
AcDbSymbolTable
 70
    11
  0
BLOCK_RECORD
  5
1E
102
{ACAD_XDICTIONARY
360
14D
102
}
330
1
100
AcDbSymbolTableRecord
100
AcDbBlockTableRecord
  2
*Model_Space
340
21
  0
BLOCK_RECORD
  5
1A
330
1
100
AcDbSymbolTableRecord
100
AcDbBlockTableRecord
  2
*Paper_Space
340
1D
  0
BLOCK_RECORD
  5
11F
330
1
100
AcDbSymbolTableRecord
100
AcDbBlockTableRecord
  2
*U0
340
0
  0
BLOCK_RECORD
  5
15D
330
1
100
AcDbSymbolTableRecord
100
AcDbBlockTableRecord
  2
GENAXEH
340
0
  0
BLOCK_RECORD
  5
161
330
1
100
AcDbSymbolTableRecord
100
AcDbBlockTableRecord
  2
*D2
340
0
  0
BLOCK_RECORD
  5
16E
330
1
100
AcDbSymbolTableRecord
100
AcDbBlockTableRecord
  2
*D3
340
0
  0
BLOCK_RECORD
  5
17B
330
1
100
AcDbSymbolTableRecord
100
AcDbBlockTableRecord
  2
*D4
340
0
  0
BLOCK_RECORD
  5
188
330
1
100
AcDbSymbolTableRecord
100
AcDbBlockTableRecord
  2
*D5
340
0
  0
BLOCK_RECORD
  5
22D
330
1
100
AcDbSymbolTableRecord
100
AcDbBlockTableRecord
  2
*D7
340
0
  0
BLOCK_RECORD
  5
23A
330
1
100
AcDbSymbolTableRecord
100
AcDbBlockTableRecord
  2
*D8
340
0
  0
BLOCK_RECORD
  5
246
330
1
100
AcDbSymbolTableRecord
100
AcDbBlockTableRecord
  2
*D9
340
0
  0
BLOCK_RECORD
  5
253
330
1
100
AcDbSymbolTableRecord
100
AcDbBlockTableRecord
  2
*D10
340
0
  0
ENDTAB
  0
ENDSEC
  0
SECTION
  2
BLOCKS
  0
BLOCK
  5
1F
330
1E
100
AcDbEntity
  8
0
100
AcDbBlockBegin
  2
*Model_Space
 70
     0
 10
0.0
 20
0.0
 30
0.0
  3
*Model_Space
  1

  0
ENDBLK
  5
20
330
1E
100
AcDbEntity
  8
0
100
AcDbBlockEnd
  0
BLOCK
  5
1B
330
1A
100
AcDbEntity
 67
     1
  8
0
100
AcDbBlockBegin
  2
*Paper_Space
 70
     0
 10
0.0
 20
0.0
 30
0.0
  3
*Paper_Space
  1

  0
ENDBLK
  5
1C
330
1A
100
AcDbEntity
 67
     1
  8
0
100
AcDbBlockEnd
  0
BLOCK
  5
120
330
11F
100
AcDbEntity
  8
0
100
AcDbBlockBegin
  2
*U0
 70
     1
 10
0.0
 20
0.0
 30
0.0
  3
*U0
  1

  0
ENDBLK
  5
121
330
11F
100
AcDbEntity
  8
0
100
AcDbBlockEnd
  0
BLOCK
  5
15F
330
15D
100
AcDbEntity
  8
0
100
AcDbBlockBegin
  2
GENAXEH
 70
     0
 10
0.0
 20
0.0
 30
0.0
  3
GENAXEH
  1

  0
LINE
  5
15E
330
15D
100
AcDbEntity
  8
0
100
AcDbLine
 10
-1.0
 20
0.0
 30
0.0
 11
1.0
 21
0.0
 31
0.0
  0
ENDBLK
  5
160
330
15D
100
AcDbEntity
  8
0
100
AcDbBlockEnd
  0
BLOCK
  5
16C
330
161
100
AcDbEntity
  8
0
100
AcDbBlockBegin
  2
*D2
 70
     1
 10
0.0
 20
0.0
 30
0.0
  3
*D2
  1

  0
LINE
  5
162
330
161
100
AcDbEntity
  8
0
 62
     0
370
    -2
100
AcDbLine
 10
64.92695288406534
 20
106.6152043245326
 30
0.0
 11
64.92695288406534
 21
127.8201044339868
 31
0.0
  0
LINE
  5
163
330
161
100
AcDbEntity
  8
0
 62
     0
370
    -2
100
AcDbLine
 10
63.87695288406533
 20
106.6152043245326
 30
0.0
 11
63.87695288406533
 21
127.8201044339868
 31
0.0
  0
LINE
  5
164
330
161
100
AcDbEntity
  8
0
 62
     0
370
    -2
100
AcDbLine
 10
61.87695288406533
 20
127.6201044339868
 30
0.0
 11
59.87695288406533
 21
127.6201044339868
 31
0.0
  0
LINE
  5
165
330
161
100
AcDbEntity
  8
0
 62
     0
370
    -2
100
AcDbLine
 10
66.92695288406534
 20
127.6201044339868
 30
0.0
 11
68.92695288406534
 21
127.6201044339868
 31
0.0
  0
SOLID
  5
166
330
161
100
AcDbEntity
  8
0
 62
     0
100
AcDbTrace
 10
61.87695288406533
 20
127.9534377673201
 30
0.0
 11
61.87695288406533
 21
127.2867711006534
 31
0.0
 12
63.87695288406533
 22
127.6201044339868
 32
0.0
 13
63.87695288406533
 23
127.6201044339868
 33
0.0
  0
SOLID
  5
167
330
161
100
AcDbEntity
  8
0
 62
     0
100
AcDbTrace
 10
66.92695288406534
 20
127.9534377673201
 30
0.0
 11
66.92695288406534
 21
127.2867711006534
 31
0.0
 12
64.92695288406534
 22
127.6201044339868
 32
0.0
 13
64.92695288406534
 23
127.6201044339868
 33
0.0
  0
MTEXT
  5
168
330
161
100
AcDbEntity
  8
0
 62
     0
100
AcDbMText
 10
72.07695288406535
 20
127.6201044339868
 30
0.0
 40
3.5
 41
0.0
 71
     5
 72
     1
  1
\A1;1.05
 73
     1
 44
1.0
  0
POINT
  5
169
330
161
100
AcDbEntity
  8
DEFPOINTS
 62
     0
100
AcDbPoint
 10
64.92695288406534
 20
106.5152043245326
 30
0.0
  0
POINT
  5
16A
330
161
100
AcDbEntity
  8
DEFPOINTS
 62
     0
100
AcDbPoint
 10
63.87695288406533
 20
106.5152043245326
 30
0.0
  0
POINT
  5
16B
330
161
100
AcDbEntity
  8
DEFPOINTS
 62
     0
100
AcDbPoint
 10
63.87695288406533
 20
127.6201044339868
 30
0.0
  0
ENDBLK
  5
16D
330
161
100
AcDbEntity
  8
0
100
AcDbBlockEnd
  0
BLOCK
  5
179
330
16E
100
AcDbEntity
  8
0
100
AcDbBlockBegin
  2
*D3
 70
     1
 10
0.0
 20
0.0
 30
0.0
  3
*D3
  1

  0
LINE
  5
16F
330
16E
100
AcDbEntity
  8
0
 62
     0
370
    -2
100
AcDbLine
 10
134.0543811127736
 20
96.43821720726361
 30
0.0
 11
134.0543811127736
 21
71.55650432092722
 31
0.0
  0
LINE
  5
170
330
16E
100
AcDbEntity
  8
0
 62
     0
370
    -2
100
AcDbLine
 10
106.0543811127736
 20
93.85386709937369
 30
0.0
 11
106.0543811127736
 21
71.55650432092722
 31
0.0
  0
LINE
  5
171
330
16E
100
AcDbEntity
  8
0
 62
     0
370
    -2
100
AcDbLine
 10
132.0543811127736
 20
71.75650432092722
 30
0.0
 11
120.9136337597566
 21
71.75650432092722
 31
0.0
  0
LINE
  5
172
330
16E
100
AcDbEntity
  8
0
 62
     0
370
    -2
100
AcDbLine
 10
108.0543811127737
 20
71.75650432092722
 30
0.0
 11
117.3136337597566
 21
71.75650432092722
 31
0.0
  0
SOLID
  5
173
330
16E
100
AcDbEntity
  8
0
 62
     0
100
AcDbTrace
 10
132.0543811127736
 20
72.08983765426054
 30
0.0
 11
132.0543811127736
 21
71.42317098759389
 31
0.0
 12
134.0543811127736
 22
71.75650432092722
 32
0.0
 13
134.0543811127736
 23
71.75650432092722
 33
0.0
  0
SOLID
  5
174
330
16E
100
AcDbEntity
  8
0
 62
     0
100
AcDbTrace
 10
108.0543811127737
 20
72.08983765426054
 30
0.0
 11
108.0543811127737
 21
71.42317098759389
 31
0.0
 12
106.0543811127736
 22
71.75650432092722
 32
0.0
 13
106.0543811127736
 23
71.75650432092722
 33
0.0
  0
MTEXT
  5
175
330
16E
100
AcDbEntity
  8
0
 62
     0
100
AcDbMText
 10
119.1136337597566
 20
71.75650432092722
 30
0.0
 40
3.5
 41
0.0
 71
     5
 72
     1
  1
\A1;28
 73
     1
 44
1.0
  0
POINT
  5
176
330
16E
100
AcDbEntity
  8
DEFPOINTS
 62
     0
100
AcDbPoint
 10
134.0543811127736
 20
96.53821720726361
 30
0.0
  0
POINT
  5
177
330
16E
100
AcDbEntity
  8
DEFPOINTS
 62
     0
100
AcDbPoint
 10
106.0543811127736
 20
93.95386709937369
 30
0.0
  0
POINT
  5
178
330
16E
100
AcDbEntity
  8
DEFPOINTS
 62
     0
100
AcDbPoint
 10
106.0543811127736
 20
71.75650432092722
 30
0.0
  0
ENDBLK
  5
17A
330
16E
100
AcDbEntity
  8
0
100
AcDbBlockEnd
  0
BLOCK
  5
186
330
17B
100
AcDbEntity
  8
0
100
AcDbBlockBegin
  2
*D4
 70
     1
 10
0.0
 20
0.0
 30
0.0
  3
*D4
  1

  0
LINE
  5
17C
330
17B
100
AcDbEntity
  8
0
 62
     0
370
    -2
100
AcDbLine
 10
146.0543811127736
 20
100.6382172072636
 30
0.0
 11
146.0543811127736
 21
144.7925177678859
 31
0.0
  0
LINE
  5
17D
330
17B
100
AcDbEntity
  8
0
 62
     0
370
    -2
100
AcDbLine
 10
106.0543811127735
 20
107.2225673151534
 30
0.0
 11
106.0543811127735
 21
144.7925177678859
 31
0.0
  0
LINE
  5
17E
330
17B
100
AcDbEntity
  8
0
 62
     0
370
    -2
100
AcDbLine
 10
144.0543811127736
 20
144.5925177678859
 30
0.0
 11
127.0846055870441
 21
144.5925177678859
 31
0.0
  0
LINE
  5
17F
330
17B
100
AcDbEntity
  8
0
 62
     0
370
    -2
100
AcDbLine
 10
108.0543811127735
 20
144.5925177678859
 30
0.0
 11
123.4846055870441
 21
144.5925177678859
 31
0.0
  0
SOLID
  5
180
330
17B
100
AcDbEntity
  8
0
 62
     0
100
AcDbTrace
 10
144.0543811127736
 20
144.9258511012192
 30
0.0
 11
144.0543811127736
 21
144.2591844345525
 31
0.0
 12
146.0543811127736
 22
144.5925177678859
 32
0.0
 13
146.0543811127736
 23
144.5925177678859
 33
0.0
  0
SOLID
  5
181
330
17B
100
AcDbEntity
  8
0
 62
     0
100
AcDbTrace
 10
108.0543811127735
 20
144.9258511012192
 30
0.0
 11
108.0543811127735
 21
144.2591844345525
 31
0.0
 12
106.0543811127735
 22
144.5925177678859
 32
0.0
 13
106.0543811127735
 23
144.5925177678859
 33
0.0
  0
MTEXT
  5
182
330
17B
100
AcDbEntity
  8
0
 62
     0
100
AcDbMText
 10
125.2846055870441
 20
144.5925177678859
 30
0.0
 40
3.5
 41
0.0
 71
     5
 72
     1
  1
\A1;40
 73
     1
 44
1.0
  0
POINT
  5
183
330
17B
100
AcDbEntity
  8
DEFPOINTS
 62
     0
100
AcDbPoint
 10
146.0543811127736
 20
100.5382172072635
 30
0.0
  0
POINT
  5
184
330
17B
100
AcDbEntity
  8
DEFPOINTS
 62
     0
100
AcDbPoint
 10
106.0543811127735
 20
107.1225673151534
 30
0.0
  0
POINT
  5
185
330
17B
100
AcDbEntity
  8
DEFPOINTS
 62
     0
100
AcDbPoint
 10
106.0543811127735
 20
144.5925177678859
 30
0.0
  0
ENDBLK
  5
187
330
17B
100
AcDbEntity
  8
0
100
AcDbBlockEnd
  0
BLOCK
  5
194
330
188
100
AcDbEntity
  8
0
100
AcDbBlockBegin
  2
*D5
 70
     1
 10
0.0
 20
0.0
 30
0.0
  3
*D5
  1

  0
LINE
  5
189
330
188
100
AcDbEntity
  8
0
 62
     0
370
    -2
100
AcDbLine
 10
105.9543811127736
 20
104.5382172072635
 30
0.0
 11
89.29301921252836
 21
104.5382172072636
 31
0.0
  0
LINE
  5
18A
330
188
100
AcDbEntity
  8
0
 62
     0
370
    -2
100
AcDbLine
 10
105.9543811127736
 20
96.53821720726361
 30
0.0
 11
89.29301921252836
 21
96.53821720726362
 31
0.0
  0
LINE
  5
18B
330
188
100
AcDbEntity
  8
0
 62
     0
370
    -2
100
AcDbLine
 10
89.49301921252837
 20
98.53821720726362
 30
0.0
 11
89.49301921252837
 21
102.5382172072636
 31
0.0
  0
LINE
  5
18C
330
188
100
AcDbEntity
  8
0
 62
     0
370
    -2
100
AcDbLine
 10
89.49301921252837
 20
104.5382172072636
 30
0.0
 11
89.49301921252837
 21
114.4616588847511
 31
0.0
  0
LINE
  5
18D
330
188
100
AcDbEntity
  8
0
 62
     0
370
    -2
100
AcDbLine
 10
89.49301921252837
 20
114.4616588847511
 30
0.0
 11
91.49301921252837
 21
114.4616588847511
 31
0.0
  0
SOLID
  5
18E
330
188
100
AcDbEntity
  8
0
 62
     0
100
AcDbTrace
 10
89.15968587919504
 20
98.53821720726362
 30
0.0
 11
89.82635254586169
 21
98.53821720726362
 31
0.0
 12
89.49301921252837
 22
96.53821720726362
 32
0.0
 13
89.49301921252837
 23
96.53821720726362
 33
0.0
  0
SOLID
  5
18F
330
188
100
AcDbEntity
  8
0
 62
     0
100
AcDbTrace
 10
89.15968587919504
 20
102.5382172072636
 30
0.0
 11
89.82635254586169
 21
102.5382172072636
 31
0.0
 12
89.49301921252837
 22
104.5382172072636
 32
0.0
 13
89.49301921252837
 23
104.5382172072636
 33
0.0
  0
MTEXT
  5
190
330
188
100
AcDbEntity
  8
0
 62
     0
100
AcDbMText
 10
93.24301921252834
 20
114.4616588847511
 30
0.0
 40
3.5
 41
0.0
 71
     5
 72
     1
  1
\A1;%%C8
 73
     1
 44
1.0
  0
POINT
  5
191
330
188
100
AcDbEntity
  8
DEFPOINTS
 62
     0
100
AcDbPoint
 10
106.0543811127736
 20
104.5382172072635
 30
0.0
  0
POINT
  5
192
330
188
100
AcDbEntity
  8
DEFPOINTS
 62
     0
100
AcDbPoint
 10
106.0543811127736
 20
96.53821720726361
 30
0.0
  0
POINT
  5
193
330
188
100
AcDbEntity
  8
DEFPOINTS
 62
     0
100
AcDbPoint
 10
89.49301921252837
 20
96.53821720726362
 30
0.0
  0
ENDBLK
  5
195
330
188
100
AcDbEntity
  8
0
100
AcDbBlockEnd
  0
BLOCK
  5
238
330
22D
100
AcDbEntity
  8
0
100
AcDbBlockBegin
  2
*D7
 70
     1
 10
0.0
 20
0.0
 30
0.0
  3
*D7
  1

  0
LINE
  5
26A
330
22D
100
AcDbEntity
  8
0
 62
     0
370
    -2
100
AcDbLine
 10
141.1344858936678
 20
84.6317126745923
 30
0.0
 11
141.1344858936678
 21
128.7860132352146
 31
0.0
  0
LINE
  5
26B
330
22D
100
AcDbEntity
  8
0
 62
     0
370
    -2
100
AcDbLine
 10
101.1344858936677
 20
91.21606278248219
 30
0.0
 11
101.1344858936677
 21
128.7860132352146
 31
0.0
  0
LINE
  5
26C
330
22D
100
AcDbEntity
  8
0
 62
     0
370
    -2
100
AcDbLine
 10
139.1344858936678
 20
128.5860132352146
 30
0.0
 11
123.8269150923477
 21
128.5860132352146
 31
0.0
  0
LINE
  5
26D
330
22D
100
AcDbEntity
  8
0
 62
     0
370
    -2
100
AcDbLine
 10
103.1344858936677
 20
128.5860132352146
 30
0.0
 11
116.9025056435288
 21
128.5860132352146
 31
0.0
  0
MTEXT
  5
26E
330
22D
100
AcDbEntity
  8
0
 62
     0
100
AcDbMText
 10
120.3647103679382
 20
128.5860132352146
 30
0.0
 40
7.0
 41
0.0
 71
     5
 72
     1
  1
\A1;40
 73
     1
 44
1.0
  0
SOLID
  5
26F
330
22D
100
AcDbEntity
  8
0
 62
     0
100
AcDbTrace
 10
139.1344858936678
 20
128.9193465685479
 30
0.0
 11
139.1344858936678
 21
128.2526799018812
 31
0.0
 12
141.1344858936678
 22
128.5860132352146
 32
0.0
 13
141.1344858936678
 23
128.5860132352146
 33
0.0
  0
SOLID
  5
270
330
22D
100
AcDbEntity
  8
0
 62
     0
100
AcDbTrace
 10
103.1344858936677
 20
128.9193465685479
 30
0.0
 11
103.1344858936677
 21
128.2526799018812
 31
0.0
 12
101.1344858936677
 22
128.5860132352146
 32
0.0
 13
101.1344858936677
 23
128.5860132352146
 33
0.0
  0
POINT
  5
271
330
22D
100
AcDbEntity
  8
DEFPOINTS
 62
     0
100
AcDbPoint
 10
141.1344858936678
 20
84.5317126745923
 30
0.0
  0
POINT
  5
272
330
22D
100
AcDbEntity
  8
DEFPOINTS
 62
     0
100
AcDbPoint
 10
101.1344858936677
 20
91.11606278248219
 30
0.0
  0
POINT
  5
273
330
22D
100
AcDbEntity
  8
DEFPOINTS
 62
     0
100
AcDbPoint
 10
101.1344858936677
 20
128.5860132352146
 30
0.0
  0
ENDBLK
  5
239
330
22D
100
AcDbEntity
  8
0
100
AcDbBlockEnd
  0
BLOCK
  5
244
330
23A
100
AcDbEntity
  8
0
100
AcDbBlockBegin
  2
*D8
 70
     1
 10
0.0
 20
0.0
 30
0.0
  3
*D8
  1

  0
LINE
  5
27D
330
23A
100
AcDbEntity
  8
0
 62
     0
370
    -2
100
AcDbLine
 10
101.0344858936678
 20
88.53171267459231
 30
0.0
 11
84.37312399342257
 21
88.53171267459233
 31
0.0
  0
LINE
  5
27E
330
23A
100
AcDbEntity
  8
0
 62
     0
370
    -2
100
AcDbLine
 10
101.0344858936678
 20
80.53171267459232
 30
0.0
 11
84.37312399342257
 21
80.53171267459232
 31
0.0
  0
LINE
  5
27F
330
23A
100
AcDbEntity
  8
0
 62
     0
370
    -2
100
AcDbLine
 10
84.57312399342256
 20
86.53171267459233
 30
0.0
 11
84.57312399342256
 21
82.53171267459233
 31
0.0
  0
MTEXT
  5
280
330
23A
100
AcDbEntity
  8
0
 62
     0
100
AcDbMText
 10
88.32312399342255
 20
98.45515435207984
 30
0.0
 40
7.0
 41
0.0
 71
     5
 72
     1
  1
\A1;%%C8
 73
     1
 44
1.0
  0
SOLID
  5
281
330
23A
100
AcDbEntity
  8
0
 62
     0
100
AcDbTrace
 10
84.23979066008923
 20
86.53171267459233
 30
0.0
 11
84.9064573267559
 21
86.53171267459233
 31
0.0
 12
84.57312399342256
 22
88.53171267459233
 32
0.0
 13
84.57312399342256
 23
88.53171267459233
 33
0.0
  0
SOLID
  5
282
330
23A
100
AcDbEntity
  8
0
 62
     0
100
AcDbTrace
 10
84.23979066008923
 20
82.53171267459233
 30
0.0
 11
84.9064573267559
 21
82.53171267459233
 31
0.0
 12
84.57312399342256
 22
80.53171267459232
 32
0.0
 13
84.57312399342256
 23
80.53171267459232
 33
0.0
  0
POINT
  5
283
330
23A
100
AcDbEntity
  8
DEFPOINTS
 62
     0
100
AcDbPoint
 10
101.1344858936678
 20
88.53171267459231
 30
0.0
  0
POINT
  5
284
330
23A
100
AcDbEntity
  8
DEFPOINTS
 62
     0
100
AcDbPoint
 10
101.1344858936678
 20
80.53171267459232
 30
0.0
  0
POINT
  5
285
330
23A
100
AcDbEntity
  8
DEFPOINTS
 62
     0
100
AcDbPoint
 10
84.57312399342256
 20
80.53171267459232
 30
0.0
  0
ENDBLK
  5
245
330
23A
100
AcDbEntity
  8
0
100
AcDbBlockEnd
  0
BLOCK
  5
251
330
246
100
AcDbEntity
  8
0
100
AcDbBlockBegin
  2
*D9
 70
     1
 10
0.0
 20
0.0
 30
0.0
  3
*D9
  1

  0
LINE
  5
290
330
246
100
AcDbEntity
  8
0
 62
     0
370
    -2
100
AcDbLine
 10
129.1344858936678
 20
80.43171267459232
 30
0.0
 11
129.1344858936678
 21
55.54999978825593
 31
0.0
  0
LINE
  5
291
330
246
100
AcDbEntity
  8
0
 62
     0
370
    -2
100
AcDbLine
 10
101.1344858936678
 20
77.84736256670242
 30
0.0
 11
101.1344858936678
 21
55.54999978825593
 31
0.0
  0
LINE
  5
292
330
246
100
AcDbEntity
  8
0
 62
     0
370
    -2
100
AcDbLine
 10
127.1344858936678
 20
55.74999978825593
 30
0.0
 11
117.4448409028556
 21
55.74999978825593
 31
0.0
  0
LINE
  5
293
330
246
100
AcDbEntity
  8
0
 62
     0
370
    -2
100
AcDbLine
 10
103.1344858936678
 20
55.74999978825593
 30
0.0
 11
110.9426361784461
 21
55.74999978825593
 31
0.0
  0
MTEXT
  5
294
330
246
100
AcDbEntity
  8
0
 62
     0
100
AcDbMText
 10
114.1937385406508
 20
55.74999978825593
 30
0.0
 40
7.0
 41
0.0
 71
     5
 72
     1
  1
\A1;28
 73
     1
 44
1.0
  0
SOLID
  5
295
330
246
100
AcDbEntity
  8
0
 62
     0
100
AcDbTrace
 10
127.1344858936678
 20
56.08333312158927
 30
0.0
 11
127.1344858936678
 21
55.41666645492259
 31
0.0
 12
129.1344858936678
 22
55.74999978825593
 32
0.0
 13
129.1344858936678
 23
55.74999978825593
 33
0.0
  0
SOLID
  5
296
330
246
100
AcDbEntity
  8
0
 62
     0
100
AcDbTrace
 10
103.1344858936678
 20
56.08333312158927
 30
0.0
 11
103.1344858936678
 21
55.41666645492259
 31
0.0
 12
101.1344858936678
 22
55.74999978825593
 32
0.0
 13
101.1344858936678
 23
55.74999978825593
 33
0.0
  0
POINT
  5
297
330
246
100
AcDbEntity
  8
DEFPOINTS
 62
     0
100
AcDbPoint
 10
129.1344858936678
 20
80.53171267459232
 30
0.0
  0
POINT
  5
298
330
246
100
AcDbEntity
  8
DEFPOINTS
 62
     0
100
AcDbPoint
 10
101.1344858936678
 20
77.9473625667024
 30
0.0
  0
POINT
  5
299
330
246
100
AcDbEntity
  8
DEFPOINTS
 62
     0
100
AcDbPoint
 10
101.1344858936678
 20
55.74999978825593
 30
0.0
  0
ENDBLK
  5
252
330
246
100
AcDbEntity
  8
0
100
AcDbBlockEnd
  0
BLOCK
  5
25E
330
253
100
AcDbEntity
  8
0
100
AcDbBlockBegin
  2
*D10
 70
     1
 10
0.0
 20
0.0
 30
0.0
  3
*D10
  1

  0
LINE
  5
2A4
330
253
100
AcDbEntity
  8
0
 62
     0
370
    -2
100
AcDbLine
 10
60.00705766495954
 20
90.60869979186133
 30
0.0
 11
60.00705766495954
 21
111.8135999013155
 31
0.0
  0
LINE
  5
2A5
330
253
100
AcDbEntity
  8
0
 62
     0
370
    -2
100
AcDbLine
 10
58.95705766495954
 20
90.60869979186133
 30
0.0
 11
58.95705766495954
 21
111.8135999013155
 31
0.0
  0
LINE
  5
2A6
330
253
100
AcDbEntity
  8
0
 62
     0
370
    -2
100
AcDbLine
 10
62.00705766495954
 20
111.6135999013155
 30
0.0
 11
64.00705766495955
 21
111.6135999013155
 31
0.0
  0
LINE
  5
2A7
330
253
100
AcDbEntity
  8
0
 62
     0
370
    -2
100
AcDbLine
 10
56.95705766495954
 20
111.6135999013155
 30
0.0
 11
54.95705766495953
 21
111.6135999013155
 31
0.0
  0
MTEXT
  5
2A8
330
253
100
AcDbEntity
  8
0
 62
     0
100
AcDbMText
 10
67.15705766495955
 20
111.6135999013155
 30
0.0
 40
7.0
 41
0.0
 71
     5
 72
     1
  1
\A1;1.05
 73
     1
 44
1.0
  0
SOLID
  5
2A9
330
253
100
AcDbEntity
  8
0
 62
     0
100
AcDbTrace
 10
62.00705766495954
 20
111.9469332346488
 30
0.0
 11
62.00705766495954
 21
111.2802665679822
 31
0.0
 12
60.00705766495954
 22
111.6135999013155
 32
0.0
 13
60.00705766495954
 23
111.6135999013155
 33
0.0
  0
SOLID
  5
2AA
330
253
100
AcDbEntity
  8
0
 62
     0
100
AcDbTrace
 10
56.95705766495954
 20
111.9469332346488
 30
0.0
 11
56.95705766495954
 21
111.2802665679822
 31
0.0
 12
58.95705766495954
 22
111.6135999013155
 32
0.0
 13
58.95705766495954
 23
111.6135999013155
 33
0.0
  0
POINT
  5
2AB
330
253
100
AcDbEntity
  8
DEFPOINTS
 62
     0
100
AcDbPoint
 10
60.00705766495954
 20
90.50869979186133
 30
0.0
  0
POINT
  5
2AC
330
253
100
AcDbEntity
  8
DEFPOINTS
 62
     0
100
AcDbPoint
 10
58.95705766495954
 20
90.50869979186133
 30
0.0
  0
POINT
  5
2AD
330
253
100
AcDbEntity
  8
DEFPOINTS
 62
     0
100
AcDbPoint
 10
58.95705766495954
 20
111.6135999013155
 30
0.0
  0
ENDBLK
  5
25F
330
253
100
AcDbEntity
  8
0
100
AcDbBlockEnd
  0
ENDSEC
  0
SECTION
  2
ENTITIES
  0
LINE
  5
1F4
330
1E
100
AcDbEntity
  8
3
100
AcDbLine
 10
118.1344858936678
 20
75.53171267459231
 30
0.0
 11
139.2469836999155
 21
75.53171267459233
 31
0.0
  0
LINE
  5
1F5
330
1E
100
AcDbEntity
  8
3
100
AcDbLine
 10
118.1344858936678
 20
93.53171267459231
 30
0.0
 11
139.2469836999156
 21
93.53171267459231
 31
0.0
  0
LINE
  5
1F6
330
1E
100
AcDbEntity
  8
1
100
AcDbLine
 10
96.1344858936679
 20
84.5317126745923
 30
0.0
 11
156.1344858936679
 21
84.5317126745923
 31
0.0
  0
CIRCLE
  5
1F8
330
1E
100
AcDbEntity
  8
3
100
AcDbCircle
 10
59.48205766495977
 20
84.53171267459213
 30
0.0
 40
9.0
  0
LINE
  5
1F9
330
1E
100
AcDbEntity
  8
3
100
AcDbLine
 10
118.1344858936678
 20
75.53171267459233
 30
0.0
 11
118.1344858936678
 21
93.53171267459233
 31
0.0
  0
LINE
  5
1FA
330
1E
100
AcDbEntity
  8
3
100
AcDbLine
 10
101.1344858936678
 20
77.9473625667024
 30
0.0
 11
101.1344858936677
 21
91.11606278248219
 31
0.0
  0
CIRCLE
  5
1FB
330
1E
100
AcDbEntity
  8
3
100
AcDbCircle
 10
59.48205766495954
 20
84.53171267459204
 30
0.0
 40
7.5
  0
LINE
  5
1FC
330
1E
100
AcDbEntity
  8
2
100
AcDbLine
 10
129.1344858936678
 20
80.53171267459232
 30
0.0
 11
129.1344858936678
 21
84.5317126745923
 31
0.0
  0
CIRCLE
  5
1FD
330
1E
100
AcDbEntity
  8
2
100
AcDbCircle
 10
59.48205766495958
 20
84.5317126745923
 30
0.0
 40
3.999999999999959
  0
LINE
  5
1FE
330
1E
100
AcDbEntity
  8
3
100
AcDbLine
 10
64.07965684676804
 20
80.6765756130297
 30
0.0
 11
62.65724797942269
 21
82.09898448037506
 31
0.0
  0
ARC
  5
1FF
330
1E
100
AcDbEntity
  8
3
100
AcDbCircle
 10
59.48205766495964
 20
84.53171267459222
 30
0.0
 40
3.999999999999886
100
AcDbArc
 50
307.4581690022039
 51
322.5418309977963
  0
LINE
  5
200
330
1E
100
AcDbEntity
  8
3
100
AcDbLine
 10
54.88445848315101
 20
80.67657561302969
 30
0.0
 11
56.30686735049639
 21
82.09898448037506
 31
0.0
  0
ARC
  5
201
330
1E
100
AcDbEntity
  8
3
100
AcDbCircle
 10
59.48205766495942
 20
84.53171267459225
 30
0.0
 40
3.999999999999886
100
AcDbArc
 50
217.4581690022037
 51
232.541830997796
  0
CIRCLE
  5
202
330
1E
100
AcDbEntity
  8
3
100
AcDbCircle
 10
59.4820576649595
 20
84.5317126745923
 30
0.0
 40
5.999999999999985
  0
LINE
  5
203
330
1E
100
AcDbEntity
  8
1
100
AcDbLine
 10
59.48205766495954
 20
70.04965472757965
 30
0.0
 11
59.48205766495954
 21
99.01377062160499
 31
0.0
  0
LINE
  5
204
330
1E
100
AcDbEntity
  8
3
100
AcDbLine
 10
55.62692060339691
 20
79.93411349278381
 30
0.0
 11
57.04932947074228
 21
81.35652236012917
 31
0.0
  0
ARC
  5
205
330
1E
100
AcDbEntity
  8
3
100
AcDbCircle
 10
59.48205766495933
 20
84.53171267459213
 30
0.0
 40
4.999999999999744
100
AcDbArc
 50
218.9728334398683
 51
231.0271665601313
  0
LINE
  5
206
330
1E
100
AcDbEntity
  8
3
100
AcDbLine
 10
58.95705766495954
 20
78.55472555732326
 30
0.0
 11
58.95705766495954
 21
80.56631546876287
 31
0.0
  0
LINE
  5
207
330
1E
100
AcDbEntity
  8
3
100
AcDbLine
 10
60.00705766495954
 20
78.5547255573233
 30
0.0
 11
60.00705766495954
 21
80.56631546876287
 31
0.0
  0
ARC
  5
208
330
1E
100
AcDbEntity
  8
3
100
AcDbCircle
 10
59.48205766495954
 20
84.53171267459204
 30
0.0
 40
4.999999999999744
100
AcDbArc
 50
263.9728334398682
 51
276.0271665601317
  0
ARC
  5
209
330
1E
100
AcDbEntity
  8
3
100
AcDbCircle
 10
59.48205766495951
 20
84.5317126745922
 30
0.0
 40
3.999999999999886
100
AcDbArc
 50
262.4581690022035
 51
277.541830997796
  0
LINE
  5
20A
330
1E
100
AcDbEntity
  8
3
100
AcDbLine
 10
63.33719472652217
 20
79.93411349278379
 30
0.0
 11
61.91478585917678
 21
81.35652236012917
 31
0.0
  0
ARC
  5
20B
330
1E
100
AcDbEntity
  8
3
100
AcDbCircle
 10
59.48205766495977
 20
84.53171267459213
 30
0.0
 40
4.999999999999744
100
AcDbArc
 50
308.9728334398686
 51
321.0271665601315
  0
LINE
  5
20D
330
1E
100
AcDbEntity
  8
3
100
AcDbLine
 10
118.1344858936678
 20
75.53171267459231
 30
0.0
 11
102.0465920833715
 21
76.95123271667704
 31
0.0
  0
LINE
  5
20E
330
1E
100
AcDbEntity
  8
2
100
AcDbLine
 10
101.1344858936678
 20
80.53171267459232
 30
0.0
 11
129.1344858936678
 21
80.53171267459232
 31
0.0
  0
ARC
  5
20F
330
1E
100
AcDbEntity
  8
3
100
AcDbCircle
 10
102.1344858936678
 20
77.94736256670242
 30
0.0
 40
1.0
100
AcDbArc
 50
180.0000000000008
 51
264.9575489308299
  0
LINE
  5
210
330
1E
100
AcDbEntity
  8
1
100
AcDbLine
 10
44.99999971794692
 20
84.5317126745923
 30
0.0
 11
73.96411561197225
 21
84.5317126745923
 31
0.0
  0
LINE
  5
212
330
1E
100
AcDbEntity
  8
3
100
AcDbLine
 10
55.62692060339689
 20
89.12931185640081
 30
0.0
 11
57.0493294707423
 21
87.70690298905543
 31
0.0
  0
LINE
  5
213
330
1E
100
AcDbEntity
  8
3
100
AcDbLine
 10
53.5050705476905
 20
85.05671267459232
 30
0.0
 11
55.51666045913009
 21
85.05671267459232
 31
0.0
  0
LINE
  5
214
330
1E
100
AcDbEntity
  8
3
100
AcDbLine
 10
53.50507054769052
 20
84.0067126745923
 30
0.0
 11
55.51666045913009
 21
84.0067126745923
 31
0.0
  0
ARC
  5
215
330
1E
100
AcDbEntity
  8
3
100
AcDbCircle
 10
59.48205766495926
 20
84.5317126745923
 30
0.0
 40
4.999999999999744
100
AcDbArc
 50
173.9728334398686
 51
186.0271665601313
  0
ARC
  5
216
330
1E
100
AcDbEntity
  8
3
100
AcDbCircle
 10
59.48205766495942
 20
84.53171267459234
 30
0.0
 40
3.999999999999886
100
AcDbArc
 50
172.4581690022034
 51
187.5418309977964
  0
LINE
  5
217
330
1E
100
AcDbEntity
  8
3
100
AcDbLine
 10
54.88445848315103
 20
88.38684973615492
 30
0.0
 11
56.3068673504964
 21
86.96444086880957
 31
0.0
  0
ARC
  5
218
330
1E
100
AcDbEntity
  8
3
100
AcDbCircle
 10
59.48205766495935
 20
84.5317126745925
 30
0.0
 40
4.999999999999744
100
AcDbArc
 50
128.9728334398686
 51
141.0271665601316
  0
ARC
  5
219
330
1E
100
AcDbEntity
  8
3
100
AcDbCircle
 10
59.48205766495949
 20
84.53171267459241
 30
0.0
 40
3.999999999999886
100
AcDbArc
 50
127.4581690022039
 51
142.5418309977962
  0
LINE
  5
21A
330
1E
100
AcDbEntity
  8
3
100
AcDbLine
 10
63.33719472652217
 20
89.12931185640081
 30
0.0
 11
61.9147858591768
 21
87.70690298905545
 31
0.0
  0
LINE
  5
21B
330
1E
100
AcDbEntity
  8
3
100
AcDbLine
 10
60.00705766495954
 20
90.50869979186137
 30
0.0
 11
60.00705766495954
 21
88.49710988042176
 31
0.0
  0
LINE
  5
21C
330
1E
100
AcDbEntity
  8
3
100
AcDbLine
 10
58.95705766495954
 20
90.50869979186133
 30
0.0
 11
58.95705766495954
 21
88.49710988042176
 31
0.0
  0
LINE
  5
21D
330
1E
100
AcDbEntity
  8
3
100
AcDbLine
 10
64.07965684676806
 20
88.38684973615496
 30
0.0
 11
62.65724797942268
 21
86.96444086880957
 31
0.0
  0
LINE
  5
21E
330
1E
100
AcDbEntity
  8
3
100
AcDbLine
 10
65.45904478222858
 20
84.00671267459228
 30
0.0
 11
63.44745487078899
 21
84.00671267459228
 31
0.0
  0
LINE
  5
21F
330
1E
100
AcDbEntity
  8
3
100
AcDbLine
 10
65.45904478222856
 20
85.05671267459231
 30
0.0
 11
63.44745487078899
 21
85.05671267459231
 31
0.0
  0
ARC
  5
220
330
1E
100
AcDbEntity
  8
3
100
AcDbCircle
 10
59.48205766495965
 20
84.53171267459229
 30
0.0
 40
3.999999999999886
100
AcDbArc
 50
352.4581690022035
 51
7.541830997796498
  0
ARC
  5
221
330
1E
100
AcDbEntity
  8
3
100
AcDbCircle
 10
59.48205766495957
 20
84.53171267459243
 30
0.0
 40
3.999999999999886
100
AcDbArc
 50
82.45816900220351
 51
97.5418309977965
  0
ARC
  5
222
330
1E
100
AcDbEntity
  8
3
100
AcDbCircle
 10
59.48205766495973
 20
84.53171267459252
 30
0.0
 40
4.999999999999744
100
AcDbArc
 50
38.97283343986838
 51
51.02716656013136
  0
ARC
  5
223
330
1E
100
AcDbEntity
  8
3
100
AcDbCircle
 10
59.48205766495963
 20
84.53171267459238
 30
0.0
 40
3.999999999999886
100
AcDbArc
 50
37.45816900220372
 51
52.54183099779602
  0
ARC
  5
224
330
1E
100
AcDbEntity
  8
3
100
AcDbCircle
 10
59.48205766495981
 20
84.5317126745923
 30
0.0
 40
4.999999999999744
100
AcDbArc
 50
353.9728334398686
 51
6.027166560131347
  0
ARC
  5
225
330
1E
100
AcDbEntity
  8
3
100
AcDbCircle
 10
59.48205766495954
 20
84.53171267459259
 30
0.0
 40
4.999999999999744
100
AcDbArc
 50
83.97283343986865
 51
96.02716656013175
  0
LINE
  5
226
330
1E
100
AcDbEntity
  8
3
100
AcDbLine
 10
118.1344858936678
 20
93.53171267459231
 30
0.0
 11
102.0465920833714
 21
92.11219263250759
 31
0.0
  0
LINE
  5
227
330
1E
100
AcDbEntity
  8
2
100
AcDbLine
 10
101.1344858936678
 20
88.53171267459231
 30
0.0
 11
129.1344858936678
 21
88.53171267459231
 31
0.0
  0
ARC
  5
228
330
1E
100
AcDbEntity
  8
3
100
AcDbCircle
 10
102.1344858936677
 20
91.11606278248221
 30
0.0
 40
1.0
100
AcDbArc
 50
95.04245106917009
 51
180.0000000000008
  0
LINE
  5
229
330
1E
100
AcDbEntity
  8
2
100
AcDbLine
 10
129.1344858936678
 20
88.53171267459231
 30
0.0
 11
129.1344858936678
 21
84.5317126745923
 31
0.0
  0
ARC
  5
22A
330
1E
100
AcDbEntity
  8
3
100
AcDbCircle
 10
103.634485893667
 20
84.53171267459238
 30
0.0
 40
37.50000000000074
100
AcDbArc
 50
347.3392375949427
 51
12.66076240505723
  0
ARC
  5
22B
330
1E
100
AcDbEntity
  8
3
100
AcDbCircle
 10
139.2469836999155
 20
76.53171267459232
 30
0.0
 40
1.0
100
AcDbArc
 50
270.0
 51
347.3392375949427
  0
ARC
  5
22C
330
1E
100
AcDbEntity
  8
3
100
AcDbCircle
 10
139.2469836999156
 20
92.53171267459231
 30
0.0
 40
1.0
100
AcDbArc
 50
12.66076240505723
 51
90.0
  0
VIEWPORT
  5
6D
330
1A
100
AcDbEntity
 67
     1
  8
0
100
AcDbViewport
 10
261.5176991150442
 20
148.5
 30
0.0
 40
523.0353982300885
 41
297.0
 68
    -1
 69
     1
 12
261.5176991150442
 22
148.5
 13
0.0
 23
0.0
 14
1.0
 24
1.0
 15
10.0
 25
10.0
 16
0.0
 26
0.0
 36
1.0
 17
0.0
 27
0.0
 37
0.0
 42
50.0
 43
0.0
 44
0.0
 45
297.0
 50
0.0
 51
0.0
 72
   100
 90
    32800
  1

281
     0
 71
     0
 74
     0
110
0.0
120
0.0
130
0.0
111
0.0
121
0.0
131
0.0
112
0.0
122
0.0
132
0.0
 79
     0
146
0.0
  0
ENDSEC
  0
SECTION
  2
OBJECTS
  0
DICTIONARY
  5
C
330
0
100
AcDbDictionary
281
     1
  3
ACAD_GROUP
350
D
  3
ACAD_LAYOUT
350
19
  3
ACAD_MLINESTYLE
350
16
  3
ACAD_PLOTSETTINGS
350
18
  3
ACAD_PLOTSTYLENAME
350
E
  3
AcDbVariableDictionary
350
157
  3
AcmDictionary
350
129
  3
AMG
350
6F
  3
AMGSNAPSETTINGS
350
146
  3
DWGPROPS
350
15C
  3
MAPISURF_MODULE
350
FC
  0
DICTIONARY
  5
14D
330
1E
100
AcDbDictionary
280
     1
281
     1
  3
ACAD_INDEX
360
14E
  0
DICTIONARY
  5
D
102
{ACAD_REACTORS
330
C
102
}
330
C
100
AcDbDictionary
281
     1
  0
DICTIONARY
  5
19
102
{ACAD_REACTORS
330
C
102
}
330
C
100
AcDbDictionary
281
     1
  3
Model
350
21
  3
ﾚｲｱｳﾄ1
350
1D
  0
DICTIONARY
  5
16
102
{ACAD_REACTORS
330
C
102
}
330
C
100
AcDbDictionary
281
     1
  3
Standard
350
17
  0
DICTIONARY
  5
18
102
{ACAD_REACTORS
330
C
102
}
330
C
100
AcDbDictionary
281
     1
  0
ACDBDICTIONARYWDFLT
  5
E
102
{ACAD_REACTORS
330
C
102
}
330
C
100
AcDbDictionary
281
     1
  3
Normal
350
F
100
AcDbDictionaryWithDefault
340
F
  0
DICTIONARY
  5
157
102
{ACAD_REACTORS
330
C
102
}
330
C
100
AcDbDictionary
281
     1
  3
DIMASSOC
350
159
  3
INDEXCTL
350
158
  0
DICTIONARY
  5
129
102
{ACAD_REACTORS
330
C
102
}
330
C
100
AcDbDictionary
281
     1
  3
AcmBOMDATA
350
12A
  3
AcmStdDictionary
350
1DE
  0
DICTIONARY
  5
6F
102
{ACAD_REACTORS
330
C
102
}
330
C
100
AcDbDictionary
281
     1
  3
AcMgSettings
350
70
  3
AMGLAYCFG
350
136
  0
DICTIONARY
  5
146
102
{ACAD_REACTORS
330
C
102
}
330
C
100
AcDbDictionary
281
     1
  3
DIMENSION
350
14B
  3
FEA
350
14A
  3
HATCH (1)
350
147
  3
HATCH (2)
350
148
  3
SIMPLE WELD
350
14C
  3
SYMBOLS
350
149
  0
XRECORD
  5
15C
102
{ACAD_REACTORS
330
C
102
}
330
C
100
AcDbXrecord
280
     1
  1
DWGPROPS COOKIE
  2

  3

  4

  6

  7

  8

  9

300
AmdtFileType=84
301
=
302
=
303
=
304
=
305
=
306
=
307
=
308
=
309
=
 40
0.0004474074074074
 41
2450687.704699074
 42
2456448.697035405
  1

 90
        1
  0
DICTIONARY
  5
14E
102
{ACAD_REACTORS
330
14D
102
}
330
14D
100
AcDbDictionary
281
     1
  3
*A1
350
14F
  0
LAYOUT
  5
21
102
{ACAD_REACTORS
330
19
102
}
330
19
100
AcDbPlotSettings
  1

  2
\\KONISHIDENXP\SHARP MX-2700FG
  4

  6

 40
0.0
 41
0.0
 42
0.0
 43
0.0
 44
0.0
 45
0.0
 46
0.0
 47
0.0
 48
0.0
 49
0.0
140
0.0
141
0.0
142
1.0
143
1.0
 70
  1712
 72
     0
 73
     0
 74
     0
  7

 75
     0
147
1.0
148
0.0
149
0.0
100
AcDbLayout
  1
Model
 70
     1
 71
     0
 10
0.0
 20
0.0
 11
12.0
 21
9.0
 12
0.0
 22
0.0
 32
0.0
 14
0.0
 24
0.0
 34
0.0
 15
0.0
 25
0.0
 35
0.0
146
0.0
 13
0.0
 23
0.0
 33
0.0
 16
1.0
 26
0.0
 36
0.0
 17
0.0
 27
1.0
 37
0.0
 76
     0
330
1E
  0
LAYOUT
  5
1D
102
{ACAD_REACTORS
330
19
102
}
330
19
100
AcDbPlotSettings
  1

  2
\\KONISHIDENXP\SHARP MX-2700FG
  4

  6

 40
0.0
 41
0.0
 42
0.0
 43
0.0
 44
0.0
 45
0.0
 46
0.0
 47
0.0
 48
0.0
 49
0.0
140
0.0
141
0.0
142
1.0
143
1.0
 70
   688
 72
     0
 73
     0
 74
     5
  7

 75
    16
147
1.0
148
0.0
149
0.0
100
AcDbLayout
  1
ﾚｲｱｳﾄ1
 70
     1
 71
     1
 10
0.0
 20
0.0
 11
420.0
 21
297.0
 12
0.0
 22
0.0
 32
0.0
 14
1.000000000000000E+20
 24
1.000000000000000E+20
 34
1.000000000000000E+20
 15
-1.000000000000000E+20
 25
-1.000000000000000E+20
 35
-1.000000000000000E+20
146
0.0
 13
0.0
 23
0.0
 33
0.0
 16
1.0
 26
0.0
 36
0.0
 17
0.0
 27
1.0
 37
0.0
 76
     0
330
1A
  0
MLINESTYLE
  5
17
102
{ACAD_REACTORS
330
16
102
}
330
16
100
AcDbMlineStyle
  2
STANDARD
 70
     0
  3

 62
   256
 51
90.0
 52
90.0
 71
     2
 49
0.5
 62
   256
  6
BYLAYER
 49
-0.5
 62
   256
  6
BYLAYER
  0
ACDBPLACEHOLDER
  5
F
102
{ACAD_REACTORS
330
E
102
}
330
E
  0
DICTIONARYVAR
  5
159
102
{ACAD_REACTORS
330
157
102
}
330
157
100
DictionaryVariables
280
     0
  1
1
  0
DICTIONARYVAR
  5
158
102
{ACAD_REACTORS
330
157
102
}
330
157
100
DictionaryVariables
280
     0
  1
1
  0
ACMDATADICTIONARY
  5
12A
102
{ACAD_REACTORS
330
129
102
}
330
129
100
AcDbDictionary
281
     1
  3
*A1
350
12B
100
AcmDataDictionary
  0
DICTIONARY
  5
1DE
102
{ACAD_REACTORS
330
129
102
}
330
129
100
AcDbDictionary
281
     1
  3
ANSI
350
1DF
  0
DICTIONARY
  5
70
102
{ACAD_REACTORS
330
6F
102
}
330
6F
100
AcDbDictionary
281
     1
  3
DWGSETTINGS
350
71
  0
ACAMGFILTERDAT
  5
14B
102
{ACAD_REACTORS
330
146
102
}
330
146
100
AcAmgFilterDat
 70
    15
  1
DIMENSION,AMDT_*_DIM
  2
*
  3
*
  4
*
  5
*
290
     1
  0
ACAMGFILTERDAT
  5
14A
102
{ACAD_REACTORS
330
146
102
}
330
146
100
AcAmgFilterDat
 70
    15
  1
*
  2
AM_FEA-AM_*
  3
*
  4
*
  5
*
290
     1
  0
ACAMGFILTERDAT
  5
147
102
{ACAD_REACTORS
330
146
102
}
330
146
100
AcAmgFilterDat
 70
    15
  1
HATCH
  2
*
  3
*
  4
*
  5
*
290
     1
  0
ACAMGFILTERDAT
  5
148
102
{ACAD_REACTORS
330
146
102
}
330
146
100
AcAmgFilterDat
 70
    15
  1
LINE
  2
8,8N,*-8,*-8N,AM_8,AM_8N,*-AM_8,*-AM_8N
  3
*
  4
*
  5
INSERT,STDPART2D
290
     1
  0
ACAMGFILTERDAT
  5
14C
102
{ACAD_REACTORS
330
146
102
}
330
146
100
AcAmgFilterDat
 70
    15
  1
ARC
  2
AM_5
  3
*
  4
2
  5
INSERT
290
     0
  0
ACAMGFILTERDAT
  5
149
102
{ACAD_REACTORS
330
146
102
}
330
146
100
AcAmgFilterDat
 70
    15
  1
ACMFCFRAME,ACMDATUMTARGET,ACMDATUMID,ACMWELDSYM,ACMSURFSYM,ACMFEATID,ACMPARTREF,ACMBALLOON,AMDTEDGESYM,AMGSCREWCALCTABLE
  2
*
  3
*
  4
*
  5
*
290
     1
  0
LAYER_INDEX
  5
14F
102
{ACAD_REACTORS
330
14E
102
}
330
14E
100
AcDbIndex
 40
2456448.697448449
100
AcDbLayerIndex
  8
0
360
150
 90
        0
  8
2
360
151
 90
        5
  8
1
360
152
 90
        3
  8
3
360
153
 90
       46
  8
10
360
154
 90
        0
  8
11
360
155
 90
        0
  8
4
360
156
 90
        0
  8
DEFPOINTS
360
2AF
 90
        0
  0
ACMDATAENTRYBLOCK
  5
12B
102
{ACAD_REACTORS
330
12A
102
}
330
12A
100
AcmDataEntry
100
AcmDataEntryBlock
  0
IDBUFFER
  5
150
330
0
100
AcDbIdBuffer
  0
IDBUFFER
  5
151
330
0
100
AcDbIdBuffer
330
1FC
330
1FD
330
20E
330
227
330
229
  0
IDBUFFER
  5
152
330
0
100
AcDbIdBuffer
330
1F6
330
203
330
210
  0
IDBUFFER
  5
153
330
0
100
AcDbIdBuffer
330
209
330
20A
330
20B
330
20D
330
20F
330
212
330
213
330
214
330
215
330
216
330
217
330
218
330
219
330
21A
330
21B
330
21C
330
21D
330
21E
330
21F
330
220
330
221
330
222
330
223
330
224
330
225
330
226
330
228
330
22A
330
22B
330
22C
330
1F4
330
1F5
330
1F8
330
1F9
330
1FA
330
1FB
330
1FE
330
1FF
330
200
330
201
330
202
330
204
330
205
330
206
330
207
330
208
  0
IDBUFFER
  5
154
330
0
100
AcDbIdBuffer
  0
IDBUFFER
  5
155
330
0
100
AcDbIdBuffer
  0
IDBUFFER
  5
156
330
0
100
AcDbIdBuffer
  0
IDBUFFER
  5
2AF
330
0
100
AcDbIdBuffer
  0
ENDSEC
  0
EOF
