  0
SECTION
  2
HEADER
  9
$ACADVER
  1
AC1009
  9
$INSBASE
 10
0.0
 20
0.0
 30
0.0
  9
$EXTMIN
 10
14.093399937373301
 20
64.982758272652063
 30
-0.0015258207003583
  9
$EXTMAX
 10
365.91339197581777
 20
210.76446589171471
 30
0.0000000349246037
  9
$LIMMIN
 10
0.0
 20
0.0
  9
$LIMMAX
 10
375.0
 20
270.0
  9
$ORTHOMODE
 70
     1
  9
$REGENMODE
 70
     1
  9
$FILLMODE
 70
     1
  9
$QTEXTMODE
 70
     0
  9
$MIRRTEXT
 70
     0
  9
$DRAGMODE
 70
     2
  9
$LTSCALE
 40
10.0
  9
$OSMODE
 70
   231
  9
$ATTMODE
 70
     1
  9
$TEXTSIZE
 40
0.2
  9
$TRACEWID
 40
0.05
  9
$TEXTSTYLE
  7
STANDARD
  9
$CLAYER
  8
0
  9
$CELTYPE
  6
BYLAYER
  9
$CECOLOR
 62
   256
  9
$DIMSCALE
 40
1.0
  9
$DIMASZ
 40
3.0
  9
$DIMEXO
 40
2.0
  9
$DIMDLI
 40
0.38
  9
$DIMRND
 40
0.0
  9
$DIMDLE
 40
0.0
  9
$DIMEXE
 40
2.0
  9
$DIMTP
 40
0.0
  9
$DIMTM
 40
0.0
  9
$DIMTXT
 40
3.2000000000000002
  9
$DIMCEN
 40
0.09
  9
$DIMTSZ
 40
0.0
  9
$DIMTOL
 70
     0
  9
$DIMLIM
 70
     0
  9
$DIMTIH
 70
     0
  9
$DIMTOH
 70
     0
  9
$DIMSE1
 70
     0
  9
$DIMSE2
 70
     0
  9
$DIMTAD
 70
     1
  9
$DIMZIN
 70
     0
  9
$DIMBLK
  1

  9
$DIMASO
 70
     1
  9
$DIMSHO
 70
     0
  9
$DIMPOST
  1

  9
$DIMAPOST
  1

  9
$DIMALT
 70
     0
  9
$DIMALTD
 70
     2
  9
$DIMALTF
 40
25.399999999999999
  9
$DIMLFAC
 40
1.0
  9
$DIMTOFL
 70
     0
  9
$DIMTVP
 40
1.6000000000000001
  9
$DIMTIX
 70
     1
  9
$DIMSOXD
 70
     0
  9
$DIMSAH
 70
     0
  9
$DIMBLK1
  1

  9
$DIMBLK2
  1

  9
$DIMSTYLE
  2
STANDARD
  9
$DIMCLRD
 70
     0
  9
$DIMCLRE
 70
     0
  9
$DIMCLRT
 70
     0
  9
$DIMTFAC
 40
1.0
  9
$DIMGAP
 40
0.09
  9
$LUNITS
 70
     2
  9
$LUPREC
 70
     4
  9
$SKETCHINC
 40
0.1
  9
$FILLETRAD
 40
3.0
  9
$AUNITS
 70
     0
  9
$AUPREC
 70
     4
  9
$MENU
  1
E:\r13\win\SUPPORT\ACAD
  9
$ELEVATION
 40
0.0
  9
$PELEVATION
 40
0.0
  9
$THICKNESS
 40
0.0
  9
$LIMCHECK
 70
     0
  9
$BLIPMODE
 70
     1
  9
$CHAMFERA
 40
0.0
  9
$CHAMFERB
 40
0.0
  9
$SKPOLY
 70
     0
  9
$TDCREATE
 40
2449839.7832986112
  9
$TDUPDATE
 40
2453236.8374419441
  9
$TDINDWG
 40
0.0002159144
  9
$TDUSRTIMER
 40
0.0002159144
  9
$USRTIMER
 70
     1
  9
$ANGBASE
 50
0.0
  9
$ANGDIR
 70
     0
  9
$PDMODE
 70
     0
  9
$PDSIZE
 40
0.0
  9
$PLINEWID
 40
0.0
  9
$COORDS
 70
     0
  9
$SPLFRAME
 70
     0
  9
$SPLINETYPE
 70
     6
  9
$SPLINESEGS
 70
     8
  9
$ATTDIA
 70
     0
  9
$ATTREQ
 70
     1
  9
$HANDLING
 70
-16383
  9
$HANDSEED
  5
188
  9
$SURFTAB1
 70
     6
  9
$SURFTAB2
 70
     6
  9
$SURFTYPE
 70
     6
  9
$SURFU
 70
     6
  9
$SURFV
 70
     6
  9
$UCSNAME
  2

  9
$UCSORG
 10
0.0
 20
0.0
 30
0.0
  9
$UCSXDIR
 10
1.0
 20
0.0
 30
0.0
  9
$UCSYDIR
 10
0.0
 20
1.0
 30
0.0
  9
$PUCSNAME
  2

  9
$PUCSORG
 10
0.0
 20
0.0
 30
0.0
  9
$PUCSXDIR
 10
1.0
 20
0.0
 30
0.0
  9
$PUCSYDIR
 10
0.0
 20
1.0
 30
0.0
  9
$USERI1
 70
     0
  9
$USERI2
 70
     1
  9
$USERI3
 70
     1
  9
$USERI4
 70
     0
  9
$USERI5
 70
     0
  9
$USERR1
 40
0.0
  9
$USERR2
 40
0.0
  9
$USERR3
 40
0.0
  9
$USERR4
 40
0.0
  9
$USERR5
 40
0.0
  9
$WORLDVIEW
 70
     1
  9
$SHADEDGE
 70
     3
  9
$SHADEDIF
 70
    70
  9
$TILEMODE
 70
     1
  9
$MAXACTVP
 70
    16
  9
$PLIMCHECK
 70
     0
  9
$PEXTMIN
 10
1.0000000000000000E+020
 20
1.0000000000000000E+020
 30
1.0000000000000000E+020
  9
$PEXTMAX
 10
-1.0000000000000000E+020
 20
-1.0000000000000000E+020
 30
-1.0000000000000000E+020
  9
$PLIMMIN
 10
0.0
 20
0.0
  9
$PLIMMAX
 10
12.0
 20
9.0
  9
$UNITMODE
 70
     0
  9
$VISRETAIN
 70
     0
  9
$PLINEGEN
 70
     0
  9
$PSLTSCALE
 70
     0
  0
ENDSEC
  0
SECTION
  2
TABLES
  0
TABLE
  2
VPORT
 70
     3
  0
VPORT
  2
*ACTIVE
 70
     0
 10
0.0
 20
0.0
 11
1.0
 21
1.0
 12
190.0033959565956
 22
137.87361208218331
 13
0.0
 23
0.0
 14
10.0
 24
10.0
 15
10.0
 25
10.0
 16
0.0
 26
0.0
 36
1.0
 17
0.0
 27
0.0
 37
0.0
 40
419.03576486529943
 41
0.9407114624505929
 42
50.0
 43
0.0
 44
0.0
 50
0.0
 51
0.0
 71
     0
 72
   500
 73
     1
 74
     0
 75
     0
 76
     0
 77
     0
 78
     0
  0
ENDTAB
  0
TABLE
  2
LTYPE
 70
     3
  0
LTYPE
  2
CONTINUOUS
 70
     0
  3
Solid Line
 72
    65
 73
     0
 40
0.0
  0
LTYPE
  2
CENTER
 70
     0
  3
____ _ ____ _ ____ _ ____ _ ____ _ ____ _ ____
 72
    65
 73
     4
 40
2.0
 49
1.25
 49
-0.25
 49
0.25
 49
-0.25
  0
LTYPE
  2
HIDDEN
 70
     0
  3
_ _ _ _ _ _ _ _ _ _ _ _ _ _ _ _ _ _ _ _ _ _ _
 72
    65
 73
     2
 40
0.375
 49
0.25
 49
-0.125
  0
ENDTAB
  0
TABLE
  2
LAYER
 70
     3
  0
LAYER
  2
0
 70
     0
 62
     7
  6
CONTINUOUS
  0
LAYER
  2
1
 70
     0
 62
     1
  6
CENTER
  0
LAYER
  2
2
 70
     0
 62
     2
  6
HIDDEN
  0
ENDTAB
  0
TABLE
  2
STYLE
 70
     1
  0
STYLE
  2
STANDARD
 70
     0
 40
0.0
 41
1.0
 50
0.0
 71
     0
 42
0.2
  3
TXT
  4
BIGFONT
  0
ENDTAB
  0
TABLE
  2
VIEW
 70
     1
  0
VIEW
  2
ALL
 70
     0
 40
179.5384664489153
 10
135.0
 20
89.769233224457665
 41
0.0
 11
0.0
 21
0.0
 31
1.0
 12
0.0
 22
0.0
 32
0.0
 42
0.0
 43
0.0
 44
0.0
 50
0.0
 71
     0
  0
ENDTAB
  0
TABLE
  2
UCS
 70
     0
  0
ENDTAB
  0
TABLE
  2
APPID
 70
     1
  0
APPID
  2
ACAD
 70
     0
  0
ENDTAB
  0
TABLE
  2
DIMSTYLE
 70
     1
  0
DIMSTYLE
  2
STANDARD
 70
     0
  3

  4

  5

  6

  7

 40
1.0
 41
0.18
 42
0.0625
 43
0.38
 44
0.18
 45
0.0
 46
0.0
 47
0.0
 48
0.0
140
0.18
141
0.09
142
0.0
143
25.399999999999999
144
1.0
145
0.0
146
1.0
147
0.09
 71
     0
 72
     0
 73
     1
 74
     1
 75
     0
 76
     0
 77
     0
 78
     0
170
     0
171
     2
172
     0
173
     0
174
     0
175
     0
176
     0
177
     0
178
     0
  0
ENDTAB
  0
ENDSEC
  0
SECTION
  2
BLOCKS
  0
BLOCK
  8
0
  2
$MODEL_SPACE
 70
     0
 10
0.0
 20
0.0
 30
0.0
  3
$MODEL_SPACE
  1

  0
ENDBLK
  5
130
  8
0
  0
BLOCK
 67
     1
  8
0
  2
$PAPER_SPACE
 70
     0
 10
0.0
 20
0.0
 30
0.0
  3
$PAPER_SPACE
  1

  0
ENDBLK
  5
12E
 67
     1
  8
0
  0
ENDSEC
  0
SECTION
  2
ENTITIES
  0
LINE
  5
35
  8
0
 10
59.000000000000021
 20
70.0
 30
0.0
 11
89.0
 21
70.0
 31
0.0
  0
LINE
  5
36
  8
0
 10
59.000000000000021
 20
70.0
 30
0.0
 11
59.000000000000021
 21
90.0
 31
0.0
  0
LINE
  5
37
  8
0
 10
89.249963389874296
 20
123.9999999999999
 30
0.0
 11
290.75003661012579
 21
123.9999999999999
 31
0.0
  0
LINE
  5
38
  8
0
 10
321.0
 20
89.999999999999915
 30
0.0
 11
321.0
 21
70.0
 31
0.0
  0
LINE
  5
39
  8
0
 10
334.10000000000002
 20
69.999999999999986
 30
0.0
 11
365.89999999999992
 21
70.0
 31
0.0
  0
LINE
  5
3A
  8
0
 10
89.000000000000014
 20
70.0
 30
0.0
 11
89.000000000000014
 21
108.0
 31
0.0
  0
LINE
  5
3B
  8
0
 10
96.000000000000014
 20
115.0
 30
0.0
 11
283.99999730260168
 21
114.9999999999999
 31
0.0
  0
LINE
  5
3C
  8
0
 10
291.0
 20
108.0
 30
0.0
 11
291.0
 21
70.0
 31
0.0
  0
LINE
  5
3D
  8
1
 10
190.0
 20
128.99999999999989
 30
0.0
 11
190.0
 21
110.0
 31
0.0
  0
LINE
  5
3E
  8
1
 10
307.5
 20
65.000000000000028
 30
0.0
 11
307.5
 21
117.7561788082597
 31
0.0
  0
LINE
  5
3F
  8
0
 10
59.000000000000021
 20
70.0
 30
0.0
 11
72.500000000000014
 21
70.0
 31
0.0
  0
LINE
  5
40
  8
1
 10
72.500000000000014
 20
64.999999999999972
 30
0.0
 11
72.500000000000014
 21
117.75617880825951
 31
0.0
  0
LINE
  5
41
  8
1
 10
350.0
 20
65.0
 30
0.0
 11
350.0
 21
129.01909918771671
 31
0.0
  0
LINE
  5
42
  8
0
 10
321.0
 20
90.0
 30
0.0
 11
300.54852635275472
 21
118.9274525450265
 31
0.0
  0
LINE
  5
43
  8
0
 10
59.000000000000021
 20
90.0
 30
0.0
 11
79.451473647245336
 21
118.9274525450265
 31
0.0
  0
LINE
  5
44
  8
0
 10
291.0
 20
70.0
 30
0.0
 11
321.0
 21
70.000000000000028
 31
0.0
  0
LINE
  5
45
  8
2
 10
297.50000000000011
 20
90.0
 30
0.0
 11
321.0
 21
89.999999999999602
 31
0.0
  0
ARC
  5
46
  8
0
 10
290.75003661012579
 20
111.9999999999999
 30
0.0
 40
12.0
 50
35.259999999999991
 51
90.0
  0
ARC
  5
47
  8
0
 10
89.249963389874296
 20
111.9999999999999
 30
0.0
 40
12.0
 50
89.999999999999986
 51
144.7399999999999
  0
ARC
  5
48
  8
0
 10
96.000000000000014
 20
108.0
 30
0.0
 40
7.0
 50
90.0
 51
179.99999999999989
  0
ARC
  5
49
  8
0
 10
284.0
 20
108.0
 30
0.0
 40
7.0
 50
0.0000000000000509
 51
90.0
  0
LINE
  5
4A
  8
2
 10
297.50000000000011
 20
90.0
 30
0.0
 11
297.50000000000011
 21
117.4943169096554
 31
0.0
  0
ARC
  5
4B
  8
2
 10
291.00000000000011
 20
117.4943169096554
 30
0.0
 40
6.5
 50
0.0
 51
87.395130512339946
  0
LINE
  5
4C
  8
2
 10
312.74999999999989
 20
70.000000000000028
 30
0.0
 11
312.74999999999989
 21
79.500000000000014
 31
0.0
  0
LINE
  5
4D
  8
2
 10
315.75
 20
79.500000000000014
 30
0.0
 11
315.75
 21
90.0
 31
0.0
  0
LINE
  5
4E
  8
2
 10
302.24999999999989
 20
70.000000000000028
 30
0.0
 11
302.24999999999989
 21
79.500000000000014
 31
0.0
  0
LINE
  5
4F
  8
2
 10
315.75
 20
79.500000000000014
 30
0.0
 11
299.25
 21
79.500000000000014
 31
0.0
  0
LINE
  5
50
  8
2
 10
299.25
 20
79.500000000000014
 30
0.0
 11
299.25
 21
90.0
 31
0.0
  0
LINE
  5
51
  8
0
 10
350.0
 20
124.0
 30
0.0
 11
362.05889949460487
 21
122.94498299962351
 31
0.0
  0
LINE
  5
52
  8
0
 10
350.00000000000023
 20
123.9999999999999
 30
0.0
 11
337.94110050539513
 21
122.94498299962351
 31
0.0
  0
LINE
  5
58
  8
2
 10
80.749999999999929
 20
79.500000000000014
 30
0.0
 11
80.749999999999929
 21
90.0
 31
0.0
  0
LINE
  5
59
  8
2
 10
64.249999999999943
 20
79.500000000000014
 30
0.0
 11
80.749999999999929
 21
79.500000000000014
 31
0.0
  0
LINE
  5
5A
  8
2
 10
77.749999999999943
 20
70.000000000000028
 30
0.0
 11
77.749999999999943
 21
79.500000000000014
 31
0.0
  0
LINE
  5
5B
  8
2
 10
82.499999999999844
 20
90.0
 30
0.0
 11
82.499999999999844
 21
117.4943169096554
 31
0.0
  0
LINE
  5
5C
  8
2
 10
82.499999999999844
 20
90.0
 30
0.0
 11
58.99999999999995
 21
89.999999999999602
 31
0.0
  0
ARC
  5
5D
  8
2
 10
88.999999999999815
 20
117.4943169096554
 30
0.0
 40
6.5
 50
92.604869487660082
 51
180.0
  0
LINE
  5
5E
  8
2
 10
64.249999999999943
 20
79.500000000000014
 30
0.0
 11
64.249999999999943
 21
90.0
 31
0.0
  0
LINE
  5
5F
  8
2
 10
67.249999999999943
 20
70.000000000000028
 30
0.0
 11
67.249999999999943
 21
79.500000000000014
 31
0.0
  0
LINE
  5
60
  8
1
 10
189.99999999999989
 20
210.74999999999989
 30
0.0
 11
189.99999999999989
 21
169.25
 31
0.0
  0
LINE
  5
61
  8
1
 10
54.000000000000007
 20
190.0
 30
0.0
 11
325.99999999999977
 21
190.0
 31
0.0
  0
CIRCLE
  5
62
  8
0
 10
72.499999999999943
 20
190.0
 30
0.0
 40
5.25
  0
LINE
  5
63
  8
1
 10
72.499999999999943
 20
200.24999999999989
 30
0.0
 11
72.499999999999943
 21
179.75000000000071
 31
0.0
  0
LINE
  5
64
  8
0
 10
59.000000000000043
 20
190.0
 30
0.0
 11
60.1514791778392
 21
176.838532771757
 31
0.0
  0
LINE
  5
65
  8
0
 10
58.999999999999901
 20
190.0
 30
0.0
 11
60.151479412038299
 21
203.16146990515151
 31
0.0
  0
LINE
  5
66
  8
0
 10
89.249963389874296
 20
190.0
 30
0.0
 11
290.75003661012579
 21
189.99999999999969
 31
0.0
  0
LINE
  5
6B
  8
0
 10
87.600000000000009
 20
70.0
 30
0.0
 11
87.600000000000009
 21
108.0
 31
0.0
  0
ARC
  5
6C
  8
0
 10
96.000000000000014
 20
108.0
 30
0.0
 40
8.4000000000000004
 50
90.0
 51
179.99999999999989
  0
LINE
  5
6D
  8
0
 10
96.000000000000014
 20
116.40000000000001
 30
0.0
 11
283.99999730260168
 21
116.39999999999991
 31
0.0
  0
ARC
  5
6E
  8
0
 10
284.0
 20
108.0
 30
0.0
 40
8.4000000000000004
 50
0.0000000000000509
 51
90.0
  0
LINE
  5
6F
  8
0
 10
292.39999999999992
 20
108.0
 30
0.0
 11
292.39999999999998
 21
70.0
 31
0.0
  0
LINE
  5
70
  8
0
 10
63.140060109134488
 20
205.90000000000001
 30
0.0
 11
89.000000000000014
 21
205.90000000000001
 31
0.0
  0
LINE
  5
71
  8
0
 10
63.140063272114439
 20
174.09999999999991
 30
0.0
 11
89.000000000000014
 21
174.09999999999991
 31
0.0
  0
LINE
  5
72
  8
0
 10
89.0
 20
174.09999999999991
 30
0.0
 11
89.0
 21
175.19999999999999
 31
0.0
  0
LINE
  5
73
  8
0
 10
89.000000000000014
 20
204.80000000000001
 30
0.0
 11
290.99999999999977
 21
204.79999999999981
 31
0.0
  0
LINE
  5
74
  8
0
 10
89.0
 20
175.19999999999999
 30
0.0
 11
290.99999999999977
 21
175.1999999999997
 31
0.0
  0
LINE
  5
75
  8
0
 10
89.000000000000028
 20
204.80000000000001
 30
0.0
 11
89.000000000000014
 21
205.90000000000001
 31
0.0
  0
ARC
  5
76
  8
0
 10
63.140063272114368
 20
202.90000000000001
 30
0.0
 40
3.0
 50
90.0
 51
175.0
  0
ARC
  5
77
  8
0
 10
63.140063272114439
 20
177.09999999999991
 30
0.0
 40
3.0
 50
185.0
 51
269.99999999999989
  0
LINE
  5
78
  8
0
 10
64.454665417750306
 20
205.7437566453759
 30
0.0
 11
89.000000000000028
 21
204.80000000000001
 31
0.0
  0
LINE
  5
79
  8
0
 10
64.454665417750306
 20
174.25624335462399
 30
0.0
 11
89.000000000000028
 21
175.1999999999999
 31
0.0
  0
LINE
  5
7A
  8
0
 10
82.499999999999844
 20
187.5
 30
0.0
 11
82.499999999999815
 21
192.5
 31
0.0
  0
LINE
  5
7B
  8
0
 10
61.970014973871763
 20
198.99999999999989
 30
0.0
 11
75.999999999999815
 21
199.0
 31
0.0
  0
LINE
  5
7C
  8
0
 10
61.970014973871841
 20
181.0
 30
0.0
 11
75.999999999999829
 21
181.0
 31
0.0
  0
ARC
  5
7D
  8
0
 10
75.999999999999815
 20
192.5
 30
0.0
 40
6.5
 50
0.0
 51
90.0
  0
ARC
  5
7E
  8
0
 10
75.999999999999829
 20
187.5
 30
0.0
 40
6.5
 50
270.0
 51
0.0000000000000636
  0
CIRCLE
  5
7F
  8
0
 10
72.499999999999943
 20
190.0
 30
0.0
 40
8.2500000000000284
  0
ARC
  5
80
  8
0
 10
61.970014973871763
 20
200.99999999999989
 30
0.0
 40
2.0
 50
174.99999999999989
 51
269.99999999999989
  0
ARC
  5
81
  8
0
 10
61.970014973871841
 20
179.0
 30
0.0
 40
2.0
 50
90.0
 51
185.00000000000011
  0
ARC
  5
82
  8
0
 10
318.02998502612797
 20
179.0
 30
0.0
 40
2.0
 50
354.99999999999977
 51
90.000000000000028
  0
ARC
  5
83
  8
0
 10
318.02998502612809
 20
200.99999999999989
 30
0.0
 40
2.0
 50
270.00000000000011
 51
5.0000000000000711
  0
CIRCLE
  5
84
  8
0
 10
307.49999999999989
 20
190.0
 30
0.0
 40
8.2500000000000284
  0
ARC
  5
85
  8
0
 10
304.0
 20
187.5
 30
0.0
 40
6.5
 50
179.99999999999989
 51
270.0
  0
ARC
  5
86
  8
0
 10
304.0
 20
192.5
 30
0.0
 40
6.5
 50
90.000000000000028
 51
180.0
  0
LINE
  5
87
  8
0
 10
318.02998502612797
 20
181.0
 30
0.0
 11
304.0
 21
181.0
 31
0.0
  0
LINE
  5
88
  8
0
 10
318.02998502612809
 20
198.99999999999989
 30
0.0
 11
304.0
 21
199.0
 31
0.0
  0
LINE
  5
89
  8
0
 10
297.5
 20
187.5
 30
0.0
 11
297.5
 21
192.5
 31
0.0
  0
LINE
  5
8A
  8
0
 10
315.5453345822495
 20
174.25624335462399
 30
0.0
 11
290.99999999999977
 21
175.1999999999999
 31
0.0
  0
LINE
  5
8B
  8
0
 10
315.5453345822495
 20
205.7437566453759
 30
0.0
 11
290.99999999999977
 21
204.80000000000001
 31
0.0
  0
ARC
  5
8C
  8
0
 10
316.85993672788538
 20
177.09999999999991
 30
0.0
 40
3.0
 50
270.00000000000011
 51
355.0
  0
ARC
  5
8D
  8
0
 10
316.85993672788538
 20
202.90000000000001
 30
0.0
 40
3.0
 50
4.9999999999999432
 51
90.000000000000028
  0
LINE
  5
8E
  8
0
 10
290.99999999999977
 20
204.80000000000001
 30
0.0
 11
290.99999999999977
 21
205.90000000000001
 31
0.0
  0
LINE
  5
8F
  8
0
 10
290.99999999999977
 20
174.09999999999991
 30
0.0
 11
290.99999999999977
 21
175.19999999999999
 31
0.0
  0
LINE
  5
90
  8
0
 10
316.85993672788538
 20
174.09999999999991
 30
0.0
 11
290.99999999999977
 21
174.09999999999991
 31
0.0
  0
LINE
  5
91
  8
0
 10
316.85993989086541
 20
205.90000000000001
 30
0.0
 11
290.99999999999977
 21
205.90000000000001
 31
0.0
  0
LINE
  5
92
  8
0
 10
321.0
 20
190.0
 30
0.0
 11
319.84852058796162
 21
203.16146990515151
 31
0.0
  0
LINE
  5
93
  8
0
 10
320.99999999999977
 20
190.0
 30
0.0
 11
319.84852082216071
 21
176.838532771757
 31
0.0
  0
LINE
  5
94
  8
1
 10
307.49999999999989
 20
200.24999999999989
 30
0.0
 11
307.49999999999989
 21
179.75000000000071
 31
0.0
  0
CIRCLE
  5
95
  8
0
 10
307.49999999999989
 20
190.0
 30
0.0
 40
5.25
  0
LINE
  5
96
  8
0
 10
335.20329716793742
 20
120.0225508041982
 30
0.0
 11
334.09999999999991
 21
69.999999999999986
 31
0.0
  0
LINE
  5
97
  8
0
 10
364.79670283206258
 20
120.0225508041982
 30
0.0
 11
365.89999999999992
 21
70.0
 31
0.0
  0
ARC
  5
98
  8
0
 10
338.20256773363798
 20
119.95639890534829
 30
0.0
 40
3.0
 50
94.999999999999915
 51
178.73648938938291
  0
ARC
  5
99
  8
0
 10
361.79743226636191
 20
119.95639890534829
 30
0.0
 40
3.0
 50
1.263510610616688
 51
84.999999999999915
  0
ARC
  5
9A
  8
2
 10
361.79743226636191
 20
119.04360109465161
 30
0.0
 40
3.0
 50
275.00000000000011
 51
358.73648938938328
  0
ARC
  5
9B
  8
2
 10
338.20256773363798
 20
119.04360109465161
 30
0.0
 40
3.0
 50
181.263510610617
 51
265.00000000000011
  0
LINE
  5
9C
  8
2
 10
350.00000000000023
 20
115.0
 30
0.0
 11
337.94110050539513
 21
116.0550170003764
 31
0.0
  0
LINE
  5
9D
  8
2
 10
350.0
 20
115.0
 30
0.0
 11
362.05889949460487
 21
116.0550170003764
 31
0.0
  0
LINE
  5
9E
  8
2
 10
335.20329716793742
 20
120.0225508041982
 30
0.0
 11
335.20329716793742
 21
118.9774491958017
 31
0.0
  0
LINE
  5
9F
  8
2
 10
364.79670283206258
 20
120.0225508041982
 30
0.0
 11
364.79670283206258
 21
118.9774491958017
 31
0.0
  0
LINE
  5
A0
  8
0
 10
341.0
 20
89.999999999999616
 30
0.0
 11
359.0
 21
89.999999999999616
 31
0.0
  0
LINE
  5
A1
  8
0
 10
341.0
 20
89.999999999999616
 30
0.0
 11
341.0
 21
114.04554371382559
 31
0.0
  0
LINE
  5
A2
  8
0
 10
359.0
 20
89.999999999999616
 30
0.0
 11
359.0
 21
114.0455449262784
 31
0.0
  0
LINE
  5
A3
  8
0
 10
349.99999999999989
 20
89.999999999999616
 30
0.0
 11
349.99999999999989
 21
70.0
 31
0.0
  0
POLYLINE
  5
A4
  8
0
 66
     1
 10
0.0
 20
0.0
 30
0.0
  0
VERTEX
  5
A5
  8
0
 10
347.5
 20
117.4943169096555
 30
0.0
 42
0.0541364712747341
  0
VERTEX
  5
A6
  8
0
 10
344.87845666320459
 20
117.20964038068099
 30
0.0
 42
0.0679738003603239
  0
VERTEX
  5
A7
  8
0
 10
342.9038059222874
 20
116.4841930472719
 30
0.0
 42
0.105421926827186
 70
     2
 50
207.94958648640309
  0
VERTEX
  5
A8
  8
0
 10
341.40728478792693
 20
115.2291038589334
 30
0.0
 42
0.167245732003949
 50
207.94958648640309
  0
VERTEX
  5
A9
  8
0
 10
341.0
 20
114.04553831902901
 30
0.0
 42
0.167245732003949
  0
SEQEND
  5
AA
  8
0
  0
POLYLINE
  5
AB
  8
0
 66
     1
 10
0.0
 20
0.0
 30
0.0
  0
VERTEX
  5
AC
  8
0
 10
352.49999999999989
 20
117.4943169096555
 30
0.0
 42
-0.0541364712747341
  0
VERTEX
  5
AD
  8
0
 10
355.1215433367953
 20
117.20964038068099
 30
0.0
 42
-0.0679738003603239
  0
VERTEX
  5
AE
  8
0
 10
357.09619407771248
 20
116.4841930472719
 30
0.0
 42
-0.105421926827186
 70
     2
 50
332.05041351359688
  0
VERTEX
  5
AF
  8
0
 10
358.59271521207302
 20
115.2291038589334
 30
0.0
 42
-0.167245732003949
  0
VERTEX
  5
B0
  8
0
 10
359.0
 20
114.04553831902901
 30
0.0
 42
-0.167245732003949
  0
SEQEND
  5
B1
  8
0
  0
POLYLINE
  5
B2
  8
0
 66
     1
 10
0.0
 20
0.0
 30
0.0
  0
VERTEX
  5
B3
  8
0
 10
27.5
 20
117.4943169096555
 30
0.0
 42
0.0541364712747341
  0
VERTEX
  5
B4
  8
0
 10
24.878456663204702
 20
117.20964038068099
 30
0.0
 42
0.0679738003603239
  0
VERTEX
  5
B5
  8
0
 10
22.903805922287461
 20
116.4841930472719
 30
0.0
 42
0.105421926827186
 70
     2
 50
207.94958648640309
  0
VERTEX
  5
B6
  8
0
 10
21.407284787926979
 20
115.2291038589334
 30
0.0
 42
0.167245732003949
  0
VERTEX
  5
B7
  8
0
 10
21.0
 20
114.04553831902901
 30
0.0
 42
0.167245732003949
  0
SEQEND
  5
B8
  8
0
  0
POLYLINE
  5
B9
  8
0
 66
     1
 10
0.0
 20
0.0
 30
0.0
  0
VERTEX
  5
BA
  8
0
 10
32.5
 20
117.4943169096555
 30
0.0
 42
-0.0541364712747341
  0
VERTEX
  5
BB
  8
0
 10
35.121543336795298
 20
117.20964038068099
 30
0.0
 42
-0.0679738003603239
  0
VERTEX
  5
BC
  8
0
 10
37.096194077712539
 20
116.4841930472719
 30
0.0
 42
-0.105421926827186
 70
     2
 50
332.05041351359688
  0
VERTEX
  5
BD
  8
0
 10
38.59271521207301
 20
115.2291038589334
 30
0.0
 42
-0.167245732003949
  0
VERTEX
  5
BE
  8
0
 10
39.0
 20
114.04553831902901
 30
0.0
 42
-0.167245732003949
  0
SEQEND
  5
BF
  8
0
  0
LINE
  5
C0
  8
0
 10
30.00000000000005
 20
89.999999999999616
 30
0.0
 11
30.00000000000005
 21
70.0
 31
0.0
  0
LINE
  5
C1
  8
0
 10
20.99999999999994
 20
89.999999999999616
 30
0.0
 11
21.0
 21
114.0455449262784
 31
0.0
  0
LINE
  5
C2
  8
0
 10
39.0
 20
89.999999999999616
 30
0.0
 11
39.0
 21
114.04554371382559
 31
0.0
  0
LINE
  5
C3
  8
0
 10
39.0
 20
89.999999999999616
 30
0.0
 11
20.99999999999994
 21
89.999999999999616
 31
0.0
  0
LINE
  5
C4
  8
2
 10
15.203297167937359
 20
120.0225508041982
 30
0.0
 11
15.203297167937359
 21
118.9774491958017
 31
0.0
  0
LINE
  5
C5
  8
2
 10
44.796702832062579
 20
120.0225508041982
 30
0.0
 11
44.796702832062579
 21
118.9774491958017
 31
0.0
  0
LINE
  5
C6
  8
2
 10
29.99999999999994
 20
115.0
 30
0.0
 11
17.94110050539507
 21
116.0550170003764
 31
0.0
  0
LINE
  5
C7
  8
2
 10
29.999999999999769
 20
115.0
 30
0.0
 11
42.058899494604873
 21
116.0550170003764
 31
0.0
  0
ARC
  5
C8
  8
2
 10
41.797432266361902
 20
119.04360109465161
 30
0.0
 40
3.0
 50
274.99999999999989
 51
358.736489389383
  0
ARC
  5
C9
  8
2
 10
18.20256773363803
 20
119.04360109465161
 30
0.0
 40
3.0
 50
181.26351061061669
 51
264.99999999999989
  0
ARC
  5
CA
  8
0
 10
18.20256773363803
 20
119.95639890534829
 30
0.0
 40
3.0
 50
95.000000000000099
 51
178.73648938938331
  0
ARC
  5
CB
  8
0
 10
41.797432266361902
 20
119.95639890534829
 30
0.0
 40
3.0
 50
1.2635106106170439
 51
85.000000000000114
  0
LINE
  5
CC
  8
0
 10
15.203297167937359
 20
120.0225508041982
 30
0.0
 11
14.10000000000008
 21
70.0
 31
0.0
  0
LINE
  5
CD
  8
0
 10
44.796702832062579
 20
120.0225508041982
 30
0.0
 11
45.900000000000027
 21
69.999999999999986
 31
0.0
  0
LINE
  5
CE
  8
0
 10
29.999999999999769
 20
123.9999999999999
 30
0.0
 11
42.058899494604873
 21
122.94498299962351
 31
0.0
  0
LINE
  5
CF
  8
0
 10
29.99999999999994
 20
124.0
 30
0.0
 11
17.94110050539507
 21
122.94498299962351
 31
0.0
  0
LINE
  5
D0
  8
1
 10
30.0
 20
65.0
 30
0.0
 11
30.0
 21
129.01909918771671
 31
0.0
  0
LINE
  5
D1
  8
0
 10
45.899999999999977
 20
69.999999999999986
 30
0.0
 11
14.100000000000019
 21
70.0
 31
0.0
  0
ENDSEC
  0
EOF
